0
SECTION
2
HEADER
9
$MEASUREMENT
70
1
0
ENDSEC
0
SECTION
2
TABLES
0
TABLE
2
LTYPE
0
LTYPE
72
65
70
64
2
CONTINUOUS
3
______
73
0
40
0
0
ENDTAB
0
TABLE
2
LAYER
0
LAYER
2
DEFAULT_255_2_778
70
0
62
255
6
CONTINUOUS
0
ENDTAB
0
ENDSEC
0
SECTION
2
ENTITIES
0
ARC
8
DEFAULT_255_2_778
10
4.2174967
20
3.7871494
40
4.0852676
50
180.0013892
51
180.1175738
0
ARC
8
DEFAULT_255_2_778
10
4.1303702
20
3.7869735
40
3.998141
50
135.0024285
51
179.9988977
0
ARC
8
DEFAULT_255_2_778
10
4.1301305
20
3.7867338
40
3.998141
50
90.0011023
51
134.9975715
0
ARC
8
DEFAULT_255_2_778
10
4.1299545
20
3.6996073
40
4.0852675
50
89.8824262
51
89.9986108
0
ARC
8
DEFAULT_255_2_778
10
4.1467201
20
3.700385
40
4.0844898
50
90.0013893
51
90.1175851
0
ARC
8
DEFAULT_255_2_778
10
4.1464686
20
3.7867912
40
3.9980836
50
45.0020873
51
89.9978157
0
ARC
8
DEFAULT_255_2_778
10
4.1462052
20
3.7869735
40
3.998141
50
0.0011023
51
44.9975715
0
ARC
8
DEFAULT_255_2_778
10
4.0590787
20
3.7871494
40
4.0852675
50
359.8824262
51
359.9986108
0
ARC
8
DEFAULT_255_2_778
10
4.0598565
20
3.7703839
40
4.0844898
50
0.0013893
51
0.1175851
0
ARC
8
DEFAULT_255_2_778
10
4.1462626
20
3.7706354
40
3.9980836
50
315.0020873
51
359.9978157
0
ARC
8
DEFAULT_255_2_778
10
4.1464686
20
3.7708413
40
3.9980837
50
270.0021843
51
314.9979127
0
ARC
8
DEFAULT_255_2_778
10
4.1467201
20
3.8572475
40
4.0844898
50
269.8824149
51
269.9986107
0
ARC
8
DEFAULT_255_2_778
10
4.1299545
20
3.8580252
40
4.0852676
50
270.0013892
51
270.1175738
0
ARC
8
DEFAULT_255_2_778
10
4.1301305
20
3.7708987
40
3.998141
50
225.0024285
51
269.9988977
0
ARC
8
DEFAULT_255_2_778
10
4.1303128
20
3.7706354
40
3.9980837
50
180.0021843
51
224.9979127
0
ARC
8
DEFAULT_255_2_778
10
4.2167189
20
3.7703839
40
4.0844898
50
179.8824149
51
179.9986107
0
LINE
8
DEFAULT_255_2_778
10
0.1322377
20
3.7787663
11
0.1322377
21
3.7787663
0
ARC
8
DEFAULT_255_2_778
10
13.1390259
20
3.7871162
40
4.0852676
50
180.0013892
51
180.1175738
0
ARC
8
DEFAULT_255_2_778
10
13.0518994
20
3.7869402
40
3.998141
50
135.0024285
51
179.9988977
0
ARC
8
DEFAULT_255_2_778
10
13.0516598
20
3.7867006
40
3.998141
50
90.0011023
51
134.9975715
0
ARC
8
DEFAULT_255_2_778
10
13.0514838
20
3.6995741
40
4.0852675
50
89.8824262
51
89.9986108
0
ARC
8
DEFAULT_255_2_778
10
13.0678801
20
3.6694023
40
4.1154386
50
90.0014547
51
90.1115604
0
ARC
8
DEFAULT_255_2_778
10
13.0677507
20
3.7868827
40
3.9979581
50
44.9993321
51
89.9996433
0
ARC
8
DEFAULT_255_2_778
10
13.067177
20
3.7866933
40
3.9984977
50
359.9992881
51
44.9954383
0
ARC
8
DEFAULT_255_2_778
10
12.948407
20
3.7867481
40
4.1172678
50
359.8884621
51
359.9985456
0
ARC
8
DEFAULT_255_2_778
10
12.9510386
20
3.7707206
40
4.1146362
50
0.0014548
51
0.1115717
0
ARC
8
DEFAULT_255_2_778
10
13.0677743
20
3.7709254
40
3.9979005
50
314.99899
51
359.9985632
0
ARC
8
DEFAULT_255_2_778
10
13.0676746
20
3.7708257
40
3.9979004
50
270.0014368
51
315.00101
0
ARC
8
DEFAULT_255_2_778
10
13.0678794
20
3.8875614
40
4.1146362
50
269.8884283
51
269.9985452
0
ARC
8
DEFAULT_255_2_778
10
13.0518511
20
3.8909958
40
4.1180705
50
270.0014542
51
270.1115266
0
ARC
8
DEFAULT_255_2_778
10
13.0517966
20
3.7711572
40
3.998232
50
225.0009581
51
270.0022789
0
ARC
8
DEFAULT_255_2_778
10
13.0516674
20
3.7708298
40
3.997909
50
180.0011476
51
224.9989494
0
ARC
8
DEFAULT_255_2_778
10
13.1382492
20
3.7706507
40
4.0844908
50
179.8824149
51
179.9986107
0
LINE
8
DEFAULT_255_2_778
10
9.053767
20
3.779033
11
9.053767
21
3.778733
0
ENDSEC
0
EOF