0
SECTION
2
HEADER
9
$MEASUREMENT
70
1
0
ENDSEC
0
SECTION
2
TABLES
0
TABLE
2
LTYPE
0
LTYPE
72
65
70
64
2
CONTINUOUS
3
______
73
0
40
0
0
ENDTAB
0
TABLE
2
LAYER
0
LAYER
2
DEFAULT_255_2_778
70
0
62
255
6
CONTINUOUS
0
ENDTAB
0
ENDSEC
0
SECTION
2
ENTITIES
0
ARC
8
DEFAULT_255_2_778
10
16.2335319
20
4.1473841
40
1.1038245
50
131.9181917
51
148.4636715
0
ARC
8
DEFAULT_255_2_778
10
16.0213903
20
4.3680268
40
0.7979876
50
91.2997114
51
131.1678631
0
ARC
8
DEFAULT_255_2_778
10
16.0579811
20
4.0321771
40
1.1349506
50
89.9772067
51
92.7620402
0
ARC
8
DEFAULT_255_2_778
10
16.073292
20
4.0838782
40
1.0833512
50
72.9775058
51
90.7858996
0
ARC
8
DEFAULT_255_2_778
10
16.1503589
20
4.3680264
40
0.7891477
50
30.4492982
51
72.2882552
0
ARC
8
DEFAULT_255_2_778
10
15.7063796
20
4.085174
40
1.3153701
50
17.9706592
51
31.2700977
0
ARC
8
DEFAULT_255_2_778
10
14.8777943
20
3.8085056
40
2.188906
50
9.8737638
51
18.1676997
0
ARC
8
DEFAULT_255_2_778
10
13.5597017
20
3.57231
40
3.5279836
50
4.4020653
51
9.9821391
0
ARC
8
DEFAULT_255_2_778
10
11.6104772
20
3.4170871
40
5.4833745
50
0.4214165
51
4.4559025
0
ARC
8
DEFAULT_255_2_778
10
10.0948432
20
3.3895329
40
6.9991895
50
359.9966812
51
0.5557167
0
ARC
8
DEFAULT_255_2_778
10
11.1887854
20
3.3763758
40
5.905261
50
356.3765767
51
0.1237229
0
ARC
8
DEFAULT_255_2_778
10
13.2325437
20
3.2439765
40
3.8572218
50
351.3328852
51
356.4207251
0
ARC
8
DEFAULT_255_2_778
10
14.6491114
20
3.0236209
40
2.4236284
50
343.8332977
51
351.4362373
0
ARC
8
DEFAULT_255_2_778
10
15.5729235
20
2.7510495
40
1.4604623
50
331.9859472
51
344.0126996
0
ARC
8
DEFAULT_255_2_778
10
16.0790928
20
2.4754876
40
0.8841888
50
309.2968287
51
332.3445091
0
ARC
8
DEFAULT_255_2_778
10
16.1316496
20
2.4433473
40
0.8262798
50
275.9052356
51
307.8878901
0
ARC
8
DEFAULT_255_2_778
10
16.0619351
20
2.8727556
40
1.260833
50
269.8408396
51
277.0489041
0
ARC
8
DEFAULT_255_2_778
10
16.0399171
20
2.6314733
40
1.019714
50
254.3291853
51
271.0404081
0
ARC
8
DEFAULT_255_2_778
10
15.9631391
20
2.3105992
40
0.6901461
50
217.9973737
51
253.270858
0
ARC
8
DEFAULT_255_2_778
10
16.2905883
20
2.5936413
40
1.122642
50
211.1913496
51
219.0927989
0
ARC
8
DEFAULT_255_2_778
10
15.7904097
20
2.6431231
40
0.3660665
50
267.7961522
51
303.7870578
0
ARC
8
DEFAULT_255_2_778
10
15.7497526
20
2.6619756
40
0.4050158
50
307.0859469
51
339.5657337
0
ARC
8
DEFAULT_255_2_778
10
15.2013392
20
2.8907852
40
0.9990676
50
338.2498886
51
350.4443783
0
ARC
8
DEFAULT_255_2_778
10
13.8973901
20
3.1242864
40
2.3237276
50
350.1041282
51
356.418285
0
ARC
8
DEFAULT_255_2_778
10
10.9822014
20
3.3217954
40
5.2455824
50
356.2543855
51
359.5173089
0
ARC
8
DEFAULT_255_2_778
10
6.992458
20
3.3859382
40
9.2357751
50
359.3279156
51
0.0166834
0
ARC
8
DEFAULT_255_2_778
10
9.3471258
20
3.4096122
40
6.8811388
50
359.8252701
51
2.4743038
0
ARC
8
DEFAULT_255_2_778
10
13.198954
20
3.5823578
40
3.0254506
50
2.3550704
51
7.4524729
0
ARC
8
DEFAULT_255_2_778
10
14.8782545
20
3.8076366
40
1.3311276
50
7.2129698
51
16.7416016
0
ARC
8
DEFAULT_255_2_778
10
15.6222003
20
4.0394768
40
0.551986
50
15.9407227
51
37.5019848
0
ARC
8
DEFAULT_255_2_778
10
15.798689
20
4.1615638
40
0.3378125
50
39.2982347
51
91.8201613
0
ARC
8
DEFAULT_255_2_778
10
15.7763804
20
3.948008
40
0.5513195
50
88.7965828
51
90.0049668
0
ARC
8
DEFAULT_255_2_778
10
15.7626901
20
4.1188077
40
0.3807643
50
87.9466933
51
121.4798659
0
ARC
8
DEFAULT_255_2_778
10
15.7902248
20
4.1176326
40
0.3968045
50
124.7837573
51
159.2975739
0
ARC
8
DEFAULT_255_2_778
10
16.3273731
20
3.8886328
40
0.9805252
50
157.8761265
51
170.3250064
0
ARC
8
DEFAULT_255_2_778
10
17.6124068
20
3.6553652
40
2.2865273
50
169.9744894
51
176.3774235
0
ARC
8
DEFAULT_255_2_778
10
20.5219998
20
3.4562508
40
5.2029088
50
176.2135883
51
179.5211253
0
ARC
8
DEFAULT_255_2_778
10
24.5875791
20
3.3907633
40
9.2689469
50
179.3263726
51
180.0169114
0
ARC
8
DEFAULT_255_2_778
10
22.1670978
20
3.3668651
40
6.8484979
50
179.8229519
51
182.4846172
0
ARC
8
DEFAULT_255_2_778
10
18.3187222
20
3.1935438
40
2.9962332
50
182.3636319
51
187.5110343
0
ARC
8
DEFAULT_255_2_778
10
16.6359683
20
2.9650743
40
1.2980695
50
187.2221687
51
197.2868562
0
ARC
8
DEFAULT_255_2_778
10
15.9056063
20
2.7298554
40
0.5308559
50
196.4705977
51
219.2210677
0
ARC
8
DEFAULT_255_2_778
10
15.7522485
20
2.621001
40
0.3434502
50
221.3301231
51
271.0413828
0
ARC
8
DEFAULT_255_2_778
10
15.7762217
20
2.8388623
40
0.561535
50
268.1905111
51
270.0113157
0
ARC
8
DEFAULT_255_2_778
10
19.1060195
20
4.1819866
40
1.0467191
50
128.6126947
51
146.832972
0
ARC
8
DEFAULT_255_2_778
10
18.9186007
20
4.3945058
40
0.7638263
50
93.3459638
51
127.5757857
0
ARC
8
DEFAULT_255_2_778
10
18.9568141
20
4.0868859
40
1.0733421
50
89.9402904
51
94.4239976
0
ARC
8
DEFAULT_255_2_778
10
18.9728831
20
4.0711934
40
1.0891367
50
73.0756722
51
90.7865182
0
ARC
8
DEFAULT_255_2_778
10
19.0513463
20
4.361192
40
0.7889121
50
30.1490453
51
72.3961592
0
ARC
8
DEFAULT_255_2_778
10
18.5994099
20
4.0759199
40
1.3231362
50
17.7508872
51
31.0019475
0
ARC
8
DEFAULT_255_2_778
10
17.758569
20
3.7987685
40
2.2084563
50
9.6847433
51
17.9481054
0
ARC
8
DEFAULT_255_2_778
10
16.4325947
20
3.5651761
40
3.5548369
50
4.3325275
51
9.800771
0
ARC
8
DEFAULT_255_2_778
10
14.4779181
20
3.4125197
40
5.5154621
50
0.3583792
51
4.3798401
0
ARC
8
DEFAULT_255_2_778
10
12.9760013
20
3.3865635
40
7.0175314
50
359.9972564
51
0.4935983
0
ARC
8
DEFAULT_255_2_778
10
14.0816687
20
3.3735579
40
5.9118775
50
356.3786335
51
0.122789
0
ARC
8
DEFAULT_255_2_778
10
16.1170237
20
3.241784
40
3.8722645
50
351.3475416
51
356.4223166
0
ARC
8
DEFAULT_255_2_778
10
17.5330256
20
3.0218971
40
2.4393021
50
343.8782327
51
351.4499574
0
ARC
8
DEFAULT_255_2_778
10
18.4605353
20
2.7490242
40
1.4725039
50
332.0903022
51
344.0568806
0
ARC
8
DEFAULT_255_2_778
10
18.9710099
20
2.4724825
40
0.8919776
50
309.7515453
51
332.4393228
0
ARC
8
DEFAULT_255_2_778
10
19.0291408
20
2.4342732
40
0.8256776
50
275.5824197
51
308.3455735
0
ARC
8
DEFAULT_255_2_778
10
18.9611229
20
2.8600213
40
1.2562979
50
269.8545026
51
276.781036
0
ARC
8
DEFAULT_255_2_778
10
18.9380386
20
2.6206401
40
1.0171073
50
252.7548591
51
271.1207423
0
ARC
8
DEFAULT_255_2_778
10
18.8633842
20
2.3306388
40
0.7181608
50
218.5319131
51
251.5839394
0
ARC
8
DEFAULT_255_2_778
10
19.1815867
20
2.6032873
40
1.1370246
50
209.5267644
51
219.2907215
0
ARC
8
DEFAULT_255_2_778
10
18.6897097
20
2.6431231
40
0.3660665
50
267.7961522
51
303.7870578
0
ARC
8
DEFAULT_255_2_778
10
18.6490526
20
2.6619756
40
0.4050158
50
307.0859469
51
339.5657337
0
ARC
8
DEFAULT_255_2_778
10
18.1006392
20
2.8907852
40
0.9990676
50
338.2498886
51
350.4443783
0
ARC
8
DEFAULT_255_2_778
10
16.7966901
20
3.1242864
40
2.3237276
50
350.1041282
51
356.418285
0
ARC
8
DEFAULT_255_2_778
10
13.8815014
20
3.3217954
40
5.2455824
50
356.2543855
51
359.5173089
0
ARC
8
DEFAULT_255_2_778
10
9.891758
20
3.3859382
40
9.2357751
50
359.3279156
51
0.0166834
0
ARC
8
DEFAULT_255_2_778
10
12.2464258
20
3.4096122
40
6.8811388
50
359.8252701
51
2.4743038
0
ARC
8
DEFAULT_255_2_778
10
16.098254
20
3.5823578
40
3.0254506
50
2.3550704
51
7.4524729
0
ARC
8
DEFAULT_255_2_778
10
17.7775545
20
3.8076366
40
1.3311276
50
7.2129698
51
16.7416016
0
ARC
8
DEFAULT_255_2_778
10
18.5215003
20
4.0394768
40
0.551986
50
15.9407227
51
37.5019848
0
ARC
8
DEFAULT_255_2_778
10
18.697989
20
4.1615638
40
0.3378125
50
39.2982347
51
91.8201613
0
ARC
8
DEFAULT_255_2_778
10
18.6756804
20
3.948008
40
0.5513195
50
88.7965828
51
90.0049668
0
ARC
8
DEFAULT_255_2_778
10
18.6619901
20
4.1188077
40
0.3807643
50
87.9466933
51
121.4798659
0
ARC
8
DEFAULT_255_2_778
10
18.6895248
20
4.1176326
40
0.3968045
50
124.7837573
51
159.2975739
0
ARC
8
DEFAULT_255_2_778
10
19.2266731
20
3.8886328
40
0.9805252
50
157.8761265
51
170.3250064
0
ARC
8
DEFAULT_255_2_778
10
20.5117068
20
3.6553652
40
2.2865273
50
169.9744894
51
176.3774235
0
ARC
8
DEFAULT_255_2_778
10
23.4212998
20
3.4562508
40
5.2029088
50
176.2135883
51
179.5211253
0
ARC
8
DEFAULT_255_2_778
10
27.4868791
20
3.3907633
40
9.2689469
50
179.3263726
51
180.0169114
0
ARC
8
DEFAULT_255_2_778
10
25.0663978
20
3.3668651
40
6.8484979
50
179.8229519
51
182.4846172
0
ARC
8
DEFAULT_255_2_778
10
21.2180222
20
3.1935438
40
2.9962332
50
182.3636319
51
187.5110343
0
ARC
8
DEFAULT_255_2_778
10
19.5352683
20
2.9650743
40
1.2980695
50
187.2221687
51
197.2868562
0
ARC
8
DEFAULT_255_2_778
10
18.8049063
20
2.7298554
40
0.5308559
50
196.4705977
51
219.2210677
0
ARC
8
DEFAULT_255_2_778
10
18.6515485
20
2.621001
40
0.3434502
50
221.3301231
51
271.0413828
0
ARC
8
DEFAULT_255_2_778
10
18.6755217
20
2.8388623
40
0.561535
50
268.1905111
51
270.0113157
0
ARC
8
DEFAULT_255_2_778
10
21.5981736
20
2.6317327
40
2.532897
50
90.1335416
51
91.021172
0
ARC
8
DEFAULT_255_2_778
10
21.5978202
20
2.7581401
40
2.4064891
50
90.0000863
51
90.1321419
0
ARC
8
DEFAULT_255_2_778
10
21.6099018
20
3.2334473
40
1.9312196
50
80.8441388
51
90.3585493
0
ARC
8
DEFAULT_255_2_778
10
21.7268178
20
3.9345164
40
1.2204851
50
65.65712
51
81.0258996
0
ARC
8
DEFAULT_255_2_778
10
21.8217835
20
4.1783707
40
0.9592682
50
20.3543567
51
64.8213058
0
ARC
8
DEFAULT_255_2_778
10
21.0330315
20
3.833071
40
1.8195446
50
10.6476761
51
21.9098276
0
ARC
8
DEFAULT_255_2_778
10
19.7282724
20
3.577187
40
3.149135
50
4.1583519
51
10.8368749
0
ARC
8
DEFAULT_255_2_778
10
17.4700027
20
3.4062288
40
5.4138606
50
359.8073718
51
4.2298281
0
ARC
8
DEFAULT_255_2_778
10
18.2050537
20
3.3728574
40
4.6788036
50
355.1850423
51
0.1857703
0
ARC
8
DEFAULT_255_2_778
10
19.9975556
20
3.2165094
40
2.8795087
50
347.5750427
51
355.2912414
0
ARC
8
DEFAULT_255_2_778
10
21.1232163
20
2.963026
40
1.7256811
50
335.302939
51
347.7526226
0
ARC
8
DEFAULT_255_2_778
10
21.7697316
20
2.644974
40
1.0055906
50
288.7949028
51
336.3760164
0
ARC
8
DEFAULT_255_2_778
10
21.6275951
20
3.060035
40
1.4443138
50
275.1581925
51
288.8279308
0
ARC
8
DEFAULT_255_2_778
10
21.557538
20
3.6879038
40
2.0759812
50
269.8756537
51
275.525935
0
ARC
8
DEFAULT_255_2_778
10
21.5078806
20
4.145658
40
2.5341329
50
270.1335081
51
271.020924
0
ARC
8
DEFAULT_255_2_778
10
21.5082339
20
4.0193829
40
2.4078573
50
270.0000898
51
270.1321026
0
ARC
8
DEFAULT_255_2_778
10
21.4961486
20
3.5432825
40
1.9317946
50
260.8461726
51
270.3585584
0
ARC
8
DEFAULT_255_2_778
10
21.3792018
20
2.8418892
40
1.2207353
50
245.6615116
51
261.0280846
0
ARC
8
DEFAULT_255_2_778
10
21.2841011
20
2.5977434
40
0.9591958
50
200.3574338
51
244.8270021
0
ARC
8
DEFAULT_255_2_778
10
22.0726197
20
2.9429664
40
1.8192283
50
190.6484332
51
201.9120127
0
ARC
8
DEFAULT_255_2_778
10
23.3772847
20
3.1988492
40
3.1487261
50
184.1584571
51
190.837632
0
ARC
8
DEFAULT_255_2_778
10
25.6357745
20
3.3698245
40
5.4136725
50
179.8073478
51
184.2299023
0
ARC
8
DEFAULT_255_2_778
10
24.8999364
20
3.4031907
40
4.6778284
50
175.1838993
51
180.1857252
0
ARC
8
DEFAULT_255_2_778
10
23.1082018
20
3.5595094
40
2.8793005
50
167.5730527
51
175.2900928
0
ARC
8
DEFAULT_255_2_778
10
21.9828971
20
3.8129549
40
1.7258288
50
155.3011476
51
167.7506045
0
ARC
8
DEFAULT_255_2_778
10
21.3364154
20
4.1310195
40
1.0057627
50
108.797167
51
156.3742084
0
ARC
8
DEFAULT_255_2_778
10
21.4784884
20
3.7161533
40
1.444281
50
95.1590954
51
108.8296139
0
ARC
8
DEFAULT_255_2_778
10
21.5485298
20
3.0884677
40
2.0757646
50
89.8757112
51
95.5266255
0
ARC
8
DEFAULT_255_2_778
10
21.5698312
20
2.5446049
40
0.343089
50
267.1935275
51
334.6242505
0
ARC
8
DEFAULT_255_2_778
10
21.1548048
20
2.7743068
40
0.817051
50
332.5425643
51
346.6599416
0
ARC
8
DEFAULT_255_2_778
10
20.2153296
20
3.011198
40
1.785888
50
346.2193084
51
353.4565674
0
ARC
8
DEFAULT_255_2_778
10
18.4424209
20
3.2246127
40
3.5715815
50
353.2963028
51
357.5408136
0
ARC
8
DEFAULT_255_2_778
10
15.2143212
20
3.3717028
40
6.8030247
50
357.4696954
51
0.1148732
0
ARC
8
DEFAULT_255_2_778
10
13.0072766
20
3.3873559
40
9.0100559
50
359.987195
51
0.0042701
0
ARC
8
DEFAULT_255_2_778
10
15.0109849
20
3.4014905
40
7.0063606
50
359.889903
51
2.2816231
0
ARC
8
DEFAULT_255_2_778
10
18.2449593
20
3.5361534
40
3.7695935
50
2.1933538
51
6.2892141
0
ARC
8
DEFAULT_255_2_778
10
20.1212154
20
3.7482483
40
1.8814026
50
6.1284259
51
13.1749994
0
ARC
8
DEFAULT_255_2_778
10
21.106672
20
3.9846406
40
0.8680226
50
12.8080682
51
25.952639
0
ARC
8
DEFAULT_255_2_778
10
21.5460862
20
4.2078933
40
0.3753139
50
24.6642241
51
59.6465612
0
ARC
8
DEFAULT_255_2_778
10
21.5630192
20
4.2020268
40
0.3722346
50
62.3529928
51
91.5373537
0
ARC
8
DEFAULT_255_2_778
10
21.5410294
20
4.1957327
40
0.378585
50
88.1830983
51
121.8033793
0
ARC
8
DEFAULT_255_2_778
10
21.5850064
20
4.1712319
40
0.4232909
50
125.1163981
51
160.6128166
0
ARC
8
DEFAULT_255_2_778
10
22.2051762
20
3.9216271
40
1.0915527
50
159.0596508
51
171.5747668
0
ARC
8
DEFAULT_255_2_778
10
23.8021636
20
3.6698556
40
2.7082362
50
171.2560297
51
177.5727414
0
ARC
8
DEFAULT_255_2_778
10
28.960058
20
3.4344453
40
7.8714907
50
177.4507676
51
180.2417131
0
ARC
8
DEFAULT_255_2_778
10
39.235362
20
3.3880393
40
18.1467295
50
179.9583267
51
180.0000373
0
ARC
8
DEFAULT_255_2_778
10
29.6120798
20
3.3514874
40
8.5235255
50
179.7543742
51
182.2138203
0
ARC
8
DEFAULT_255_2_778
10
24.0726263
20
3.1307764
40
2.979688
50
182.0876103
51
187.842827
0
ARC
8
DEFAULT_255_2_778
10
22.3062742
20
2.8801897
40
1.1956858
50
187.4971741
51
199.4055301
0
ARC
8
DEFAULT_255_2_778
10
21.6194661
20
2.6279597
40
0.4641923
50
198.2072405
51
228.496359
0
ARC
8
DEFAULT_255_2_778
10
21.5356856
20
2.5615022
40
0.35939
50
231.4797752
51
270.4452773
0
ARC
8
DEFAULT_255_2_778
10
21.5529649
20
2.7379059
40
0.5359784
50
268.4512342
51
270.0072417
0
ARC
8
DEFAULT_255_2_778
10
24.5498401
20
4.1324804
40
1.3696458
50
167.8558017
51
180.4289124
0
ARC
8
DEFAULT_255_2_778
10
24.1201423
20
4.2278576
40
0.9295038
50
147.3619961
51
168.0312332
0
ARC
8
DEFAULT_255_2_778
10
24.1023366
20
4.2020006
40
0.9289851
50
102.4475934
51
145.4264181
0
ARC
8
DEFAULT_255_2_778
10
24.3498512
20
3.3207183
40
1.8436285
50
89.3479317
51
104.055739
0
ARC
8
DEFAULT_255_2_778
10
24.3818862
20
2.1850274
40
2.9792206
50
84.4480024
51
90.2125809
0
ARC
8
DEFAULT_255_2_778
10
24.4954552
20
3.3165408
40
1.8420311
50
76.0767031
51
84.5588391
0
ARC
8
DEFAULT_255_2_778
10
24.6751747
20
4.0262076
40
1.1099766
50
62.8696911
51
76.266512
0
ARC
8
DEFAULT_255_2_778
10
24.8595575
20
4.3796948
40
0.7113076
50
37.2305463
51
63.1032702
0
ARC
8
DEFAULT_255_2_778
10
24.7109061
20
4.3071532
40
0.874147
50
5.7683846
51
35.120873
0
ARC
8
DEFAULT_255_2_778
10
23.6159412
20
4.1432881
40
1.9807457
50
359.5759168
51
7.3011838
0
ARC
8
DEFAULT_255_2_778
10
28.9853706
20
2.3358448
40
3.3887786
50
179.7196274
51
183.5619916
0
ARC
8
DEFAULT_255_2_778
10
27.0221828
20
2.2063846
40
1.4213587
50
183.2701309
51
192.7431346
0
ARC
8
DEFAULT_255_2_778
10
26.5808961
20
2.1147744
40
0.9707666
50
193.2144545
51
205.4403155
0
ARC
8
DEFAULT_255_2_778
10
26.6951135
20
2.1663024
40
1.0960465
50
205.3079043
51
206.0523392
0
ARC
8
DEFAULT_255_2_778
10
25.3752573
20
1.9677928
40
0.5684066
50
193.3279617
51
209.8443914
0
ARC
8
DEFAULT_255_2_778
10
26.6119579
20
2.3116807
40
1.8517359
50
192.3192
51
194.8608651
0
ARC
8
DEFAULT_255_2_778
10
37.4155114
20
4.6707079
40
12.9098452
50
191.93813
51
192.3178077
0
ARC
8
DEFAULT_255_2_778
10
21.6814522
20
1.3366306
40
3.1735907
50
12.0697848
51
12.8443003
0
ARC
8
DEFAULT_255_2_778
10
23.8631707
20
2.5340843
40
1.0257353
50
317.5250483
51
331.3398148
0
ARC
8
DEFAULT_255_2_778
10
24.0950002
20
2.3441219
40
0.7266546
50
273.457187
51
316.2289858
0
ARC
8
DEFAULT_255_2_778
10
23.9196006
20
3.6619471
40
2.054884
50
269.5464004
51
276.1240742
0
ARC
8
DEFAULT_255_2_778
10
23.8953981
20
2.4770462
40
0.869955
50
253.1932401
51
270.5225813
0
ARC
8
DEFAULT_255_2_778
10
23.848039
20
2.3094242
40
0.6958063
50
218.1590041
51
252.9354343
0
ARC
8
DEFAULT_255_2_778
10
24.1476128
20
2.5100601
40
1.0556769
50
184.7586019
51
216.6754944
0
ARC
8
DEFAULT_255_2_778
10
24.5056618
20
2.5751677
40
1.4183292
50
179.9854697
51
186.1799124
0
ARC
8
DEFAULT_255_2_778
10
24.8091471
20
2.5891506
40
1.7218684
50
171.0272591
51
180.4533216
0
ARC
8
DEFAULT_255_2_778
10
24.0552495
20
2.713718
40
0.9577839
50
153.4067468
51
171.3539856
0
ARC
8
DEFAULT_255_2_778
10
23.9073738
20
2.7657152
40
0.8025177
50
116.7158842
51
152.0000602
0
ARC
8
DEFAULT_255_2_778
10
24.3223114
20
2.0181545
40
1.6571763
50
107.5238333
51
117.910975
0
ARC
8
DEFAULT_255_2_778
10
24.6775235
20
0.9761012
40
2.757938
50
105.4927554
51
108.0424318
0
ARC
8
DEFAULT_255_2_778
10
24.2319439
20
4.564219
40
0.8223796
50
283.959587
51
296.3376832
0
ARC
8
DEFAULT_255_2_778
10
24.4677889
20
4.1041408
40
0.3055108
50
294.9789227
51
359.57938
0
ARC
8
DEFAULT_255_2_778
10
24.0570685
20
4.1598827
40
0.7185665
50
355.3714824
51
0.1470884
0
ARC
8
DEFAULT_255_2_778
10
24.2442924
20
4.1765227
40
0.5315462
50
358.4050004
51
22.3139291
0
ARC
8
DEFAULT_255_2_778
10
24.4459714
20
4.2499657
40
0.3172019
50
23.8730054
51
80.0874112
0
ARC
8
DEFAULT_255_2_778
10
24.3722894
20
3.9651361
40
0.6109176
50
77.8782001
51
90.5305341
0
ARC
8
DEFAULT_255_2_778
10
24.3555577
20
4.1425053
40
0.4336635
50
88.5366142
51
119.1796688
0
ARC
8
DEFAULT_255_2_778
10
24.3460128
20
4.1959463
40
0.3827615
50
121.8333617
51
172.9788334
0
ARC
8
DEFAULT_255_2_778
10
24.5872588
20
4.1390579
40
0.62973
50
170.5239694
51
180.2029425
0
ARC
8
DEFAULT_255_2_778
10
24.1691326
20
4.1925623
40
0.9977986
50
296.8469895
51
306.2921666
0
ARC
8
DEFAULT_255_2_778
10
24.1412845
20
4.2401536
40
1.0528421
50
286.5678295
51
297.0295098
0
ARC
8
DEFAULT_255_2_778
10
24.2013434
20
4.0459639
40
0.8495915
50
283.2612639
51
286.4199915
0
ARC
8
DEFAULT_255_2_778
10
24.5866044
20
2.2713704
40
0.9665895
50
101.3587807
51
114.4344806
0
ARC
8
DEFAULT_255_2_778
10
24.370769
20
2.7277781
40
0.4618436
50
113.4779442
51
146.8108036
0
ARC
8
DEFAULT_255_2_778
10
24.434057
20
2.7146166
40
0.5225466
50
149.4026243
51
178.0752291
0
ARC
8
DEFAULT_255_2_778
10
24.8150637
20
2.6739655
40
0.9051317
50
176.3132105
51
180.065711
0
ARC
8
DEFAULT_255_2_778
10
24.6675839
20
2.6560732
40
0.7578387
50
178.725641
51
199.2525618
0
ARC
8
DEFAULT_255_2_778
10
24.2252844
20
2.4866188
40
0.2847515
50
196.4068866
51
271.1768327
0
ARC
8
DEFAULT_255_2_778
10
24.2298081
20
2.7770219
40
0.575096
50
270.1319608
51
282.9775901
0
ARC
8
DEFAULT_255_2_778
10
24.2807941
20
2.5579592
40
0.3501791
50
282.8976151
51
282.9831179
0
ARC
8
DEFAULT_255_2_778
10
24.2543492
20
2.7189038
40
0.5130559
50
281.8227711
51
326.6283925
0
ARC
8
DEFAULT_255_2_778
10
24.2564552
20
2.7008944
40
0.5015827
50
328.2142902
51
354.0070197
0
ARC
8
DEFAULT_255_2_778
10
24.117236
20
2.7221753
40
0.6422972
50
353.4156583
51
0.0849385
0
ARC
8
DEFAULT_255_2_778
10
27.93066
20
4.0108725
40
1.3008591
50
134.7408191
51
152.7635976
0
ARC
8
DEFAULT_255_2_778
10
27.5476363
20
4.4013384
40
0.7539063
50
89.6126854
51
134.9527279
0
ARC
8
DEFAULT_255_2_778
10
27.5471764
20
7.6291859
40
2.4739647
50
270.1286805
51
271.0142841
0
ARC
8
DEFAULT_255_2_778
10
27.6796318
20
-0.4582928
40
5.6146016
50
90.7366855
51
90.9048151
0
ARC
8
DEFAULT_255_2_778
10
27.6295874
20
3.4729647
40
1.6830258
50
90.0433521
51
90.7538727
0
ARC
8
DEFAULT_255_2_778
10
27.6327261
20
4.4062733
40
0.7497298
50
84.0969318
51
90.3371827
0
ARC
8
DEFAULT_255_2_778
10
27.4328718
20
3.4795559
40
0.8567715
50
89.9825539
51
97.0303335
0
ARC
8
DEFAULT_255_2_778
10
27.3718821
20
3.733455
40
0.5980426
50
94.2072259
51
149.4103596
0
ARC
8
DEFAULT_255_2_778
10
27.3876761
20
3.7580221
40
0.5998471
50
152.1991827
51
174.3274808
0
ARC
8
DEFAULT_255_2_778
10
27.5915084
20
3.7291868
40
0.8055769
50
173.7195861
51
180.0966853
0
ARC
8
DEFAULT_255_2_778
10
28.7083829
20
2.5531077
40
1.04753
50
316.345047
51
330.8042218
0
ARC
8
DEFAULT_255_2_778
10
28.9257628
20
2.3669906
40
0.7619301
50
269.3037229
51
315.1867135
0
ARC
8
DEFAULT_255_2_778
10
28.8579044
20
3.0478035
40
1.4438763
50
269.9693739
51
272.3259731
0
ARC
8
DEFAULT_255_2_778
10
28.8423364
20
2.6835745
40
1.0797484
50
252.9154568
51
270.7851698
0
ARC
8
DEFAULT_255_2_778
10
28.7666139
20
2.4039338
40
0.7902621
50
210.3853142
51
252.2069137
0
ARC
8
DEFAULT_255_2_778
10
29.213603
20
2.688371
40
1.319867
50
197.9509703
51
211.2220834
0
ARC
8
DEFAULT_255_2_778
10
30.0435221
20
2.965166
40
2.1947081
50
189.8684393
51
198.1477374
0
ARC
8
DEFAULT_255_2_778
10
31.3609248
20
3.2010973
40
3.5330602
50
184.4021207
51
189.976373
0
ARC
8
DEFAULT_255_2_778
10
33.3057144
20
3.3559577
40
5.4840014
50
180.4220507
51
184.4557112
0
ARC
8
DEFAULT_255_2_778
10
34.8159389
20
3.3834234
40
6.9944063
50
179.9966904
51
180.5559067
0
ARC
8
DEFAULT_255_2_778
10
33.7182869
20
3.3966097
40
5.8967681
50
176.373953
51
180.1241988
0
ARC
8
DEFAULT_255_2_778
10
31.6727646
20
3.5292227
40
3.8469549
50
171.3222937
51
176.4183366
0
ARC
8
DEFAULT_255_2_778
10
30.2573901
20
3.7496671
40
2.4145268
50
163.8058687
51
171.4261018
0
ARC
8
DEFAULT_255_2_778
10
29.3362731
20
4.0219225
40
1.4540349
50
151.9277505
51
163.9855569
0
ARC
8
DEFAULT_255_2_778
10
28.8326758
20
4.296821
40
0.880338
50
129.0645503
51
152.2904608
0
ARC
8
DEFAULT_255_2_778
10
28.7836473
20
4.3245008
40
0.8282057
50
95.8404921
51
127.6376326
0
ARC
8
DEFAULT_255_2_778
10
28.8536371
20
3.890577
40
1.2672553
50
89.8419571
51
96.9921612
0
ARC
8
DEFAULT_255_2_778
10
28.8704603
20
4.2694929
40
0.8884345
50
70.6479725
51
90.8595444
0
ARC
8
DEFAULT_255_2_778
10
28.8740736
20
4.3472949
40
0.8141384
50
36.8226621
51
69.0733072
0
ARC
8
DEFAULT_255_2_778
10
28.4830299
20
4.008691
40
1.3306113
50
34.071086
51
38.4023928
0
ARC
8
DEFAULT_255_2_778
10
29.1532807
20
2.6575208
40
0.3809379
50
267.9467957
51
301.4722381
0
ARC
8
DEFAULT_255_2_778
10
29.125844
20
2.6585517
40
0.3968008
50
304.7752652
51
339.291292
0
ARC
8
DEFAULT_255_2_778
10
28.5889754
20
2.8874883
40
0.9802396
50
337.8708362
51
350.3226651
0
ARC
8
DEFAULT_255_2_778
10
27.3044116
20
3.1207253
40
2.2857739
50
349.9721464
51
356.3765948
0
ARC
8
DEFAULT_255_2_778
10
24.3957459
20
3.3198107
40
5.2012283
50
356.2128448
51
359.52106
0
ARC
8
DEFAULT_255_2_778
10
20.3309089
20
3.3852922
40
9.2665242
50
359.3262846
51
0.0169124
0
ARC
8
DEFAULT_255_2_778
10
22.7481212
20
3.4091995
40
6.8493442
50
359.8228919
51
2.4845076
0
ARC
8
DEFAULT_255_2_778
10
26.597752
20
3.5825648
40
2.9958234
50
2.3635659
51
7.5118864
0
ARC
8
DEFAULT_255_2_778
10
28.2805229
20
3.8110653
40
1.2976387
50
7.2227803
51
17.290658
0
ARC
8
DEFAULT_255_2_778
10
29.0106222
20
4.0462536
40
0.5306844
50
16.4743612
51
39.2315788
0
ARC
8
DEFAULT_255_2_778
10
29.1638781
20
4.1551223
40
0.3433497
50
41.3343831
51
90.9502647
0
ARC
8
DEFAULT_255_2_778
10
29.1397584
20
3.9376351
40
0.5610922
50
88.1181546
51
90.0128416
0
ARC
8
DEFAULT_255_2_778
10
29.1255561
20
4.1329227
40
0.3660754
50
87.7962953
51
123.7862374
0
ARC
8
DEFAULT_255_2_778
10
29.1662016
20
4.1140819
40
0.405008
50
127.0848175
51
159.5642026
0
ARC
8
DEFAULT_255_2_778
10
29.7145236
20
3.8852962
40
0.9989664
50
158.2485855
51
170.4434698
0
ARC
8
DEFAULT_255_2_778
10
31.0184622
20
3.651787
40
2.3236175
50
170.1034851
51
176.4192866
0
ARC
8
DEFAULT_255_2_778
10
33.9335421
20
3.4543166
40
5.245361
50
176.2551681
51
179.5172368
0
ARC
8
DEFAULT_255_2_778
10
37.9228444
20
3.3901999
40
9.2351123
50
179.3279997
51
180.0165802
0
ARC
8
DEFAULT_255_2_778
10
35.5700776
20
3.3665364
40
6.8823769
50
179.8252491
51
182.474084
0
ARC
8
DEFAULT_255_2_778
10
31.7170598
20
3.1937518
40
3.0254986
50
182.3548077
51
187.4523364
0
ARC
8
DEFAULT_255_2_778
10
30.0375451
20
2.968448
40
1.3309601
50
187.2127558
51
196.7423758
0
ARC
8
DEFAULT_255_2_778
10
29.2936518
20
2.7366131
40
0.5518701
50
195.9413895
51
217.5056104
0
ARC
8
DEFAULT_255_2_778
10
29.117265
20
2.6146044
40
0.3378262
50
219.3040841
51
271.821992
0
ARC
8
DEFAULT_255_2_778
10
29.1395848
20
2.8281468
40
0.5513195
50
268.7965828
51
270.0049669
0
LINE
8
DEFAULT_255_2_778
10
9.2604326
20
6.1849274
11
11.7634326
21
6.1849274
0
LINE
8
DEFAULT_255_2_778
10
11.7634326
20
6.1849274
11
11.7634326
21
5.4399274
0
LINE
8
DEFAULT_255_2_778
10
11.7634326
20
5.4399274
11
10.1542326
21
5.4399274
0
LINE
8
DEFAULT_255_2_778
10
10.1542326
20
5.4399274
11
10.1542326
21
4.3670274
0
LINE
8
DEFAULT_255_2_778
10
10.1542326
20
4.3670274
11
11.7634326
21
4.3670274
0
LINE
8
DEFAULT_255_2_778
10
11.7634326
20
4.3670274
11
11.7634326
21
3.6217274
0
LINE
8
DEFAULT_255_2_778
10
11.7634326
20
3.6217274
11
10.1542326
21
3.6217274
0
LINE
8
DEFAULT_255_2_778
10
10.1542326
20
3.6217274
11
10.1542326
21
1.6844274
0
LINE
8
DEFAULT_255_2_778
10
10.1542326
20
1.6844274
11
9.2599326
21
1.6844274
0
LINE
8
DEFAULT_255_2_778
10
9.2599326
20
1.6844274
11
9.2599326
21
6.1823274
0
LINE
8
DEFAULT_255_2_778
10
9.2599326
20
6.1823274
11
9.2604326
21
6.1849274
0
LINE
8
DEFAULT_255_2_778
10
12.0319326
20
6.1849274
11
12.8961326
21
6.1849274
0
LINE
8
DEFAULT_255_2_778
10
12.8961326
20
6.1849274
11
12.8961326
21
1.6849274
0
LINE
8
DEFAULT_255_2_778
10
12.8961326
20
1.6849274
11
12.0319326
21
1.6849274
0
LINE
8
DEFAULT_255_2_778
10
12.0319326
20
1.6849274
11
12.0319326
21
6.1849274
0
LINE
8
DEFAULT_255_2_778
10
13.2316326
20
6.1849274
11
14.0957326
21
6.1849274
0
LINE
8
DEFAULT_255_2_778
10
14.0957326
20
6.1849274
11
14.0957326
21
5.4351274
0
LINE
8
DEFAULT_255_2_778
10
14.0957326
20
5.4351274
11
13.2345326
21
5.4351274
0
LINE
8
DEFAULT_255_2_778
10
13.2345326
20
5.4351274
11
13.2345326
21
6.1849274
0
LINE
8
DEFAULT_255_2_778
10
13.2345326
20
6.1849274
11
13.2316326
21
6.1849274
0
LINE
8
DEFAULT_255_2_778
10
13.2316326
20
5.1372274
11
14.0957326
21
5.1372274
0
LINE
8
DEFAULT_255_2_778
10
14.0957326
20
5.1372274
11
14.0957326
21
1.6796274
0
LINE
8
DEFAULT_255_2_778
10
14.0957326
20
1.6796274
11
13.2345326
21
1.6796274
0
LINE
8
DEFAULT_255_2_778
10
13.2345326
20
1.6796274
11
13.2345326
21
5.1369274
0
LINE
8
DEFAULT_255_2_778
10
13.2345326
20
5.1369274
11
13.2316326
21
5.1372274
0
LINE
8
DEFAULT_255_2_778
10
14.4486326
20
5.1419274
11
15.2530326
21
5.1419274
0
LINE
8
DEFAULT_255_2_778
10
15.2530326
20
5.1419274
11
15.2530326
21
4.7247274
0
LINE
8
DEFAULT_255_2_778
10
15.2530326
20
4.7247274
11
15.2927326
21
4.7247274
0
LINE
8
DEFAULT_255_2_778
10
15.3302326
20
2.0122274
11
15.2826326
21
2.0122274
0
LINE
8
DEFAULT_255_2_778
10
15.2826326
20
2.0122274
11
15.2826326
21
0.5789274
0
LINE
8
DEFAULT_255_2_778
10
15.2826326
20
0.5789274
11
14.4481326
21
0.5789274
0
LINE
8
DEFAULT_255_2_778
10
14.4481326
20
0.5789274
11
14.4486326
21
5.1419274
0
LINE
8
DEFAULT_255_2_778
10
15.7763326
20
2.2773274
11
15.7763326
21
2.2773274
0
LINE
8
DEFAULT_255_2_778
10
17.3395326
20
6.1852274
11
18.2034326
21
6.1852274
0
LINE
8
DEFAULT_255_2_778
10
18.2034326
20
6.1852274
11
18.2034326
21
4.7546274
0
LINE
8
DEFAULT_255_2_778
10
18.2034326
20
4.7546274
11
18.2298326
21
4.7546274
0
LINE
8
DEFAULT_255_2_778
10
18.1922326
20
2.0429274
11
18.1737326
21
2.0429274
0
LINE
8
DEFAULT_255_2_778
10
18.1737326
20
2.0429274
11
18.1737326
21
1.6857274
0
LINE
8
DEFAULT_255_2_778
10
18.1737326
20
1.6857274
11
17.3392326
21
1.6857274
0
LINE
8
DEFAULT_255_2_778
10
17.3392326
20
1.6857274
11
17.3392326
21
6.1849274
0
LINE
8
DEFAULT_255_2_778
10
17.3392326
20
6.1849274
11
17.3395326
21
6.1852274
0
LINE
8
DEFAULT_255_2_778
10
18.6756326
20
2.2773274
11
18.6756326
21
2.2773274
0
LINE
8
DEFAULT_255_2_778
10
21.5530326
20
5.1642274
11
21.5530326
21
5.1642274
0
LINE
8
DEFAULT_255_2_778
10
21.5530326
20
2.2019274
11
21.5530326
21
2.2019274
0
LINE
8
DEFAULT_255_2_778
10
23.1802326
20
4.0392274
11
23.1802326
21
4.1222274
0
LINE
8
DEFAULT_255_2_778
10
25.5966326
20
4.1286274
11
25.5966326
21
2.3524274
0
LINE
8
DEFAULT_255_2_778
10
25.7104326
20
1.6849274
11
24.8822326
21
1.6849274
0
LINE
8
DEFAULT_255_2_778
10
24.7756326
20
2.0421274
11
24.7632326
21
2.0421274
0
LINE
8
DEFAULT_255_2_778
10
23.9408326
20
3.6338274
11
24.4303326
21
3.7661274
0
LINE
8
DEFAULT_255_2_778
10
23.9575326
20
4.1368274
11
23.9575326
21
4.0415274
0
LINE
8
DEFAULT_255_2_778
10
23.9575326
20
4.0415274
11
23.1775326
21
4.0415274
0
LINE
8
DEFAULT_255_2_778
10
23.1775326
20
4.0415274
11
23.1802326
21
4.0392274
0
LINE
8
DEFAULT_255_2_778
10
24.7595326
20
2.7231274
11
24.7595326
21
3.3888274
0
LINE
8
DEFAULT_255_2_778
10
24.7595326
20
3.3888274
11
24.7597326
21
3.3883274
0
LINE
8
DEFAULT_255_2_778
10
25.9220326
20
5.1425274
11
26.7264326
21
5.1425274
0
LINE
8
DEFAULT_255_2_778
10
26.7264326
20
5.1425274
11
26.7264326
21
4.6062274
0
LINE
8
DEFAULT_255_2_778
10
26.7264326
20
4.6062274
11
26.7740326
21
4.6062274
0
LINE
8
DEFAULT_255_2_778
10
27.7098326
20
5.1520274
11
27.7098326
21
4.3239274
0
LINE
8
DEFAULT_255_2_778
10
27.7098326
20
4.3239274
11
27.4331326
21
4.3363274
0
LINE
8
DEFAULT_255_2_778
10
26.7859326
20
3.7278274
11
26.7859326
21
1.6857274
0
LINE
8
DEFAULT_255_2_778
10
26.7859326
20
1.6857274
11
25.9218326
21
1.6857274
0
LINE
8
DEFAULT_255_2_778
10
25.9218326
20
1.6857274
11
25.9220326
21
5.1425274
0
LINE
8
DEFAULT_255_2_778
10
29.6175326
20
2.0421274
11
29.6228326
21
2.0421274
0
LINE
8
DEFAULT_255_2_778
10
29.5852326
20
4.7541274
11
29.5878326
21
4.7541274
0
LINE
8
DEFAULT_255_2_778
10
29.5878326
20
4.7541274
11
29.5878326
21
6.1847274
0
LINE
8
DEFAULT_255_2_778
10
29.5878326
20
6.1847274
11
30.4522326
21
6.1847274
0
LINE
8
DEFAULT_255_2_778
10
30.4522326
20
6.1847274
11
30.4522326
21
1.6849274
0
LINE
8
DEFAULT_255_2_778
10
30.4522326
20
1.6849274
11
29.6177326
21
1.6849274
0
LINE
8
DEFAULT_255_2_778
10
29.6177326
20
1.6849274
11
29.6177326
21
2.0421274
0
LINE
8
DEFAULT_255_2_778
10
29.6177326
20
2.0421274
11
29.6175326
21
2.0421274
0
LINE
8
DEFAULT_255_2_778
10
29.1396326
20
2.2768274
11
29.1396326
21
2.2768274
0
LINE
8
DEFAULT_255_2_778
10
0.2394592
20
8.0518408
11
8.5177592
21
8.0518408
0
LINE
8
DEFAULT_255_2_778
10
8.5177592
20
8.0518408
11
8.5177592
21
-0.2264592
0
LINE
8
DEFAULT_255_2_778
10
8.5177592
20
-0.2264592
11
0.2394592
21
-0.2264592
0
LINE
8
DEFAULT_255_2_778
10
0.2394592
20
-0.2264592
11
0.2394592
21
8.0518408
0
LINE
8
DEFAULT_255_2_778
10
5.2239873
20
6.396046
11
1.8949873
21
6.396046
0
LINE
8
DEFAULT_255_2_778
10
1.8949873
20
6.396046
11
1.8949873
21
1.429046
0
LINE
8
DEFAULT_255_2_778
10
1.8949873
20
1.429046
11
3.5507873
21
1.429046
0
LINE
8
DEFAULT_255_2_778
10
3.5507873
20
1.429046
11
3.5507873
21
3.084546
0
LINE
8
DEFAULT_255_2_778
10
3.5507873
20
3.084546
11
5.2062873
21
3.084546
0
LINE
8
DEFAULT_255_2_778
10
5.2062873
20
3.084546
11
5.2062873
21
4.740846
0
LINE
8
DEFAULT_255_2_778
10
5.2062873
20
4.740846
11
6.8619873
21
4.740846
0
LINE
8
DEFAULT_255_2_778
10
6.8619873
20
4.740846
11
6.8619873
21
6.396346
0
LINE
8
DEFAULT_255_2_778
10
6.8619873
20
6.396346
11
5.2239873
21
6.396046
0
LINE
8
DEFAULT_255_2_778
10
3.5507194
20
4.7407806
11
5.2065194
21
4.7407806
0
LINE
8
DEFAULT_255_2_778
10
5.2065194
20
4.7407806
11
5.2065194
21
3.0849806
0
LINE
8
DEFAULT_255_2_778
10
5.2065194
20
3.0849806
11
3.5507194
21
3.0849806
0
LINE
8
DEFAULT_255_2_778
10
3.5507194
20
3.0849806
11
3.5507194
21
4.7407806
0
LINE
8
DEFAULT_255_2_778
10
5.2238719
20
6.3960515
11
3.5506719
21
6.3960515
0
LINE
8
DEFAULT_255_2_778
10
3.5506719
20
6.3960515
11
3.5506719
21
4.7405515
0
LINE
8
DEFAULT_255_2_778
10
3.5506719
20
4.7405515
11
6.8619719
21
4.7405515
0
LINE
8
DEFAULT_255_2_778
10
6.8619719
20
4.7405515
11
6.8619719
21
6.3960515
0
LINE
8
DEFAULT_255_2_778
10
6.8619719
20
6.3960515
11
5.2238719
21
6.3960515
0
ENDSEC
0
EOF