0
SECTION
2
HEADER
9
$MEASUREMENT
70
1
0
ENDSEC
0
SECTION
2
TABLES
0
TABLE
2
LTYPE
0
LTYPE
72
65
70
64
2
CONTINUOUS
3
______
73
0
40
0
0
ENDTAB
0
TABLE
2
LAYER
0
LAYER
2
DEFAULT_255_2_778
70
0
62
255
6
CONTINUOUS
0
ENDTAB
0
ENDSEC
0
SECTION
2
ENTITIES
0
LINE
8
DEFAULT_255_2_778
10
0.2645336
20
16.8009664
11
17.1978336
21
16.8009664
0
LINE
8
DEFAULT_255_2_778
10
17.1978336
20
16.8009664
11
17.1978336
21
-0.1323336
0
LINE
8
DEFAULT_255_2_778
10
17.1978336
20
-0.1323336
11
0.2645336
21
-0.1323336
0
LINE
8
DEFAULT_255_2_778
10
0.2645336
20
-0.1323336
11
0.2645336
21
16.8009664
0
LINE
8
DEFAULT_255_2_778
10
10.4599969
20
13.4143031
11
3.6511969
21
13.4143031
0
LINE
8
DEFAULT_255_2_778
10
3.6511969
20
13.4143031
11
3.6511969
21
3.2543031
0
LINE
8
DEFAULT_255_2_778
10
3.6511969
20
3.2543031
11
7.0378969
21
3.2543031
0
LINE
8
DEFAULT_255_2_778
10
7.0378969
20
3.2543031
11
7.0378969
21
6.6410031
0
LINE
8
DEFAULT_255_2_778
10
7.0378969
20
6.6410031
11
10.4244969
21
6.6410031
0
LINE
8
DEFAULT_255_2_778
10
10.4244969
20
6.6410031
11
10.4244969
21
10.0276031
0
LINE
8
DEFAULT_255_2_778
10
10.4244969
20
10.0276031
11
13.8111969
21
10.0276031
0
LINE
8
DEFAULT_255_2_778
10
13.8111969
20
10.0276031
11
13.8111969
21
13.4143031
0
LINE
8
DEFAULT_255_2_778
10
13.8111969
20
13.4143031
11
10.4599969
21
13.4143031
0
LINE
8
DEFAULT_255_2_778
10
7.0378643
20
10.0276317
11
10.4245643
21
10.0276317
0
LINE
8
DEFAULT_255_2_778
10
10.4245643
20
10.0276317
11
10.4245643
21
6.6409317
0
LINE
8
DEFAULT_255_2_778
10
10.4245643
20
6.6409317
11
7.0378643
21
6.6409317
0
LINE
8
DEFAULT_255_2_778
10
7.0378643
20
6.6409317
11
7.0378643
21
10.0276317
0
LINE
8
DEFAULT_255_2_778
10
10.4600326
20
13.4143357
11
7.0379326
21
13.4143357
0
LINE
8
DEFAULT_255_2_778
10
7.0379326
20
13.4143357
11
7.0379326
21
10.0276357
0
LINE
8
DEFAULT_255_2_778
10
7.0379326
20
10.0276357
11
13.8112326
21
10.0276357
0
LINE
8
DEFAULT_255_2_778
10
13.8112326
20
10.0276357
11
13.8112326
21
13.4143357
0
LINE
8
DEFAULT_255_2_778
10
13.8112326
20
13.4143357
11
10.4600326
21
13.4143357
0
ENDSEC
0
EOF