0
SECTION
2
HEADER
9
$MEASUREMENT
70
1
0
ENDSEC
0
SECTION
2
TABLES
0
TABLE
2
LTYPE
0
LTYPE
72
65
70
64
2
CONTINUOUS
3
______
73
0
40
0
0
ENDTAB
0
TABLE
2
LAYER
0
LAYER
2
DEFAULT_255_2_778
70
0
62
255
6
CONTINUOUS
0
ENDTAB
0
ENDSEC
0
SECTION
2
ENTITIES
0
ARC
8
DEFAULT_255_2_778
10
6.0166068
20
3.1315666
40
0.6540597
50
255.3541513
51
256.4470549
0
ARC
8
DEFAULT_255_2_778
10
6.935123
20
6.9024227
40
4.5351697
50
256.3300395
51
256.3694282
0
ARC
8
DEFAULT_255_2_778
10
5.8164655
20
2.256468
40
0.2436794
50
67.2925533
51
78.1844432
0
ARC
8
DEFAULT_255_2_778
10
5.8152367
20
2.2878686
40
0.2155948
50
52.8276188
51
63.7677263
0
ARC
8
DEFAULT_255_2_778
10
6.9766117
20
3.9039821
40
1.7746141
50
234.4767697
51
234.7585893
0
ARC
8
DEFAULT_255_2_778
10
6.1616306
20
2.7496598
40
0.3615843
50
234.6869196
51
236.5518892
0
ARC
8
DEFAULT_255_2_778
10
6.0899209
20
0.7214484
40
1.0232067
50
6.0482357
51
22.6180348
0
ARC
8
DEFAULT_255_2_778
10
5.9308611
20
0.7526081
40
1.1798228
50
338.6386464
51
354.5405948
0
ARC
8
DEFAULT_255_2_778
10
6.0761006
20
0.7083442
40
1.0285041
50
325.5112328
51
337.9879504
0
ARC
8
DEFAULT_255_2_778
10
6.0573558
20
0.7242892
40
1.0529862
50
315.425015
51
325.373661
0
ARC
8
DEFAULT_255_2_778
10
6.0517185
20
0.7299252
40
1.0609572
50
307.5574519
51
315.4218732
0
ARC
8
DEFAULT_255_2_778
10
6.0055754
20
0.7788053
40
1.1278539
50
301.9931186
51
307.9021036
0
ARC
8
DEFAULT_255_2_778
10
5.881316
20
1.0055177
40
1.3920128
50
276.8943077
51
297.3634753
0
ARC
8
DEFAULT_255_2_778
10
5.818172
20
1.343393
40
1.7351659
50
275.7505663
51
277.6250487
0
ARC
8
DEFAULT_255_2_778
10
5.8187588
20
1.334078
40
1.7256279
50
263.3502618
51
269.8131759
0
ARC
8
DEFAULT_255_2_778
10
5.7885897
20
1.1151846
40
1.5047205
50
251.1743408
51
263.526116
0
ARC
8
DEFAULT_255_2_778
10
5.7205623
20
0.9176878
40
1.2958374
50
238.8696808
51
251.2034405
0
ARC
8
DEFAULT_255_2_778
10
5.721371
20
0.880368
40
1.264468
50
224.4575389
51
237.9640304
0
ARC
8
DEFAULT_255_2_778
10
5.5742785
20
0.7085854
40
1.0394443
50
202.1334379
51
212.4498943
0
ARC
8
DEFAULT_255_2_778
10
5.6373809
20
0.7310788
40
1.1063752
50
185.8319295
51
201.9812403
0
ARC
8
DEFAULT_255_2_778
10
5.4041665
20
0.7350573
40
0.8747065
50
166.7823803
51
176.151965
0
ARC
8
DEFAULT_255_2_778
10
5.682391
20
0.6671552
40
1.1610891
50
158.8885918
51
166.6596437
0
ARC
8
DEFAULT_255_2_778
10
5.8547469
20
2.1965544
40
0.2975349
50
102.9178227
51
126.6521134
0
ARC
8
DEFAULT_255_2_778
10
5.8364756
20
13.7957618
40
1.904337
50
101.0238763
51
108.5218471
0
ARC
8
DEFAULT_255_2_778
10
5.8330326
20
13.847385
40
1.8543407
50
108.9276738
51
117.2342325
0
ARC
8
DEFAULT_255_2_778
10
6.2978179
20
13.2300287
40
2.6258373
50
123.9877949
51
152.8106531
0
ARC
8
DEFAULT_255_2_778
10
10.665165
20
11.7454823
40
7.3250492
50
184.4835729
51
193.4471096
0
ARC
8
DEFAULT_255_2_778
10
16.2945686
20
13.0576274
40
13.1053004
50
193.3031325
51
199.6170545
0
ARC
8
DEFAULT_255_2_778
10
6.0005113
20
10.5733967
40
5.1942112
50
70.0516898
51
78.4407662
0
ARC
8
DEFAULT_255_2_778
10
6.2366672
20
11.2136012
40
4.5118499
50
56.3413547
51
70.096983
0
ARC
8
DEFAULT_255_2_778
10
6.6056716
20
11.7761205
40
3.8391189
50
34.3722098
51
56.2722503
0
ARC
8
DEFAULT_255_2_778
10
6.6025176
20
11.7932846
40
3.832065
50
21.1632122
51
34.1337641
0
ARC
8
DEFAULT_255_2_778
10
5.9633432
20
11.5731235
40
4.5076864
50
4.5964819
51
20.8397743
0
ARC
8
DEFAULT_255_2_778
10
7.0569812
20
11.5920216
40
3.4241067
50
343.2281972
51
354.9188347
0
ARC
8
DEFAULT_255_2_778
10
5.2331298
20
12.0961298
40
5.3160193
50
337.5406139
51
343.6984171
0
ARC
8
DEFAULT_255_2_778
10
-0.9211142
20
15.1075805
40
12.1748899
50
324.7290092
51
332.1573495
0
ARC
8
DEFAULT_255_2_778
10
-8.1571243
20
20.1298903
40
20.9828357
50
319.6321279
51
324.9420742
0
ARC
8
DEFAULT_255_2_778
10
1.0560653
20
11.7513352
40
7.587188
50
347.6801016
51
353.9741909
0
ARC
8
DEFAULT_255_2_778
10
1.3896546
20
11.6957149
40
7.2325391
50
2.9771734
51
16.509025
0
ARC
8
DEFAULT_255_2_778
10
5.1585135
20
13.0826644
40
3.1992903
50
23.4605738
51
50.8999177
0
LINE
8
DEFAULT_255_2_778
10
5.962332
20
2.4479592
11
5.965532
21
2.4447592
0
LINE
8
DEFAULT_255_2_778
10
5.965532
20
2.4447592
11
5.982432
21
2.4299592
0
LINE
8
DEFAULT_255_2_778
10
5.982432
20
2.4299592
11
6.011532
21
2.4034592
0
LINE
8
DEFAULT_255_2_778
10
6.011532
20
2.4034592
11
6.137532
21
2.2860592
0
LINE
8
DEFAULT_255_2_778
10
6.137532
20
2.2860592
11
6.365032
21
2.0574592
0
LINE
8
DEFAULT_255_2_778
10
6.365032
20
2.0574592
11
6.598932
21
1.7954592
0
LINE
8
DEFAULT_255_2_778
10
6.598932
20
1.7954592
11
6.739732
21
1.6171592
0
LINE
8
DEFAULT_255_2_778
10
6.739732
20
1.6171592
11
6.864032
21
1.4372592
0
LINE
8
DEFAULT_255_2_778
10
6.864032
20
1.4372592
11
6.962432
21
1.2694592
0
LINE
8
DEFAULT_255_2_778
10
6.962432
20
1.2694592
11
7.034432
21
1.1149592
0
LINE
8
DEFAULT_255_2_778
10
7.107432
20
0.8292592
11
7.110632
21
0.7747592
0
LINE
8
DEFAULT_255_2_778
10
7.110632
20
0.7747592
11
7.110632
21
0.7218592
0
LINE
8
DEFAULT_255_2_778
10
7.110632
20
0.7218592
11
7.105332
21
0.6403592
0
LINE
8
DEFAULT_255_2_778
10
6.603132
20
-0.1777408
11
6.521132
21
-0.2307408
0
LINE
8
DEFAULT_255_2_778
10
5.992032
20
-0.3830408
11
5.907332
21
-0.3894408
0
LINE
8
DEFAULT_255_2_778
10
5.907332
20
-0.3894408
11
5.813132
21
-0.3915408
0
LINE
8
DEFAULT_255_2_778
10
4.818832
20
-0.0052408
11
4.697132
21
0.1508592
0
LINE
8
DEFAULT_255_2_778
10
4.536732
20
0.6186592
11
4.530432
21
0.7159592
0
LINE
8
DEFAULT_255_2_778
10
4.530432
20
0.7159592
11
4.531432
21
0.7937592
0
LINE
8
DEFAULT_255_2_778
10
4.599232
20
1.0853592
11
4.664332
21
1.2313592
0
LINE
8
DEFAULT_255_2_778
10
4.664332
20
1.2313592
11
4.759532
21
1.4007592
0
LINE
8
DEFAULT_255_2_778
10
4.759532
20
1.4007592
11
4.875932
21
1.5727592
0
LINE
8
DEFAULT_255_2_778
10
4.875932
20
1.5727592
11
5.074432
21
1.8235592
0
LINE
8
DEFAULT_255_2_778
10
5.074432
20
1.8235592
11
5.300332
21
2.0722592
0
LINE
8
DEFAULT_255_2_778
10
5.300332
20
2.0722592
11
5.512032
21
2.2838592
0
LINE
8
DEFAULT_255_2_778
10
5.512032
20
2.2838592
11
5.603032
21
2.3685592
0
LINE
8
DEFAULT_255_2_778
10
5.603032
20
2.3685592
11
5.677132
21
2.4352592
0
LINE
8
DEFAULT_255_2_778
10
5.788232
20
2.4865592
11
5.851232
21
2.4987592
0
LINE
8
DEFAULT_255_2_778
10
5.948632
20
16.5512592
11
6.094132
21
16.5475592
0
LINE
8
DEFAULT_255_2_778
10
6.094132
20
16.5475592
11
6.158632
21
16.5438592
0
LINE
8
DEFAULT_255_2_778
10
6.158632
20
16.5438592
11
6.553932
21
16.5121592
0
LINE
8
DEFAULT_255_2_778
10
6.553932
20
16.5121592
11
7.099032
21
16.4359592
0
LINE
8
DEFAULT_255_2_778
10
7.099032
20
16.4359592
11
7.138732
21
16.4269592
0
LINE
8
DEFAULT_255_2_778
10
7.138732
20
16.4269592
11
7.667832
21
16.2967592
0
LINE
8
DEFAULT_255_2_778
10
7.667832
20
16.2967592
11
7.817132
21
16.2528592
0
LINE
8
DEFAULT_255_2_778
10
7.817132
20
16.2528592
11
7.986432
21
16.1999592
0
LINE
8
DEFAULT_255_2_778
10
7.986432
20
16.1999592
11
8.198132
21
16.1226592
0
LINE
8
DEFAULT_255_2_778
10
8.198132
20
16.1226592
11
8.357832
21
16.0559592
0
LINE
8
DEFAULT_255_2_778
10
8.357832
20
16.0559592
11
8.606632
21
15.9395592
0
LINE
8
DEFAULT_255_2_778
10
8.606632
20
15.9395592
11
8.745732
21
15.8691592
0
LINE
8
DEFAULT_255_2_778
10
8.745732
20
15.8691592
11
9.027332
21
15.7104592
0
LINE
8
DEFAULT_255_2_778
10
9.027332
20
15.7104592
11
9.113532
21
15.6585592
0
LINE
8
DEFAULT_255_2_778
10
9.113532
20
15.6585592
11
9.497732
21
15.3813592
0
LINE
8
DEFAULT_255_2_778
10
9.497732
20
15.3813592
11
9.591332
21
15.2998592
0
LINE
8
DEFAULT_255_2_778
10
9.591332
20
15.2998592
11
9.855932
21
15.0606592
0
LINE
8
DEFAULT_255_2_778
10
9.855932
20
15.0606592
11
10.083532
21
14.8193592
0
LINE
8
DEFAULT_255_2_778
10
10.083532
20
14.8193592
11
10.145932
21
14.7505592
0
LINE
8
DEFAULT_255_2_778
10
10.145932
20
14.7505592
11
10.412132
21
14.4002592
0
LINE
8
DEFAULT_255_2_778
10
10.412132
20
14.4002592
11
10.452332
21
14.3367592
0
LINE
8
DEFAULT_255_2_778
10
10.452332
20
14.3367592
11
10.657632
21
13.9938592
0
LINE
8
DEFAULT_255_2_778
10
10.657632
20
13.9938592
11
10.710532
21
13.8842592
0
LINE
8
DEFAULT_255_2_778
10
10.710532
20
13.8842592
11
10.826932
21
13.6292592
0
LINE
8
DEFAULT_255_2_778
10
10.826932
20
13.6292592
11
10.947632
21
13.3318592
0
LINE
8
DEFAULT_255_2_778
10
10.947632
20
13.3318592
11
10.987832
21
13.2164592
0
LINE
8
DEFAULT_255_2_778
10
10.987832
20
13.2164592
11
11.116432
21
12.7524592
0
LINE
8
DEFAULT_255_2_778
10
11.116432
20
12.7524592
11
11.222232
21
12.1253592
0
LINE
8
DEFAULT_255_2_778
10
11.222232
20
12.1253592
11
11.239732
21
11.9306592
0
LINE
8
DEFAULT_255_2_778
10
11.239732
20
11.9306592
11
11.255632
21
11.6501592
0
LINE
8
DEFAULT_255_2_778
10
11.255632
20
11.6501592
11
11.256632
21
11.6094592
0
LINE
8
DEFAULT_255_2_778
10
11.256632
20
11.6094592
11
11.251332
21
11.2961592
0
LINE
8
DEFAULT_255_2_778
10
11.251332
20
11.2961592
11
11.247632
21
11.2432592
0
LINE
8
DEFAULT_255_2_778
10
11.247632
20
11.2432592
11
11.231832
21
11.1199592
0
LINE
8
DEFAULT_255_2_778
10
11.231832
20
11.1199592
11
11.143432
21
10.6198592
0
LINE
8
DEFAULT_255_2_778
10
11.143432
20
10.6198592
11
11.130232
21
10.5590592
0
LINE
8
DEFAULT_255_2_778
10
11.130232
20
10.5590592
11
10.927032
21
9.9314592
0
LINE
8
DEFAULT_255_2_778
10
10.927032
20
9.9314592
11
10.738032
21
9.4789592
0
LINE
8
DEFAULT_255_2_778
10
10.738032
20
9.4789592
11
10.497832
21
9.0027592
0
LINE
8
DEFAULT_255_2_778
10
10.497832
20
9.0027592
11
10.067132
21
8.2592592
0
LINE
8
DEFAULT_255_2_778
10
10.067132
20
8.2592592
11
9.844832
21
7.9242592
0
LINE
8
DEFAULT_255_2_778
10
9.844832
20
7.9242592
11
9.576532
21
7.5274592
0
LINE
8
DEFAULT_255_2_778
10
9.576532
20
7.5274592
11
9.382832
21
7.2649592
0
LINE
8
DEFAULT_255_2_778
10
9.382832
20
7.2649592
11
9.005632
21
6.7648592
0
LINE
8
DEFAULT_255_2_778
10
9.005632
20
6.7648592
11
8.741032
21
6.4473592
0
LINE
8
DEFAULT_255_2_778
10
8.741032
20
6.4473592
11
8.358432
21
5.9854592
0
LINE
8
DEFAULT_255_2_778
10
8.358432
20
5.9854592
11
8.091132
21
5.6758592
0
LINE
8
DEFAULT_255_2_778
10
8.091132
20
5.6758592
11
7.675832
21
5.2123592
0
LINE
8
DEFAULT_255_2_778
10
7.675832
20
5.2123592
11
7.414332
21
4.9281592
0
LINE
8
DEFAULT_255_2_778
10
7.414332
20
4.9281592
11
6.623232
21
4.1100592
0
LINE
8
DEFAULT_255_2_778
10
6.623232
20
4.1100592
11
6.208932
21
3.7068592
0
LINE
8
DEFAULT_255_2_778
10
6.208932
20
3.7068592
11
5.979832
21
3.4914592
0
LINE
8
DEFAULT_255_2_778
10
5.979832
20
3.4914592
11
5.965532
21
3.4782592
0
LINE
8
DEFAULT_255_2_778
10
5.965532
20
3.4782592
11
5.948032
21
3.4623592
0
LINE
8
DEFAULT_255_2_778
10
5.948032
20
3.4623592
11
5.925332
21
3.4464592
0
LINE
8
DEFAULT_255_2_778
10
5.925332
20
3.4464592
11
5.909432
21
3.4390592
0
LINE
8
DEFAULT_255_2_778
10
5.909432
20
3.4390592
11
5.864432
21
3.4242592
0
LINE
8
DEFAULT_255_2_778
10
5.864432
20
3.4242592
11
5.756532
21
3.4295592
0
LINE
8
DEFAULT_255_2_778
10
5.756532
20
3.4295592
11
5.746932
21
3.4327592
0
LINE
8
DEFAULT_255_2_778
10
5.746932
20
3.4327592
11
5.694032
21
3.4697592
0
LINE
8
DEFAULT_255_2_778
10
5.694032
20
3.4697592
11
5.686632
21
3.4766592
0
LINE
8
DEFAULT_255_2_778
10
5.686632
20
3.4766592
11
5.678732
21
3.4835592
0
LINE
8
DEFAULT_255_2_778
10
5.678732
20
3.4835592
11
5.648032
21
3.5120592
0
LINE
8
DEFAULT_255_2_778
10
5.648032
20
3.5120592
11
5.556532
21
3.5978592
0
LINE
8
DEFAULT_255_2_778
10
5.556532
20
3.5978592
11
4.797632
21
4.3386592
0
LINE
8
DEFAULT_255_2_778
10
4.797632
20
4.3386592
11
4.562732
21
4.5799592
0
LINE
8
DEFAULT_255_2_778
10
4.562732
20
4.5799592
11
3.967432
21
5.2186592
0
LINE
8
DEFAULT_255_2_778
10
3.967432
20
5.2186592
11
3.824532
21
5.3737592
0
LINE
8
DEFAULT_255_2_778
10
3.824532
20
5.3737592
11
3.100632
21
6.2119592
0
LINE
8
DEFAULT_255_2_778
10
3.100632
20
6.2119592
11
2.897932
21
6.4606592
0
LINE
8
DEFAULT_255_2_778
10
2.897932
20
6.4606592
11
2.262932
21
7.2818592
0
LINE
8
DEFAULT_255_2_778
10
2.262932
20
7.2818592
11
2.199432
21
7.3654592
0
LINE
8
DEFAULT_255_2_778
10
2.199432
20
7.3654592
11
1.714732
21
8.0719592
0
LINE
8
DEFAULT_255_2_778
10
1.714732
20
8.0719592
11
1.583532
21
8.2820592
0
LINE
8
DEFAULT_255_2_778
10
1.583532
20
8.2820592
11
1.231032
21
8.8746592
0
LINE
8
DEFAULT_255_2_778
10
1.231032
20
8.8746592
11
1.125232
21
9.0582592
0
LINE
8
DEFAULT_255_2_778
10
1.125232
20
9.0582592
11
0.820932
21
9.6932592
0
LINE
8
DEFAULT_255_2_778
10
0.820932
20
9.6932592
11
0.768032
21
9.8176592
0
LINE
8
DEFAULT_255_2_778
10
0.768032
20
9.8176592
11
0.593432
21
10.3044592
0
LINE
8
DEFAULT_255_2_778
10
0.593432
20
10.3044592
11
0.527832
21
10.4944592
0
LINE
8
DEFAULT_255_2_778
10
0.527832
20
10.4944592
11
0.478632
21
10.6944592
0
LINE
8
DEFAULT_255_2_778
10
0.478632
20
10.6944592
11
0.436232
21
10.9130592
0
LINE
8
DEFAULT_255_2_778
10
0.436232
20
10.9130592
11
0.402932
21
11.1574592
0
LINE
8
DEFAULT_255_2_778
10
0.402932
20
11.1574592
11
0.390232
21
11.3056592
0
LINE
8
DEFAULT_255_2_778
10
0.390232
20
11.3056592
11
0.384932
21
11.5845592
0
LINE
8
DEFAULT_255_2_778
10
0.384932
20
11.5845592
11
0.386032
21
11.6374592
0
LINE
8
DEFAULT_255_2_778
10
0.386032
20
11.6374592
11
0.393432
21
11.7877592
0
LINE
8
DEFAULT_255_2_778
10
0.393432
20
11.7877592
11
0.454232
21
12.3962592
0
LINE
8
DEFAULT_255_2_778
10
0.454232
20
12.3962592
11
0.468532
21
12.4745592
0
LINE
8
DEFAULT_255_2_778
10
0.468532
20
12.4745592
11
0.606132
21
13.0820592
0
LINE
8
DEFAULT_255_2_778
10
0.606132
20
13.0820592
11
0.609332
21
13.0926592
0
LINE
8
DEFAULT_255_2_778
10
0.609332
20
13.0926592
11
0.632032
21
13.1603592
0
LINE
8
DEFAULT_255_2_778
10
0.632032
20
13.1603592
11
0.728932
21
13.4408592
0
LINE
8
DEFAULT_255_2_778
10
0.728932
20
13.4408592
11
0.758532
21
13.5117592
0
LINE
8
DEFAULT_255_2_778
10
0.758532
20
13.5117592
11
0.915732
21
13.8557592
0
LINE
8
DEFAULT_255_2_778
10
0.915732
20
13.8557592
11
1.022532
21
14.0557592
0
LINE
8
DEFAULT_255_2_778
10
1.022532
20
14.0557592
11
1.173932
21
14.3033592
0
LINE
8
DEFAULT_255_2_778
10
1.173932
20
14.3033592
11
1.324732
21
14.5235592
0
LINE
8
DEFAULT_255_2_778
10
1.324732
20
14.5235592
11
1.429532
21
14.6611592
0
LINE
8
DEFAULT_255_2_778
10
1.429532
20
14.6611592
11
1.552832
21
14.8082592
0
LINE
8
DEFAULT_255_2_778
10
1.552832
20
14.8082592
11
1.687732
21
14.9563592
0
LINE
8
DEFAULT_255_2_778
10
1.687732
20
14.9563592
11
1.797832
21
15.0622592
0
LINE
8
DEFAULT_255_2_778
10
1.797832
20
15.0622592
11
2.087832
21
15.3151592
0
LINE
8
DEFAULT_255_2_778
10
2.087832
20
15.3151592
11
2.299432
21
15.4908592
0
LINE
8
DEFAULT_255_2_778
10
2.299432
20
15.4908592
11
2.555532
21
15.6628592
0
LINE
8
DEFAULT_255_2_778
10
2.555532
20
15.6628592
11
2.737632
21
15.7792592
0
LINE
8
DEFAULT_255_2_778
10
2.737632
20
15.7792592
11
3.123932
21
15.9813592
0
LINE
8
DEFAULT_255_2_778
10
3.123932
20
15.9813592
11
3.699632
21
16.2179592
0
LINE
8
DEFAULT_255_2_778
10
3.699632
20
16.2179592
11
4.187532
21
16.3592592
0
LINE
8
DEFAULT_255_2_778
10
4.187532
20
16.3592592
11
4.379132
21
16.4015592
0
LINE
8
DEFAULT_255_2_778
10
4.379132
20
16.4015592
11
4.642632
21
16.4544592
0
LINE
8
DEFAULT_255_2_778
10
4.642632
20
16.4544592
11
4.820932
21
16.4809592
0
LINE
8
DEFAULT_255_2_778
10
4.820932
20
16.4809592
11
5.096132
21
16.5147592
0
LINE
8
DEFAULT_255_2_778
10
5.096132
20
16.5147592
11
5.281332
21
16.5306592
0
LINE
8
DEFAULT_255_2_778
10
5.281332
20
16.5306592
11
5.653832
21
16.5507592
0
LINE
8
DEFAULT_255_2_778
10
5.653832
20
16.5507592
11
5.791432
21
16.5523592
0
LINE
8
DEFAULT_255_2_778
10
5.791432
20
16.5523592
11
5.819432
21
16.5523592
0
LINE
8
DEFAULT_255_2_778
10
5.819432
20
16.5523592
11
5.938032
21
16.5497592
0
LINE
8
DEFAULT_255_2_778
10
5.938032
20
16.5497592
11
5.948632
21
16.5512592
0
LINE
8
DEFAULT_255_2_778
10
5.631132
20
15.6887592
11
5.472332
21
15.6649592
0
LINE
8
DEFAULT_255_2_778
10
4.984432
20
15.4961592
11
4.829932
21
15.4072592
0
LINE
8
DEFAULT_255_2_778
10
3.962132
20
14.4298592
11
3.862632
21
14.2340592
0
LINE
8
DEFAULT_255_2_778
10
3.862632
20
14.2340592
11
3.758932
21
13.9938592
0
LINE
8
DEFAULT_255_2_778
10
3.758932
20
13.9938592
11
3.645132
21
13.6763592
0
LINE
8
DEFAULT_255_2_778
10
3.645132
20
13.6763592
11
3.539332
21
13.2725592
0
LINE
8
DEFAULT_255_2_778
10
3.539332
20
13.2725592
11
3.440832
21
12.7539592
0
LINE
8
DEFAULT_255_2_778
10
3.440832
20
12.7539592
11
3.370532
21
12.0872592
0
LINE
8
DEFAULT_255_2_778
10
3.370532
20
12.0872592
11
3.353032
21
11.6617592
0
LINE
8
DEFAULT_255_2_778
10
3.353032
20
11.6617592
11
3.362532
21
11.1728592
0
LINE
8
DEFAULT_255_2_778
10
3.949932
20
8.6577592
11
4.627232
21
6.9760592
0
LINE
8
DEFAULT_255_2_778
10
4.627232
20
6.9760592
11
5.626332
21
4.9651592
0
LINE
8
DEFAULT_255_2_778
10
5.626332
20
4.9651592
11
5.652732
21
4.9159592
0
LINE
8
DEFAULT_255_2_778
10
5.652732
20
4.9159592
11
5.652732
21
15.6892592
0
LINE
8
DEFAULT_255_2_778
10
5.652732
20
15.6892592
11
5.640132
21
15.6882592
0
LINE
8
DEFAULT_255_2_778
10
5.640132
20
15.6882592
11
5.631132
21
15.6887592
0
LINE
8
DEFAULT_255_2_778
10
10.456532
20
11.9343592
11
10.474032
21
11.5998592
0
LINE
8
DEFAULT_255_2_778
10
10.474032
20
11.5998592
11
10.467632
21
11.2887592
0
LINE
8
DEFAULT_255_2_778
10
10.145932
20
10.0652592
11
9.844332
21
9.4213592
0
LINE
8
DEFAULT_255_2_778
10
7.829732
20
6.5394592
11
6.463432
21
5.0345592
0
LINE
8
DEFAULT_255_2_778
10
6.463432
20
5.0345592
11
6.403132
21
4.9725592
0
LINE
8
DEFAULT_255_2_778
10
6.403132
20
4.9725592
11
7.342432
21
6.8765592
0
LINE
8
DEFAULT_255_2_778
10
7.342432
20
6.8765592
11
7.798532
21
7.9666592
0
LINE
8
DEFAULT_255_2_778
10
7.798532
20
7.9666592
11
8.224032
21
9.1921592
0
LINE
8
DEFAULT_255_2_778
10
8.224032
20
9.1921592
11
8.468532
21
10.1324592
0
LINE
8
DEFAULT_255_2_778
10
8.601332
20
10.9548592
11
8.626732
21
11.3167592
0
LINE
8
DEFAULT_255_2_778
10
8.626732
20
11.3167592
11
8.628332
21
11.6480592
0
LINE
8
DEFAULT_255_2_778
10
8.628332
20
11.6480592
11
8.612432
21
12.0713592
0
LINE
8
DEFAULT_255_2_778
10
8.324032
20
13.7509592
11
8.203332
21
14.0980592
0
LINE
8
DEFAULT_255_2_778
10
8.203332
20
14.0980592
11
8.093332
21
14.3563592
0
LINE
8
DEFAULT_255_2_778
10
7.176232
20
15.5654592
11
7.040832
21
15.6638592
0
LINE
8
DEFAULT_255_2_778
10
7.040832
20
15.6638592
11
7.041332
21
15.6622592
0
ENDSEC
0
EOF