0
SECTION
2
HEADER
9
$MEASUREMENT
70
1
0
ENDSEC
0
SECTION
2
TABLES
0
TABLE
2
LTYPE
0
LTYPE
72
65
70
64
2
CONTINUOUS
3
______
73
0
40
0
0
ENDTAB
0
TABLE
2
LAYER
0
LAYER
2
DEFAULT_255_2_778
70
0
62
255
6
CONTINUOUS
0
ENDTAB
0
ENDSEC
0
SECTION
2
ENTITIES
0
ARC
8
DEFAULT_255_2_778
10
37.6007435
20
3.7621822
40
5.0010252
50
16.2655017
51
21.4728137
0
ARC
8
DEFAULT_255_2_778
10
38.9421068
20
4.2932522
40
3.5583621
50
21.4214471
51
28.4267693
0
ARC
8
DEFAULT_255_2_778
10
39.8548115
20
4.790051
40
2.5192131
50
28.3717672
51
37.7994186
0
ARC
8
DEFAULT_255_2_778
10
40.4116212
20
5.2270538
40
1.8114094
50
37.6718044
51
52.657978
0
ARC
8
DEFAULT_255_2_778
10
40.5660321
20
5.4011543
40
1.5794263
50
53.280373
51
89.2200093
0
ARC
8
DEFAULT_255_2_778
10
40.5175066
20
4.9014707
40
2.0801426
50
88.0708202
51
90.0084921
0
ARC
8
DEFAULT_255_2_778
10
40.5066701
20
5.7705089
40
1.21115
50
89.5019372
51
109.5267629
0
ARC
8
DEFAULT_255_2_778
10
40.4173469
20
6.0201329
40
0.9460273
50
109.4813587
51
167.148937
0
ARC
8
DEFAULT_255_2_778
10
40.7284344
20
5.9298078
40
1.2695527
50
166.2972327
51
180.2931125
0
ARC
8
DEFAULT_255_2_778
10
40.295698
20
5.9047768
40
0.8370051
50
178.7310248
51
216.5304004
0
ARC
8
DEFAULT_255_2_778
10
40.5427203
20
6.089458
40
1.1454297
50
216.5983861
51
227.5385133
0
ARC
8
DEFAULT_255_2_778
10
40.9531415
20
6.5328996
40
1.7496469
50
227.4266633
51
234.3672257
0
ARC
8
DEFAULT_255_2_778
10
41.3157905
20
7.0232688
40
2.3594954
50
234.1470701
51
236.0219281
0
ARC
8
DEFAULT_255_2_778
10
41.7148497
20
7.6247815
40
3.0813296
50
236.1195556
51
239.823436
0
ARC
8
DEFAULT_255_2_778
10
42.4116717
20
8.8175706
40
4.4627424
50
239.7873074
51
242.3507002
0
ARC
8
DEFAULT_255_2_778
10
43.3419565
20
10.5918131
40
6.4660812
50
242.3445113
51
244.394747
0
ARC
8
DEFAULT_255_2_778
10
44.6634139
20
13.3441031
40
9.5191693
50
244.3813363
51
245.8821171
0
ARC
8
DEFAULT_255_2_778
10
46.5219733
20
17.4888519
40
14.0615455
50
245.8710683
51
246.9419034
0
ARC
8
DEFAULT_255_2_778
10
49.2157285
20
23.8098784
40
20.9326216
50
246.9341687
51
247.6886968
0
ARC
8
DEFAULT_255_2_778
10
51.7882165
20
30.0504415
40
27.682602
50
247.6664695
51
247.8670429
0
ARC
8
DEFAULT_255_2_778
10
39.1907417
20
-1.5313296
40
6.322328
50
65.8495926
51
69.9470158
0
ARC
8
DEFAULT_255_2_778
10
40.0710294
20
0.4229815
40
4.1789151
50
60.0669612
51
65.8998593
0
ARC
8
DEFAULT_255_2_778
10
40.7845235
20
1.6532146
40
2.7567626
50
51.2992864
51
60.159439
0
ARC
8
DEFAULT_255_2_778
10
41.3469955
20
2.3474011
40
1.8633234
50
36.2944897
51
51.4506989
0
ARC
8
DEFAULT_255_2_778
10
41.5167801
20
2.4943796
40
1.6395761
50
8.0857146
51
35.6668239
0
ARC
8
DEFAULT_255_2_778
10
40.7802496
20
2.3672369
40
2.3867717
50
359.7473698
51
8.6206263
0
ARC
8
DEFAULT_255_2_778
10
40.5706857
20
2.3452422
40
2.5963379
50
346.8352384
51
0.2531393
0
ARC
8
DEFAULT_255_2_778
10
40.9890019
20
2.2465453
40
2.1665371
50
305.425298
51
346.8572072
0
ARC
8
DEFAULT_255_2_778
10
40.6287404
20
2.7214427
40
2.7624006
50
292.8824807
51
305.8048045
0
ARC
8
DEFAULT_255_2_778
10
40.3307812
20
3.4177023
40
3.5197287
50
283.3165029
51
292.9439481
0
ARC
8
DEFAULT_255_2_778
10
40.1113999
20
4.3295389
40
4.45758
50
275.7545032
51
283.3609671
0
ARC
8
DEFAULT_255_2_778
10
40.0011373
20
5.3820087
40
5.5158032
50
269.9050678
51
275.7979207
0
ARC
8
DEFAULT_255_2_778
10
39.999646
20
7.0067652
40
7.1405561
50
266.5036928
51
269.9386347
0
ARC
8
DEFAULT_255_2_778
10
40.0490209
20
7.9241387
40
8.059236
50
265.3448476
51
266.5510568
0
ARC
8
DEFAULT_255_2_778
10
40.1262422
20
8.7749339
40
8.9134954
50
259.7285361
51
265.2939551
0
ARC
8
DEFAULT_255_2_778
10
40.0007621
20
8.1269486
40
8.2535239
50
256.2711301
51
259.7835543
0
ARC
8
DEFAULT_255_2_778
10
39.5629796
20
6.3440069
40
6.4176237
50
252.9302087
51
256.2901782
0
ARC
8
DEFAULT_255_2_778
10
38.9668295
20
4.411525
40
4.3952807
50
249.0962411
51
252.9645554
0
ARC
8
DEFAULT_255_2_778
10
38.5903279
20
3.4013327
40
3.317254
50
248.2277479
51
248.9457105
0
ARC
8
DEFAULT_255_2_778
10
43.8407933
20
4.8931052
40
6.621373
50
200.9731623
51
205.1285463
0
ARC
8
DEFAULT_255_2_778
10
42.2160497
20
4.1287642
40
4.825822
50
205.1041657
51
210.3442749
0
ARC
8
DEFAULT_255_2_778
10
41.0655467
20
3.4519287
40
3.4909993
50
210.2969289
51
217.3483472
0
ARC
8
DEFAULT_255_2_778
10
40.2966367
20
2.8611645
40
2.5213545
50
217.2763466
51
227.3213907
0
ARC
8
DEFAULT_255_2_778
10
39.8718723
20
2.3964258
40
1.8917541
50
227.2376013
51
243.4472638
0
ARC
8
DEFAULT_255_2_778
10
39.8417992
20
2.3910583
40
1.8736696
50
244.1965342
51
270.8868096
0
ARC
8
DEFAULT_255_2_778
10
39.879205
20
2.0349181
40
1.5173283
50
269.6825505
51
283.6576456
0
ARC
8
DEFAULT_255_2_778
10
39.9557794
20
1.7241757
40
1.1972921
50
283.6080347
51
303.5891448
0
ARC
8
DEFAULT_255_2_778
10
40.0130219
20
1.6291274
40
1.0864569
50
303.847525
51
341.8870769
0
ARC
8
DEFAULT_255_2_778
10
39.9485875
20
1.6532805
40
1.1552111
50
341.7420432
51
0.0462549
0
ARC
8
DEFAULT_255_2_778
10
40.0460639
20
1.6706814
40
1.0578626
50
359.1080095
51
16.3569655
0
ARC
8
DEFAULT_255_2_778
10
40.2675705
20
1.7223499
40
0.830869
50
17.2399244
51
40.554157
0
ARC
8
DEFAULT_255_2_778
10
39.9936167
20
1.4918443
40
1.1888878
50
40.4105737
51
51.2306351
0
ARC
8
DEFAULT_255_2_778
10
39.5772516
20
0.9795012
40
1.8490743
50
51.1127038
51
58.0208042
0
ARC
8
DEFAULT_255_2_778
10
39.2165308
20
0.4205436
40
2.514266
50
57.7941122
51
59.6716909
0
ARC
8
DEFAULT_255_2_778
10
38.8971957
20
-0.1306326
40
3.1512624
50
59.7205234
51
62.6530206
0
ARC
8
DEFAULT_255_2_778
10
38.3932426
20
-1.1038927
40
4.247257
50
62.6457706
51
65.0800484
0
ARC
8
DEFAULT_255_2_778
10
37.8234296
20
-2.3245083
40
5.5943223
50
65.0549206
51
66.701665
0
ARC
8
DEFAULT_255_2_778
10
37.156211
20
-3.8750451
40
7.2823224
50
66.7052393
51
68.2494482
0
ARC
8
DEFAULT_255_2_778
10
36.3672617
20
-5.8464031
40
9.4056898
50
68.2356698
51
69.3119209
0
ARC
8
DEFAULT_255_2_778
10
35.4977519
20
-8.1476241
40
11.8657029
50
69.3096715
51
70.2231813
0
ARC
8
DEFAULT_255_2_778
10
41.8009189
20
10.0468252
40
7.3917386
50
247.5523788
51
251.9661908
0
ARC
8
DEFAULT_255_2_778
10
40.5144688
20
6.9517248
40
4.0399471
50
239.8688051
51
247.6537177
0
ARC
8
DEFAULT_255_2_778
10
39.6552064
20
5.4914868
40
2.3457069
50
225.1710347
51
240.1165974
0
ARC
8
DEFAULT_255_2_778
10
39.2032322
20
5.0250635
40
1.6962945
50
197.6738027
51
224.8914117
0
ARC
8
DEFAULT_255_2_778
10
39.5556911
20
5.1337813
40
2.0651268
50
185.5209075
51
197.5789369
0
ARC
8
DEFAULT_255_2_778
10
40.1562691
20
5.200737
40
2.6693752
50
179.8974856
51
185.7111687
0
ARC
8
DEFAULT_255_2_778
10
39.5601869
20
5.2067989
40
2.0732891
50
134.5690577
51
180.0355331
0
ARC
8
DEFAULT_255_2_778
10
39.870936
20
4.9164963
40
2.4982384
50
120.4393665
51
134.9739474
0
ARC
8
DEFAULT_255_2_778
10
40.1214278
20
4.4943071
40
2.9891419
50
109.1196845
51
120.4791075
0
ARC
8
DEFAULT_255_2_778
10
40.3219898
20
3.9220805
40
3.5954956
50
99.8999892
51
109.1526673
0
ARC
8
DEFAULT_255_2_778
10
40.4464169
20
3.2215395
40
4.3069981
50
92.2872063
51
99.9283375
0
ARC
8
DEFAULT_255_2_778
10
40.4764834
20
2.6798157
40
4.8494975
50
89.9880093
51
92.386723
0
ARC
8
DEFAULT_255_2_778
10
40.48301
20
0.0181711
40
7.5111441
50
84.4912998
51
90.0420444
0
ARC
8
DEFAULT_255_2_778
10
40.5935553
20
1.1310614
40
6.3927822
50
79.214195
51
84.5199863
0
ARC
8
DEFAULT_255_2_778
10
40.8698091
20
2.5677217
40
4.9298057
50
73.6536073
51
79.2434799
0
ARC
8
DEFAULT_255_2_778
10
41.2810027
20
3.9599318
40
3.4781451
50
67.2023896
51
73.6987986
0
ARC
8
DEFAULT_255_2_778
10
41.5804809
20
4.6980277
40
2.6816872
50
65.2005172
51
66.990604
0
ARC
8
DEFAULT_255_2_778
10
28.8756923
20
4.8642014
40
5.7821534
50
357.4010659
51
358.7072827
0
ARC
8
DEFAULT_255_2_778
10
28.6585127
20
4.8693268
40
5.9993933
50
358.7051394
51
0.002115
0
ARC
8
DEFAULT_255_2_778
10
28.6094289
20
4.8697056
40
6.0484769
50
359.9985091
51
2.2865826
0
ARC
8
DEFAULT_255_2_778
10
28.8921864
20
4.8819785
40
5.765455
50
2.2768269
51
4.7279536
0
ARC
8
DEFAULT_255_2_778
10
30.2295845
20
5.0175259
40
4.4215049
50
4.405915
51
13.5194688
0
ARC
8
DEFAULT_255_2_778
10
32.0336489
20
5.4465412
40
2.5671409
50
13.6225609
51
22.6946736
0
ARC
8
DEFAULT_255_2_778
10
33.0254947
20
5.8648744
40
1.4906922
50
22.5690243
51
35.2655986
0
ARC
8
DEFAULT_255_2_778
10
33.5604231
20
6.2517199
40
0.830609
50
34.7825164
51
58.586191
0
ARC
8
DEFAULT_255_2_778
10
33.6766707
20
6.42161
40
0.6251214
50
59.5632254
51
90.4374259
0
ARC
8
DEFAULT_255_2_778
10
33.687671
20
6.1986587
40
0.8482011
50
91.0655077
51
135.9792828
0
ARC
8
DEFAULT_255_2_778
10
34.1732275
20
5.6685996
40
1.5663178
50
134.3791695
51
148.5295112
0
ARC
8
DEFAULT_255_2_778
10
34.9972257
20
5.156662
40
2.5363832
50
148.3835744
51
158.667664
0
ARC
8
DEFAULT_255_2_778
10
36.1980845
20
4.6847412
40
3.8266412
50
158.6265957
51
168.0130817
0
ARC
8
DEFAULT_255_2_778
10
37.0713583
20
4.4835933
40
4.7226744
50
167.8263306
51
173.9722191
0
ARC
8
DEFAULT_255_2_778
10
37.1375304
20
4.4730109
40
4.7895932
50
173.9294524
51
177.885416
0
ARC
8
DEFAULT_255_2_778
10
36.9406743
20
4.4812894
40
4.5925658
50
177.8980063
51
179.2536315
0
ARC
8
DEFAULT_255_2_778
10
33.8837942
20
3.7226932
40
3.8093326
50
81.7819601
51
90.1473403
0
ARC
8
DEFAULT_255_2_778
10
33.9856375
20
4.4142855
40
3.1102851
50
70.6818286
51
81.8177133
0
ARC
8
DEFAULT_255_2_778
10
34.1365284
20
4.8428945
40
2.6558916
50
53.9403097
51
70.6948893
0
ARC
8
DEFAULT_255_2_778
10
34.0437614
20
4.7628172
40
2.7753713
50
25.6438295
51
53.3652
0
ARC
8
DEFAULT_255_2_778
10
33.2137929
20
4.3330627
40
3.7096841
50
14.1802153
51
26.0799122
0
ARC
8
DEFAULT_255_2_778
10
32.2199233
20
4.0764186
40
4.7361443
50
5.1448469
51
14.2449768
0
ARC
8
DEFAULT_255_2_778
10
31.2945182
20
3.98136
40
5.6663576
50
0.4535406
51
5.2630616
0
ARC
8
DEFAULT_255_2_778
10
37.2010945
20
3.9844779
40
4.8983741
50
179.5118211
51
179.9997965
0
ARC
8
DEFAULT_255_2_778
10
36.7140583
20
3.9723558
40
4.4113545
50
179.8423288
51
189.3104285
0
ARC
8
DEFAULT_255_2_778
10
35.8518782
20
3.8276518
40
3.5371233
50
189.2567919
51
200.9367384
0
ARC
8
DEFAULT_255_2_778
10
35.1376261
20
3.5480352
40
2.7701182
50
200.8141595
51
217.9260122
0
ARC
8
DEFAULT_255_2_778
10
34.7797429
20
3.273966
40
2.3193665
50
218.0194727
51
249.2695141
0
ARC
8
DEFAULT_255_2_778
10
34.8893357
20
3.568942
40
2.634038
50
249.3111938
51
262.1939911
0
ARC
8
DEFAULT_255_2_778
10
34.9636372
20
4.0759337
40
3.1464269
50
262.1074291
51
270.1140134
0
ARC
8
DEFAULT_255_2_778
10
34.9797332
20
4.4038301
40
3.4743309
50
269.8378108
51
275.8414659
0
ARC
8
DEFAULT_255_2_778
10
35.070577
20
3.5282422
40
2.5940441
50
275.8136778
51
284.3689924
0
ARC
8
DEFAULT_255_2_778
10
35.0456216
20
3.4892182
40
2.5626575
50
285.1260378
51
305.5791352
0
ARC
8
DEFAULT_255_2_778
10
33.6810591
20
5.5892663
40
5.0658316
50
304.311738
51
305.694675
0
ARC
8
DEFAULT_255_2_778
10
34.6213762
20
2.8941026
40
2.7827906
50
313.6090738
51
323.3430308
0
ARC
8
DEFAULT_255_2_778
10
34.2539343
20
3.2757643
40
3.3125759
50
304.1310974
51
313.6576036
0
ARC
8
DEFAULT_255_2_778
10
34.048512
20
3.5753986
40
3.6758606
50
294.3473819
51
304.1609971
0
ARC
8
DEFAULT_255_2_778
10
33.9470562
20
3.797162
40
3.919728
50
284.5777879
51
294.3620964
0
ARC
8
DEFAULT_255_2_778
10
33.8897255
20
4.0172236
40
4.147135
50
275.4580766
51
284.5791258
0
ARC
8
DEFAULT_255_2_778
10
33.8649867
20
4.2549049
40
4.3860922
50
269.9766371
51
275.4844501
0
ARC
8
DEFAULT_255_2_778
10
33.854347
20
4.4985416
40
4.629737
50
260.548907
51
270.1095391
0
ARC
8
DEFAULT_255_2_778
10
33.7579092
20
3.9297266
40
4.0528076
50
248.5212094
51
260.57331
0
ARC
8
DEFAULT_255_2_778
10
33.5888384
20
3.5072006
40
3.5977192
50
230.7694238
51
248.5629129
0
ARC
8
DEFAULT_255_2_778
10
33.5100904
20
3.3928376
40
3.4593478
50
201.7567725
51
230.5817804
0
ARC
8
DEFAULT_255_2_778
10
33.8840875
20
3.5486668
40
3.8644691
50
188.5530371
51
201.8472181
0
ARC
8
DEFAULT_255_2_778
10
34.3681399
20
3.6260277
40
4.3546461
50
179.9173
51
188.6123759
0
ARC
8
DEFAULT_255_2_778
10
34.536441
20
3.6444189
40
4.5229589
50
179.9990646
51
180.1533534
0
ARC
8
DEFAULT_255_2_778
10
34.2966893
20
3.6663182
40
4.2832629
50
156.0420225
51
180.2919532
0
ARC
8
DEFAULT_255_2_778
10
33.6241602
20
3.968163
40
3.5461085
50
126.0889216
51
156.0864133
0
ARC
8
DEFAULT_255_2_778
10
33.5771043
20
3.9978806
40
3.4944358
50
111.9638255
51
125.7524477
0
ARC
8
DEFAULT_255_2_778
10
33.7150718
20
3.6538692
40
3.8650818
50
101.5119663
51
111.9532462
0
ARC
8
DEFAULT_255_2_778
10
33.8317013
20
3.087788
40
4.4430514
50
93.3904136
51
101.5288469
0
ARC
8
DEFAULT_255_2_778
10
33.8710031
20
2.5420165
40
4.9901969
50
89.9770925
51
93.470285
0
ARC
8
DEFAULT_255_2_778
10
20.9647772
20
3.6786012
40
6.1900288
50
1.5303325
51
8.1408879
0
ARC
8
DEFAULT_255_2_778
10
22.4263277
20
3.890641
40
4.7131811
50
8.1051937
51
15.5465076
0
ARC
8
DEFAULT_255_2_778
10
23.7035547
20
4.2495818
40
3.386482
50
15.4875397
51
24.6400018
0
ARC
8
DEFAULT_255_2_778
10
24.6668633
20
4.6959588
40
2.3247895
50
24.5386085
51
36.8677483
0
ARC
8
DEFAULT_255_2_778
10
25.2876139
20
5.1722043
40
1.542466
50
36.5492111
51
58.3398396
0
ARC
8
DEFAULT_255_2_778
10
25.4397107
20
5.3908322
40
1.2766272
50
58.9999481
51
88.5665418
0
ARC
8
DEFAULT_255_2_778
10
25.4249168
20
5.2178439
40
1.4499692
50
88.153139
51
90.0046853
0
ARC
8
DEFAULT_255_2_778
10
25.4183141
20
4.7911142
40
1.8767101
50
89.8020376
51
97.1280208
0
ARC
8
DEFAULT_255_2_778
10
25.407114
20
4.9090933
40
1.7582566
50
97.2429258
51
98.0315333
0
ARC
8
DEFAULT_255_2_778
10
25.4674219
20
4.5546592
40
2.1176649
50
98.3073862
51
105.8258601
0
ARC
8
DEFAULT_255_2_778
10
25.9694136
20
2.7274494
40
4.012544
50
105.6067758
51
108.2653783
0
ARC
8
DEFAULT_255_2_778
10
26.7424557
20
0.3394053
40
6.5225681
50
108.1391899
51
108.7393006
0
ARC
8
DEFAULT_255_2_778
10
24.9532781
20
1.0145481
40
0.5956957
50
248.8142784
51
257.5852563
0
ARC
8
DEFAULT_255_2_778
10
25.193759
20
2.0690103
40
1.6772217
50
257.3064156
51
262.9189603
0
ARC
8
DEFAULT_255_2_778
10
25.3179744
20
2.9657829
40
2.5824981
50
262.63675
51
265.055494
0
ARC
8
DEFAULT_255_2_778
10
25.3138141
20
2.8659628
40
2.4826947
50
264.952594
51
269.1082693
0
ARC
8
DEFAULT_255_2_778
10
25.2991163
20
2.2250683
40
1.8416551
50
269.2551677
51
269.9932151
0
ARC
8
DEFAULT_255_2_778
10
25.2845027
20
1.5904692
40
1.2071419
50
270.6832888
51
309.3821996
0
ARC
8
DEFAULT_255_2_778
10
24.8805544
20
2.1306644
40
1.8812244
50
308.4524809
51
322.5101792
0
ARC
8
DEFAULT_255_2_778
10
24.2174082
20
2.6469143
40
2.7216123
50
322.3834431
51
332.5979788
0
ARC
8
DEFAULT_255_2_778
10
23.3034739
20
3.1259917
40
3.7534916
50
332.5261814
51
340.7190635
0
ARC
8
DEFAULT_255_2_778
10
22.2330988
20
3.5044198
40
4.8887887
50
340.6749477
51
347.7562017
0
ARC
8
DEFAULT_255_2_778
10
21.1571192
20
3.7414819
40
5.9905693
50
347.7228719
51
354.1316318
0
ARC
8
DEFAULT_255_2_778
10
20.2507369
20
3.8379357
40
6.9020642
50
354.10443
51
0.0521101
0
ARC
8
DEFAULT_255_2_778
10
24.06992
20
3.9545333
40
5.3916892
50
352.3274597
51
0.1156169
0
ARC
8
DEFAULT_255_2_778
10
24.9523801
20
3.8330646
40
4.5009129
50
342.425085
51
352.3600842
0
ARC
8
DEFAULT_255_2_778
10
25.6294042
20
3.6154056
40
3.7897688
50
328.4316739
51
342.4715017
0
ARC
8
DEFAULT_255_2_778
10
25.9182254
20
3.4480993
40
3.4561121
50
298.850892
51
328.2881985
0
ARC
8
DEFAULT_255_2_778
10
25.6400819
20
3.9321735
40
4.0143279
50
287.8452778
51
298.9941725
0
ARC
8
DEFAULT_255_2_778
10
25.4099616
20
4.6418263
40
4.7603576
50
279.0089266
51
287.8642616
0
ARC
8
DEFAULT_255_2_778
10
25.2605237
20
5.565212
40
5.6957535
50
272.0629358
51
279.0391346
0
ARC
8
DEFAULT_255_2_778
10
25.2242324
20
6.2889651
40
6.4203522
50
269.9889865
51
272.1540922
0
ARC
8
DEFAULT_255_2_778
10
25.2303972
20
9.6007453
40
9.732135
50
266.7686693
51
269.9564404
0
ARC
8
DEFAULT_255_2_778
10
25.4209845
20
12.3736022
40
12.5113724
50
259.9835821
51
266.6130333
0
ARC
8
DEFAULT_255_2_778
10
25.8430074
20
14.9679458
40
15.1396175
50
257.3684375
51
260.1184792
0
ARC
8
DEFAULT_255_2_778
10
25.971021
20
15.5605383
40
15.745862
50
257.0198876
51
257.3854433
0
ARC
8
DEFAULT_255_2_778
10
17.4568444
20
0.5855165
40
4.9910762
50
355.7658589
51
356.9279456
0
ARC
8
DEFAULT_255_2_778
10
12.2359923
20
0.8712389
40
10.2197395
50
356.897015
51
357.6088237
0
ARC
8
DEFAULT_255_2_778
10
4.769686
20
1.1876833
40
17.6927479
50
357.5937288
51
358.0493613
0
ARC
8
DEFAULT_255_2_778
10
-4.5610329
20
1.5085199
40
27.0289807
50
358.0429022
51
358.3604208
0
ARC
8
DEFAULT_255_2_778
10
-15.4487142
20
1.822285
40
37.9211819
50
358.3572227
51
358.5916928
0
ARC
8
DEFAULT_255_2_778
10
-30.6281674
20
2.1929362
40
53.1051595
50
358.5944203
51
358.8540975
0
ARC
8
DEFAULT_255_2_778
10
-52.388583
20
2.6300094
40
74.8699641
50
358.8527113
51
359.0674357
0
ARC
8
DEFAULT_255_2_778
10
-78.2225985
20
3.052653
40
100.7074366
50
359.0662276
51
359.2427388
0
ARC
8
DEFAULT_255_2_778
10
-104.9367633
20
3.4092035
40
127.4239807
50
359.2411846
51
359.3713599
0
ARC
8
DEFAULT_255_2_778
10
-134.5487644
20
3.7323559
40
157.0377449
50
359.3720015
51
359.518665
0
ARC
8
DEFAULT_255_2_778
10
-168.9129069
20
4.0222466
40
191.4031101
50
359.5183074
51
359.6556334
0
ARC
8
DEFAULT_255_2_778
10
-204.4397917
20
4.2346418
40
226.9306299
50
359.6559202
51
359.8148079
0
ARC
8
DEFAULT_255_2_778
10
-233.9120614
20
4.3317841
40
256.4030598
50
359.8143875
51
0.0009255
0
ARC
8
DEFAULT_255_2_778
10
-236.7171164
20
4.3365136
40
259.2081146
50
359.99987
51
0.0192309
0
ARC
8
DEFAULT_255_2_778
10
-232.6012212
20
4.3448834
40
255.0922169
50
0.0176613
51
0.2421142
0
ARC
8
DEFAULT_255_2_778
10
-200.9348812
20
4.4751185
40
223.4256092
50
0.2430318
51
0.3774734
0
ARC
8
DEFAULT_255_2_778
10
-168.989329
20
4.6862018
40
191.4793597
50
0.3772885
51
0.5092827
0
ARC
8
DEFAULT_255_2_778
10
-137.2469798
20
4.9684651
40
159.7357554
50
0.5092437
51
0.6413377
0
ARC
8
DEFAULT_255_2_778
10
-108.7295777
20
5.2876579
40
131.2165671
50
0.6413502
51
0.7748953
0
ARC
8
DEFAULT_255_2_778
10
-84.3663642
20
5.6168517
40
106.8511295
50
0.77507
51
0.9108198
0
ARC
8
DEFAULT_255_2_778
10
-64.2755014
20
5.9359755
40
86.7577324
50
0.9110072
51
1.0491527
0
ARC
8
DEFAULT_255_2_778
10
-44.3379772
20
6.3045812
40
66.8168015
50
1.0461643
51
1.2650655
0
ARC
8
DEFAULT_255_2_778
10
-24.6553226
20
6.7414211
40
47.1293001
50
1.26241
51
1.5476929
0
ARC
8
DEFAULT_255_2_778
10
-9.7888029
20
7.1426961
40
32.2573657
50
1.5484068
51
1.8531309
0
ARC
8
DEFAULT_255_2_778
10
1.5673238
20
7.5130725
40
20.8952013
50
1.8450342
51
2.3102241
0
ARC
8
DEFAULT_255_2_778
10
9.8990988
20
7.8494232
40
12.5566399
50
2.3092078
51
2.8621493
0
ARC
8
DEFAULT_255_2_778
10
15.3468325
20
8.123597
40
7.1020119
50
2.8475533
51
3.667719
0
ARC
8
DEFAULT_255_2_778
10
19.5788738
20
8.2392705
40
2.8754352
50
6.7634736
51
12.5391637
0
ARC
8
DEFAULT_255_2_778
10
21.0301079
20
8.5688211
40
1.3872843
50
12.2658673
51
23.4109989
0
ARC
8
DEFAULT_255_2_778
10
21.6802194
20
8.8613429
40
0.6745412
50
22.5500132
51
52.0609868
0
ARC
8
DEFAULT_255_2_778
10
21.6854518
20
8.8300987
40
0.6963566
50
53.9814409
51
78.8237233
0
ARC
8
DEFAULT_255_2_778
10
21.5850575
20
8.4312991
40
1.1072551
50
77.7270683
51
83.0051957
0
ARC
8
DEFAULT_255_2_778
10
73.4611501
20
9.0184325
40
48.7871604
50
178.3225009
51
178.4036058
0
ARC
8
DEFAULT_255_2_778
10
87.3646018
20
8.6311759
40
62.6960042
50
178.4038125
51
178.4984672
0
ARC
8
DEFAULT_255_2_778
10
103.0823021
20
8.218663
40
78.4191168
50
178.498095
51
178.5917152
0
ARC
8
DEFAULT_255_2_778
10
115.3713236
20
7.9151555
40
90.7118855
50
178.590836
51
178.6581214
0
ARC
8
DEFAULT_255_2_778
10
127.3127135
20
7.6359406
40
102.6565392
50
178.6584036
51
178.7532882
0
ARC
8
DEFAULT_255_2_778
10
139.1847102
20
7.3772475
40
114.5313541
50
178.7531247
51
178.8498008
0
ARC
8
DEFAULT_255_2_778
10
140.087634
20
7.3590638
40
115.4344609
50
178.8497734
51
178.8530121
0
ARC
8
DEFAULT_255_2_778
10
149.5074149
20
7.1705806
40
124.8561274
50
178.8530643
51
178.9745433
0
ARC
8
DEFAULT_255_2_778
10
157.07771
20
7.0341867
40
132.4276512
50
178.9741586
51
179.0830553
0
ARC
8
DEFAULT_255_2_778
10
162.1193902
20
6.9535927
40
137.4699754
50
179.0830964
51
179.2316121
0
ARC
8
DEFAULT_255_2_778
10
164.4249271
20
6.9223732
40
139.7757237
50
179.2314898
51
179.4019954
0
ARC
8
DEFAULT_255_2_778
10
163.0893585
20
6.9355639
40
138.4400902
50
179.4016853
51
179.6087457
0
ARC
8
DEFAULT_255_2_778
10
158.9219524
20
6.9637397
40
134.2725888
50
179.6086251
51
179.7960175
0
ARC
8
DEFAULT_255_2_778
10
153.0616931
20
6.9839247
40
128.4122949
50
179.7957148
51
179.9991128
0
ARC
8
DEFAULT_255_2_778
10
27.3211093
20
1.6563111
40
5.9617697
50
113.9430392
51
116.6244493
0
ARC
8
DEFAULT_255_2_778
10
26.8963059
20
2.5996846
40
4.9271799
50
112.8222012
51
113.8802308
0
ARC
8
DEFAULT_255_2_778
10
26.4341328
20
3.7775552
40
3.662387
50
97.7512387
51
113.3051963
0
ARC
8
DEFAULT_255_2_778
10
26.4538898
20
3.5063003
40
3.9338647
50
90.9987767
51
97.5035163
0
ARC
8
DEFAULT_255_2_778
10
26.4727204
20
2.9230873
40
4.5173258
50
89.995208
51
91.1086389
0
ARC
8
DEFAULT_255_2_778
10
26.4809754
20
4.5943974
40
2.8460266
50
72.9932196
51
90.1585823
0
ARC
8
DEFAULT_255_2_778
10
26.4655597
20
4.6147822
40
2.8311179
50
36.173573
51
72.5742133
0
ARC
8
DEFAULT_255_2_778
10
26.0375221
20
4.2731148
40
3.3783866
50
21.908543
51
36.566409
0
ARC
8
DEFAULT_255_2_778
10
25.5659941
20
4.0797931
40
3.887996
50
10.5459081
51
21.9589525
0
ARC
8
DEFAULT_255_2_778
10
25.0261124
20
3.9776933
40
4.4374452
50
0.7020976
51
10.5661068
0
ARC
8
DEFAULT_255_2_778
10
24.698946
20
3.9648752
40
4.7647522
50
359.999253
51
0.8080143
0
ARC
8
DEFAULT_255_2_778
10
19.6675866
20
3.1478993
40
2.597436
50
56.7063346
51
59.8629826
0
ARC
8
DEFAULT_255_2_778
10
19.7026014
20
3.2081353
40
2.5277625
50
59.8638679
51
63.0147526
0
ARC
8
DEFAULT_255_2_778
10
19.7419
20
3.2871868
40
2.4394859
50
62.9947749
51
69.9492582
0
ARC
8
DEFAULT_255_2_778
10
19.7746034
20
3.3766618
40
2.3442216
50
69.9503453
51
77.2906109
0
ARC
8
DEFAULT_255_2_778
10
19.7938311
20
3.4621777
40
2.2565707
50
77.2891541
51
84.4699348
0
ARC
8
DEFAULT_255_2_778
10
19.8033173
20
3.5579867
40
2.1602934
50
84.4754818
51
89.9776444
0
ARC
8
DEFAULT_255_2_778
10
19.8012172
20
3.7228351
40
1.995447
50
89.9154964
51
98.7536204
0
ARC
8
DEFAULT_255_2_778
10
19.7539827
20
4.0215275
40
1.6930458
50
98.7120768
51
107.4824211
0
ARC
8
DEFAULT_255_2_778
10
19.6345111
20
4.3950648
40
1.300873
50
107.4058891
51
117.092408
0
ARC
8
DEFAULT_255_2_778
10
19.443405
20
4.7642941
40
0.8851253
50
116.9642623
51
128.7618679
0
ARC
8
DEFAULT_255_2_778
10
19.2163876
20
5.042458
40
0.5261012
50
128.4499996
51
145.7168411
0
ARC
8
DEFAULT_255_2_778
10
19.0933899
20
5.1331274
40
0.3734426
50
146.5813291
51
150.1479186
0
ARC
8
DEFAULT_255_2_778
10
32.9463178
20
4.1575606
40
14.2243166
50
175.3164359
51
176.4712779
0
ARC
8
DEFAULT_255_2_778
10
37.4805202
20
3.876532
40
18.7672198
50
176.4669408
51
177.4797989
0
ARC
8
DEFAULT_255_2_778
10
42.4413965
20
3.6571733
40
23.7329434
50
177.4773635
51
178.4257978
0
ARC
8
DEFAULT_255_2_778
10
48.0972363
20
3.5061313
40
29.3907983
50
178.4343553
51
179.7602788
0
ARC
8
DEFAULT_255_2_778
10
50.5797143
20
3.4860522
40
31.87334
50
179.7428557
51
180.0003239
0
ARC
8
DEFAULT_255_2_778
10
50.623434
20
3.4847923
40
31.9170599
50
179.9980617
51
181.0382419
0
ARC
8
DEFAULT_255_2_778
10
47.6142033
20
3.4285295
40
28.9073037
50
181.0348188
51
181.8613882
0
ARC
8
DEFAULT_255_2_778
10
43.2386156
20
3.2868872
40
24.5294241
50
181.862693
51
182.5549154
0
ARC
8
DEFAULT_255_2_778
10
38.2647296
20
3.0618292
40
19.5504502
50
182.5457901
51
183.4570763
0
ARC
8
DEFAULT_255_2_778
10
33.2165393
20
2.7568234
40
14.4930543
50
183.4569138
51
184.3936463
0
ARC
8
DEFAULT_255_2_778
10
28.8948602
20
2.4226887
40
10.158478
50
184.3819398
51
185.5845957
0
ARC
8
DEFAULT_255_2_778
10
21.3408343
20
1.6099474
40
2.5622764
50
183.9349721
51
190.0571216
0
ARC
8
DEFAULT_255_2_778
10
20.0453191
20
1.3741257
40
1.2455007
50
189.7828349
51
201.2693062
0
ARC
8
DEFAULT_255_2_778
10
19.4527984
20
1.1335956
40
0.6061564
50
200.3988617
51
230.342176
0
ARC
8
DEFAULT_255_2_778
10
19.4552877
20
1.1731495
40
0.6386227
50
232.4354859
51
258.5326532
0
ARC
8
DEFAULT_255_2_778
10
19.5761335
20
1.6552113
40
1.1353118
50
257.3922705
51
264.7220041
0
ARC
8
DEFAULT_255_2_778
10
15.7360352
20
1.3896198
40
0.8679872
50
274.8286008
51
291.0298873
0
ARC
8
DEFAULT_255_2_778
10
15.8477769
20
1.0778983
40
0.5369826
50
291.8369721
51
342.1983923
0
ARC
8
DEFAULT_255_2_778
10
15.2106104
20
1.3286269
40
1.2210857
50
340.1367525
51
351.6518878
0
ARC
8
DEFAULT_255_2_778
10
13.9281777
20
1.5300848
40
2.5192133
50
351.3532483
51
357.374092
0
ARC
8
DEFAULT_255_2_778
10
12.7666
20
1.6045645
40
3.6830445
50
357.0445366
51
357.3474028
0
ARC
8
DEFAULT_255_2_778
10
7.3951529
20
2.4470824
40
9.1070565
50
353.6138302
51
354.9373845
0
ARC
8
DEFAULT_255_2_778
10
3.6328126
20
2.7849448
40
12.8845347
50
354.9172003
51
355.8261742
0
ARC
8
DEFAULT_255_2_778
10
-0.677226
20
3.098185
40
17.2059408
50
355.8304578
51
356.8063661
0
ARC
8
DEFAULT_255_2_778
10
-5.5517912
20
3.3720174
40
22.0881908
50
356.801587
51
357.6929657
0
ARC
8
DEFAULT_255_2_778
10
-10.0957522
20
3.5551308
40
26.6358399
50
357.6928576
51
358.7283353
0
ARC
8
DEFAULT_255_2_778
10
-12.4675891
20
3.6118998
40
29.0083529
50
358.7202036
51
359.9980936
0
ARC
8
DEFAULT_255_2_778
10
-11.9076244
20
3.6110865
40
28.4483882
50
359.999694
51
0.0747344
0
ARC
8
DEFAULT_255_2_778
10
-9.3005007
20
3.6267441
40
25.841249
50
0.0475581
51
1.6856446
0
ARC
8
DEFAULT_255_2_778
10
-3.3707903
20
3.7966371
40
19.9091077
50
1.6989051
51
2.9107339
0
ARC
8
DEFAULT_255_2_778
10
1.3527161
20
4.0367347
40
15.1795031
50
2.9110055
51
4.1470683
0
ARC
8
DEFAULT_255_2_778
10
5.1363577
20
4.3108391
40
11.3859458
50
4.1482467
51
5.4304147
0
ARC
8
DEFAULT_255_2_778
10
8.2395587
20
4.607627
40
8.2685854
50
5.418088
51
7.0460727
0
ARC
8
DEFAULT_255_2_778
10
13.3794797
20
5.4936449
40
3.0689003
50
2.3954413
51
7.4595938
0
ARC
8
DEFAULT_255_2_778
10
14.9497028
20
5.7048425
40
1.4845578
50
7.2452821
51
16.5060068
0
ARC
8
DEFAULT_255_2_778
10
15.6914547
20
5.9318193
40
0.7089192
50
15.9499789
51
35.8920895
0
ARC
8
DEFAULT_255_2_778
10
15.8324083
20
6.0118957
40
0.5480719
50
37.7494623
51
77.0147418
0
ARC
8
DEFAULT_255_2_778
10
15.6755177
20
5.4959108
40
1.0867433
50
75.0669804
51
82.9394494
0
ARC
8
DEFAULT_255_2_778
10
22.2904835
20
4.2578022
40
3.8986091
50
150.8729647
51
156.1896295
0
ARC
8
DEFAULT_255_2_778
10
21.8662525
20
4.4947771
40
3.4126783
50
144.7116844
51
150.8815998
0
ARC
8
DEFAULT_255_2_778
10
21.5369621
20
4.7281655
40
3.0090668
50
137.6619269
51
144.7169473
0
ARC
8
DEFAULT_255_2_778
10
21.3010267
20
4.9433096
40
2.6897667
50
129.5883754
51
137.6646449
0
ARC
8
DEFAULT_255_2_778
10
21.1488691
20
5.1272324
40
2.4510629
50
120.3451129
51
129.5871819
0
ARC
8
DEFAULT_255_2_778
10
21.0651437
20
5.269762
40
2.2857615
50
109.9633436
51
120.3388999
0
ARC
8
DEFAULT_255_2_778
10
21.0394516
20
5.3352334
40
2.2154532
50
108.0072668
51
109.9169189
0
ARC
8
DEFAULT_255_2_778
10
21.02767
20
5.3732792
40
2.175629
50
101.230634
51
108.0219316
0
ARC
8
DEFAULT_255_2_778
10
21.0158309
20
5.433261
40
2.1144901
50
94.2172313
51
101.2325192
0
ARC
8
DEFAULT_255_2_778
10
21.0113505
20
5.4888432
40
2.0587289
50
90.0079955
51
94.2066306
0
ARC
8
DEFAULT_255_2_778
10
21.012725
20
5.5738073
40
1.9737655
50
80.9155599
51
90.0482401
0
ARC
8
DEFAULT_255_2_778
10
21.0384941
20
5.7306699
40
1.814802
50
71.5616911
51
80.9369933
0
ARC
8
DEFAULT_255_2_778
10
21.1055064
20
5.9290409
40
1.6054199
50
61.5598283
51
71.5913378
0
ARC
8
DEFAULT_255_2_778
10
21.1602966
20
6.0370324
40
1.4843715
50
60.7320274
51
61.4342982
0
ARC
8
DEFAULT_255_2_778
10
19.569767
20
3.6805468
40
9.3679761
50
179.9280359
51
184.5736294
0
ARC
8
DEFAULT_255_2_778
10
17.5891574
20
3.5187539
40
7.3807727
50
184.5476733
51
189.6582982
0
ARC
8
DEFAULT_255_2_778
10
15.6896536
20
3.1930987
40
5.4535575
50
189.6335468
51
195.4206413
0
ARC
8
DEFAULT_255_2_778
10
14.1170627
20
2.7560802
40
3.821377
50
195.3737348
51
202.507348
0
ARC
8
DEFAULT_255_2_778
10
12.9257074
20
2.2576292
40
2.5299626
50
202.4069966
51
212.1522959
0
ARC
8
DEFAULT_255_2_778
10
12.1352401
20
1.7548624
40
1.5931737
50
211.9726043
51
226.5674898
0
ARC
8
DEFAULT_255_2_778
10
11.7139815
20
1.286079
40
0.9632745
50
225.5933453
51
269.7571296
0
ARC
8
DEFAULT_255_2_778
10
11.7212818
20
1.3240087
40
1.0012603
50
269.3485756
51
293.8011379
0
ARC
8
DEFAULT_255_2_778
10
11.6732685
20
1.3744818
40
1.0670773
50
295.0663181
51
324.066521
0
ARC
8
DEFAULT_255_2_778
10
11.0973557
20
1.8172931
40
1.7933732
50
323.4092627
51
335.9978085
0
ARC
8
DEFAULT_255_2_778
10
10.0666211
20
2.2843499
40
2.9249749
50
335.8529146
51
344.2660911
0
ARC
8
DEFAULT_255_2_778
10
8.4166037
20
2.7563031
40
4.6411531
50
344.1817202
51
350.166555
0
ARC
8
DEFAULT_255_2_778
10
5.9805523
20
3.1846897
40
7.1145796
50
350.1178117
51
354.5712884
0
ARC
8
DEFAULT_255_2_778
10
2.4837736
20
3.5214699
40
10.6275367
50
354.5473012
51
358.0354817
0
ARC
8
DEFAULT_255_2_778
10
-1.7085973
20
3.6804215
40
14.8229001
50
357.9769557
51
0.0459653
0
ARC
8
DEFAULT_255_2_778
10
3.2320668
20
3.7062207
40
9.8822412
50
359.9193661
51
4.2540544
0
ARC
8
DEFAULT_255_2_778
10
5.4958218
20
3.8761138
40
7.6121206
50
4.2427497
51
8.8751257
0
ARC
8
DEFAULT_255_2_778
10
7.4873192
20
4.1900759
40
5.5960297
50
8.8449025
51
14.3566575
0
ARC
8
DEFAULT_255_2_778
10
9.133244
20
4.6153594
40
3.8960553
50
14.2995465
51
21.3831554
0
ARC
8
DEFAULT_255_2_778
10
10.3482748
20
5.094387
40
2.5900104
50
21.3157079
51
30.5518365
0
ARC
8
DEFAULT_255_2_778
10
11.15345
20
5.5762019
40
1.6517126
50
30.3562071
51
44.616033
0
ARC
8
DEFAULT_255_2_778
10
11.6054026
20
6.0477196
40
0.9989938
50
43.5715478
51
89.9543657
0
ARC
8
DEFAULT_255_2_778
10
11.5946675
20
6.0105935
40
1.0361838
50
89.3623912
51
112.1036914
0
ARC
8
DEFAULT_255_2_778
10
11.6237224
20
6.0009707
40
1.0562893
50
113.3675699
51
144.2893316
0
ARC
8
DEFAULT_255_2_778
10
12.1895117
20
5.5664055
40
1.7694929
50
143.5572349
51
156.1161014
0
ARC
8
DEFAULT_255_2_778
10
13.1987752
20
5.1119634
40
2.8763356
50
155.9788168
51
164.4066248
0
ARC
8
DEFAULT_255_2_778
10
14.8321092
20
4.6490177
40
4.5740013
50
164.3207882
51
170.2701073
0
ARC
8
DEFAULT_255_2_778
10
17.1651528
20
4.2402358
40
6.9425761
50
170.1990598
51
174.3054617
0
ARC
8
DEFAULT_255_2_778
10
20.4517645
20
3.9102527
40
10.2457112
50
174.2929302
51
177.6292364
0
ARC
8
DEFAULT_255_2_778
10
25.1079594
20
3.7108047
40
14.9061725
50
177.6035984
51
180.0710771
0
ARC
8
DEFAULT_255_2_778
10
10.9680261
20
3.7112786
40
4.4976867
50
347.790991
51
0.1456634
0
ARC
8
DEFAULT_255_2_778
10
11.6005867
20
3.5679299
40
3.8491229
50
330.0841464
51
347.88527
0
ARC
8
DEFAULT_255_2_778
10
11.977526
20
3.3554797
40
3.416455
50
301.7424545
51
330.0196303
0
ARC
8
DEFAULT_255_2_778
10
11.8555265
20
3.5619245
40
3.6562076
50
288.9553845
51
301.6662945
0
ARC
8
DEFAULT_255_2_778
10
11.6888653
20
4.0448465
40
4.1670786
50
279.1567656
51
288.9657657
0
ARC
8
DEFAULT_255_2_778
10
11.5758864
20
4.7379197
40
4.8692989
50
271.1381953
51
279.1714284
0
ARC
8
DEFAULT_255_2_778
10
11.5558701
20
5.2411034
40
5.3727903
50
269.9971007
51
271.2450181
0
ARC
8
DEFAULT_255_2_778
10
11.5460762
20
4.9149608
40
5.0466567
50
263.1843207
51
270.1081055
0
ARC
8
DEFAULT_255_2_778
10
11.4419439
20
4.0607222
40
4.1860975
50
254.4306154
51
263.2119561
0
ARC
8
DEFAULT_255_2_778
10
11.2644018
20
3.4277053
40
3.5286555
50
243.2021053
51
254.4488413
0
ARC
8
DEFAULT_255_2_778
10
11.0789637
20
3.061398
40
3.1180849
50
225.1806465
51
243.2089908
0
ARC
8
DEFAULT_255_2_778
10
11.2263619
20
3.1760871
40
3.3034198
50
200.8769757
51
224.7693556
0
ARC
8
DEFAULT_255_2_778
10
12.0182615
20
3.4978744
40
4.1580433
50
189.0530881
51
201.1313171
0
ARC
8
DEFAULT_255_2_778
10
12.9373452
20
3.6496528
40
5.089563
50
179.8563507
51
189.1124184
0
ARC
8
DEFAULT_255_2_778
10
12.2996187
20
3.6739741
40
4.4518355
50
166.8098765
51
180.1487919
0
ARC
8
DEFAULT_255_2_778
10
11.6852372
20
3.826359
40
3.8188995
50
146.8471559
51
166.932502
0
ARC
8
DEFAULT_255_2_778
10
11.3644211
20
4.0247173
40
3.4418433
50
121.8688339
51
146.6910472
0
ARC
8
DEFAULT_255_2_778
10
11.4753568
20
3.8375547
40
3.6593672
50
108.8479737
51
121.7967442
0
ARC
8
DEFAULT_255_2_778
10
11.6336232
20
3.3762675
40
4.1470491
50
98.9855374
51
108.8584369
0
ARC
8
DEFAULT_255_2_778
10
11.7399046
20
2.7124649
40
4.8193051
50
90.984933
51
99.0010046
0
ARC
8
DEFAULT_255_2_778
10
11.7575858
20
2.2421951
40
5.2898181
50
89.9976993
51
91.0888593
0
ARC
8
DEFAULT_255_2_778
10
11.7672908
20
2.5146997
40
5.0173224
50
83.1439181
51
90.1084009
0
ARC
8
DEFAULT_255_2_778
10
11.8708329
20
3.359338
40
4.166364
50
74.3460104
51
83.1710405
0
ARC
8
DEFAULT_255_2_778
10
12.046422
20
3.9820886
40
3.5193335
50
63.0780684
51
74.3629617
0
ARC
8
DEFAULT_255_2_778
10
12.226975
20
4.3372296
40
3.1209312
50
44.899126
51
63.0814857
0
ARC
8
DEFAULT_255_2_778
10
12.0679949
20
4.2119521
40
3.3220563
50
20.9283777
51
44.4942042
0
ARC
8
DEFAULT_255_2_778
10
11.272517
20
3.8884232
40
4.1806584
50
9.0730615
51
21.1756128
0
ARC
8
DEFAULT_255_2_778
10
10.3507559
20
3.7357919
40
5.1149582
50
359.8568569
51
9.1331644
0
ARC
8
DEFAULT_255_2_778
10
2.5818934
20
5.515919
40
6.1595943
50
16.1169278
51
21.3076268
0
ARC
8
DEFAULT_255_2_778
10
4.2009857
20
6.1521971
40
4.4199731
50
21.2499951
51
28.4865877
0
ARC
8
DEFAULT_255_2_778
10
5.329623
20
6.770119
40
3.1332652
50
28.39877
51
38.9923094
0
ARC
8
DEFAULT_255_2_778
10
6.0243916
20
7.3465439
40
2.2306005
50
38.7134748
51
60.6732339
0
ARC
8
DEFAULT_255_2_778
10
6.0865688
20
7.4128848
40
2.1424182
50
61.253992
51
79.9275501
0
ARC
8
DEFAULT_255_2_778
10
5.9841392
20
6.8622332
40
2.7025009
50
79.8311789
51
90.2256004
0
ARC
8
DEFAULT_255_2_778
10
20.8289284
20
7.9634146
40
16.6603625
50
174.4845439
51
175.4717193
0
ARC
8
DEFAULT_255_2_778
10
25.1412215
20
7.6187839
40
20.9864039
50
175.4632711
51
176.205342
0
ARC
8
DEFAULT_255_2_778
10
29.9158867
20
7.303937
40
25.7714382
50
176.2094214
51
177.0626335
0
ARC
8
DEFAULT_255_2_778
10
35.4407989
20
7.0195532
40
31.3036646
50
177.0610043
51
177.8796978
0
ARC
8
DEFAULT_255_2_778
10
40.9688092
20
6.814352
40
36.8354822
50
177.8788634
51
178.715638
0
ARC
8
DEFAULT_255_2_778
10
45.4014608
20
6.7115476
40
41.2693245
50
178.7108856
51
179.3672736
0
ARC
8
DEFAULT_255_2_778
10
48.3853471
20
6.6775909
40
44.253404
50
179.365974
51
180.0027349
0
ARC
8
DEFAULT_255_2_778
10
50.2348674
20
6.6766499
40
46.1029241
50
180.0014558
51
180.5882742
0
ARC
8
DEFAULT_255_2_778
10
51.027867
20
6.6840542
40
46.8959579
50
180.5873726
51
181.0789032
0
ARC
8
DEFAULT_255_2_778
10
51.0752619
20
6.684634
40
46.9433554
50
181.0785214
51
181.5775158
0
ARC
8
DEFAULT_255_2_778
10
5.3122632
20
6.7702267
40
1.3171584
50
269.5273735
51
284.1507095
0
ARC
8
DEFAULT_255_2_778
10
5.357576
20
6.5233354
40
1.0668074
50
285.0326537
51
331.1968414
0
ARC
8
DEFAULT_255_2_778
10
4.461263
20
7.088088
40
2.1252627
50
329.4971788
51
341.0373701
0
ARC
8
DEFAULT_255_2_778
10
2.7551575
20
7.6883285
40
3.9338503
50
340.844174
51
347.4287645
0
ARC
8
DEFAULT_255_2_778
10
2.6120071
20
2.5171396
40
4.0766446
50
12.3248051
51
18.7341749
0
ARC
8
DEFAULT_255_2_778
10
4.3552465
20
3.1161303
40
2.2333936
50
18.5452196
51
29.8135314
0
ARC
8
DEFAULT_255_2_778
10
5.2870298
20
3.6868797
40
1.1416162
50
28.2099761
51
73.0393961
0
ARC
8
DEFAULT_255_2_778
10
5.23565
20
3.4539422
40
1.3795385
50
73.8204858
51
87.2682729
0
ARC
8
DEFAULT_255_2_778
10
108.3267693
20
4.8115085
40
104.1770771
50
179.980473
51
180.3490208
0
ARC
8
DEFAULT_255_2_778
10
61.1436893
20
4.5167074
40
56.9930772
50
180.3416029
51
180.9774434
0
ARC
8
DEFAULT_255_2_778
10
38.5490243
20
4.1331037
40
34.3951562
50
180.9805909
51
181.7703352
0
ARC
8
DEFAULT_255_2_778
10
27.1308547
20
3.7834714
40
22.9716354
50
181.778514
51
182.5947411
0
ARC
8
DEFAULT_255_2_778
10
19.129122
20
3.4119434
40
14.9612897
50
182.5606644
51
184.0497505
0
ARC
8
DEFAULT_255_2_778
10
12.974348
20
2.972211
40
8.7908293
50
184.0238877
51
186.1570742
0
ARC
8
DEFAULT_255_2_778
10
10.1404374
20
2.6759864
40
5.9415019
50
186.2480475
51
187.1932504
0
ARC
8
DEFAULT_255_2_778
10
8.5439219
20
2.2738537
40
4.3117956
50
184.5472001
51
189.2353545
0
ARC
8
DEFAULT_255_2_778
10
6.6865029
20
1.9668481
40
2.4291871
50
189.1191121
51
196.7177749
0
ARC
8
DEFAULT_255_2_778
10
5.666453
20
1.6546153
40
1.3624468
50
196.4818297
51
209.870663
0
ARC
8
DEFAULT_255_2_778
10
5.2439409
20
1.41331
40
0.8758849
50
209.9479272
51
257.1706316
0
ARC
8
DEFAULT_255_2_778
10
5.426603
20
2.0083921
40
1.4973767
50
255.4115429
51
262.8642615
0
ARC
8
DEFAULT_255_2_778
10
0.5271353
20
1.8258447
40
1.3139341
50
277.3179577
51
291.5482085
0
ARC
8
DEFAULT_255_2_778
10
0.6752453
20
1.4361558
40
0.8970986
50
291.8910536
51
336.2412386
0
ARC
8
DEFAULT_255_2_778
10
0.0131645
20
1.7675269
40
1.636981
50
334.9620645
51
345.9691777
0
ARC
8
DEFAULT_255_2_778
10
-1.1573431
20
2.0684758
40
2.8455418
50
345.8043132
51
352.5259615
0
ARC
8
DEFAULT_255_2_778
10
-2.7704506
20
2.2961918
40
4.4745933
50
352.3216849
51
355.3316417
0
ARC
8
DEFAULT_255_2_778
10
-14.899639
20
3.3347087
40
16.6481348
50
355.16679
51
355.9675997
0
ARC
8
DEFAULT_255_2_778
10
-21.2238666
20
3.7811086
40
22.9880977
50
355.9661755
51
356.6899688
0
ARC
8
DEFAULT_255_2_778
10
-28.3813605
20
4.1982638
40
30.1577371
50
356.6839003
51
357.2476573
0
ARC
8
DEFAULT_255_2_778
10
-35.0686853
20
4.5225396
40
36.852919
50
357.2433301
51
357.6724385
0
ARC
8
DEFAULT_255_2_778
10
-42.0187076
20
4.8036643
40
43.8086246
50
357.6742233
51
358.1741898
0
ARC
8
DEFAULT_255_2_778
10
-49.2780006
20
5.036028
40
51.0716354
50
358.1731157
51
358.6615843
0
ARC
8
DEFAULT_255_2_778
10
-55.9401076
20
5.1904057
40
57.7355308
50
358.6628502
51
359.3195073
0
ARC
8
DEFAULT_255_2_778
10
-59.0333601
20
5.2314275
40
60.8290525
50
359.3154742
51
359.9993412
0
ARC
8
DEFAULT_255_2_778
10
-58.1270424
20
5.2308978
40
59.9227346
50
359.9998378
51
0.1247344
0
ARC
8
DEFAULT_255_2_778
10
-54.4937096
20
5.2469462
40
56.2893759
50
0.1164503
51
0.9473797
0
ARC
8
DEFAULT_255_2_778
10
-45.7544964
20
5.391037
40
47.548975
50
0.947891
51
1.6659492
0
ARC
8
DEFAULT_255_2_778
10
-37.5099819
20
5.6290775
40
39.301025
50
1.6684952
51
2.2953999
0
ARC
8
DEFAULT_255_2_778
10
-31.0150759
20
5.887787
40
32.8009688
50
2.2982459
51
2.8393041
0
ARC
8
DEFAULT_255_2_778
10
-25.1760155
20
6.1796126
40
26.954621
50
2.834564
51
3.5415549
0
ARC
8
DEFAULT_255_2_778
10
-19.8366716
20
6.5094515
40
21.6050989
50
3.5431866
51
4.2389256
0
ARC
8
DEFAULT_255_2_778
10
-15.3835195
20
6.8404893
40
17.1396595
50
4.2356689
51
5.0617604
0
ARC
8
DEFAULT_255_2_778
10
-2.6363538
20
8.0181928
40
4.3385677
50
4.4221145
51
8.7633988
0
ARC
8
DEFAULT_255_2_778
10
-0.860023
20
8.2968772
40
2.5405196
50
8.6551692
51
15.5913077
0
ARC
8
DEFAULT_255_2_778
10
0.1913025
20
8.5959545
40
1.4475057
50
15.3734592
51
27.3755691
0
ARC
8
DEFAULT_255_2_778
10
0.7228263
20
8.8827914
40
0.8436757
50
26.6754769
51
74.1309845
0
ARC
8
DEFAULT_255_2_778
10
0.5393908
20
8.3217359
40
1.4336924
50
73.2105742
51
83.789163
0
LINE
8
DEFAULT_255_2_778
10
42.7904983
20
5.2687131
11
42.4015983
21
5.1629131
0
LINE
8
DEFAULT_255_2_778
10
37.3598983
20
0.3207131
11
37.2842983
21
2.4475131
0
LINE
8
DEFAULT_255_2_778
10
37.2842983
20
2.4475131
11
37.6580983
21
2.5231131
0
LINE
8
DEFAULT_255_2_778
10
42.7052983
20
7.1324131
11
42.7904983
21
5.2687131
0
LINE
8
DEFAULT_255_2_778
10
32.3484983
20
4.5411131
11
34.6518983
21
4.6020131
0
LINE
8
DEFAULT_255_2_778
10
36.9606983
20
4.0262131
11
32.3028983
21
4.0262131
0
LINE
8
DEFAULT_255_2_778
10
36.6367983
20
1.4751131
11
36.8537983
21
1.2327131
0
LINE
8
DEFAULT_255_2_778
10
24.6469983
20
6.5162131
11
24.7379983
21
0.4591131
0
LINE
8
DEFAULT_255_2_778
10
21.7198983
20
9.5303131
11
21.4065983
21
9.5608131
0
LINE
8
DEFAULT_255_2_778
10
21.4065983
20
9.5608131
11
21.4065983
21
9.8386131
0
LINE
8
DEFAULT_255_2_778
10
21.4065983
20
9.8386131
11
24.6948983
21
10.4466131
0
LINE
8
DEFAULT_255_2_778
10
19.4716983
20
0.5247131
11
20.0929983
21
0.4639131
0
LINE
8
DEFAULT_255_2_778
10
20.0929983
20
0.4639131
11
20.0929983
21
0.0670131
0
LINE
8
DEFAULT_255_2_778
10
20.0929983
20
0.0670131
11
15.4502983
21
0.0670131
0
LINE
8
DEFAULT_255_2_778
10
15.4502983
20
0.0670131
11
15.4502983
21
0.4639131
0
LINE
8
DEFAULT_255_2_778
10
15.4502983
20
0.4639131
11
15.8090983
21
0.5247131
0
LINE
8
DEFAULT_255_2_778
10
15.8090983
20
6.5744131
11
15.4502983
21
6.6199131
0
LINE
8
DEFAULT_255_2_778
10
15.4502983
20
6.6199131
11
15.4502983
21
6.8924131
0
LINE
8
DEFAULT_255_2_778
10
15.4502983
20
6.8924131
11
18.7691983
21
7.5290131
0
LINE
8
DEFAULT_255_2_778
10
18.7691983
20
7.5290131
11
18.7236983
21
5.8317131
0
LINE
8
DEFAULT_255_2_778
10
21.8859983
20
7.3319131
11
21.0933983
21
5.3190131
0
LINE
8
DEFAULT_255_2_778
10
9.0145983
20
7.3774131
11
8.4993983
21
7.2258131
0
LINE
8
DEFAULT_255_2_778
10
5.9734983
20
9.5647131
11
4.2456983
21
9.5647131
0
LINE
8
DEFAULT_255_2_778
10
4.1496983
20
5.3923131
11
5.3013983
21
5.4531131
0
LINE
8
DEFAULT_255_2_778
10
6.5946983
20
6.8321131
11
7.0291983
21
6.8321131
0
LINE
8
DEFAULT_255_2_778
10
7.0291983
20
6.8321131
11
7.0291983
21
3.3873131
0
LINE
8
DEFAULT_255_2_778
10
7.0291983
20
3.3873131
11
6.5946983
21
3.3873131
0
LINE
8
DEFAULT_255_2_778
10
5.3013983
20
4.8319131
11
4.1496983
21
4.8470131
0
LINE
8
DEFAULT_255_2_778
10
5.2405983
20
0.5226131
11
5.8670983
21
0.4618131
0
LINE
8
DEFAULT_255_2_778
10
5.8670983
20
0.4618131
11
5.8670983
21
0.0649131
0
LINE
8
DEFAULT_255_2_778
10
5.8670983
20
0.0649131
11
0.2245983
21
0.0649131
0
LINE
8
DEFAULT_255_2_778
10
0.2245983
20
0.0649131
11
0.2245983
21
0.4618131
0
LINE
8
DEFAULT_255_2_778
10
0.2245983
20
0.4618131
11
0.6944983
21
0.5226131
0
LINE
8
DEFAULT_255_2_778
10
0.6944983
20
9.7470131
11
0.2245983
21
9.8227131
0
LINE
8
DEFAULT_255_2_778
10
0.2245983
20
9.8227131
11
0.2245983
21
10.2349131
0
LINE
8
DEFAULT_255_2_778
10
0.2245983
20
10.2349131
11
8.9997983
21
10.2349131
0
LINE
8
DEFAULT_255_2_778
10
8.9997983
20
10.2349131
11
9.0145983
21
7.3774131
0
ENDSEC
0
EOF