0
SECTION
2
HEADER
9
$MEASUREMENT
70
1
0
ENDSEC
0
SECTION
2
TABLES
0
TABLE
2
LTYPE
0
LTYPE
72
65
70
64
2
CONTINUOUS
3
______
73
0
40
0
0
ENDTAB
0
TABLE
2
LAYER
0
LAYER
2
DEFAULT_255_2_778
70
0
62
255
6
CONTINUOUS
0
ENDTAB
0
ENDSEC
0
SECTION
2
ENTITIES
0
ARC
8
DEFAULT_255_2_778
10
13.2500707
20
4.2944968
40
0.6934969
50
358.9244722
51
21.3874106
0
ARC
8
DEFAULT_255_2_778
10
13.4289282
20
4.356943
40
0.5042335
50
22.1917538
51
42.3893347
0
ARC
8
DEFAULT_255_2_778
10
13.4448208
20
4.3659769
40
0.486422
50
42.8654522
51
90.9905764
0
ARC
8
DEFAULT_255_2_778
10
13.4216817
20
4.1452009
40
0.7072787
50
88.8066598
51
90.0029378
0
ARC
8
DEFAULT_255_2_778
10
13.4064935
20
4.3365786
40
0.5161234
50
88.3177191
51
122.8183889
0
ARC
8
DEFAULT_255_2_778
10
13.3893594
20
4.3813596
40
0.4693073
50
124.0235844
51
137.754404
0
ARC
8
DEFAULT_255_2_778
10
13.4565652
20
4.3301144
40
0.5535578
50
138.5046108
51
175.331391
0
ARC
8
DEFAULT_255_2_778
10
13.7492617
20
4.2831396
40
0.849418
50
173.7800766
51
180.1119776
0
ARC
8
DEFAULT_255_2_778
10
13.5892839
20
4.2682105
40
0.6895662
50
178.8974098
51
201.9978584
0
ARC
8
DEFAULT_255_2_778
10
13.4135854
20
4.2052067
40
0.5031138
50
202.8400195
51
222.3809235
0
ARC
8
DEFAULT_255_2_778
10
13.39847
20
4.1969822
40
0.486422
50
222.8654522
51
270.9905764
0
ARC
8
DEFAULT_255_2_778
10
13.4216091
20
4.4177583
40
0.7072787
50
268.8066598
51
270.0029378
0
ARC
8
DEFAULT_255_2_778
10
13.4367973
20
4.2263806
40
0.5161234
50
268.3177191
51
302.8183889
0
ARC
8
DEFAULT_255_2_778
10
13.4539314
20
4.1815995
40
0.4693073
50
304.0235844
51
317.754404
0
ARC
8
DEFAULT_255_2_778
10
13.3867256
20
4.2328447
40
0.5535578
50
318.5046108
51
355.331391
0
ARC
8
DEFAULT_255_2_778
10
13.0940291
20
4.2798195
40
0.849418
50
353.7800766
51
0.1119776
0
ARC
8
DEFAULT_255_2_778
10
13.4684402
20
4.2960861
40
1.0583956
50
157.3293604
51
180.7907416
0
ARC
8
DEFAULT_255_2_778
10
13.3612811
20
4.3270425
40
0.94767
50
133.9268208
51
156.5591998
0
ARC
8
DEFAULT_255_2_778
10
13.4022079
20
4.3045867
40
0.9923332
50
88.7390356
51
134.7292996
0
ARC
8
DEFAULT_255_2_778
10
13.4481426
20
4.3179962
40
0.9789799
50
44.9453966
51
91.4104575
0
ARC
8
DEFAULT_255_2_778
10
13.4589554
20
4.3164369
40
0.9724677
50
0.3577101
51
45.4604734
0
ARC
8
DEFAULT_255_2_778
10
13.1297413
20
4.2816401
40
1.3023042
50
359.9929386
51
1.7983168
0
ARC
8
DEFAULT_255_2_778
10
13.3702621
20
4.2670249
40
1.0618817
50
337.220712
51
0.7799549
0
ARC
8
DEFAULT_255_2_778
10
13.4669401
20
4.2403781
40
0.9625131
50
314.3225877
51
336.4549553
0
ARC
8
DEFAULT_255_2_778
10
13.441544
20
4.2422054
40
0.9817099
50
269.9956682
51
315.3085106
0
ARC
8
DEFAULT_255_2_778
10
13.441479
20
4.2450327
40
0.9845371
50
268.8922567
51
269.9994599
0
ARC
8
DEFAULT_255_2_778
10
13.4006308
20
4.2400534
40
0.9796168
50
224.635574
51
271.2759944
0
ARC
8
DEFAULT_255_2_778
10
13.3901594
20
4.2515635
40
0.9803756
50
179.0552478
51
225.5442604
0
ARC
8
DEFAULT_255_2_778
10
13.7266733
20
4.281441
40
1.3168278
50
179.9983237
51
180.5966609
0
ARC
8
DEFAULT_255_2_778
10
15.7930274
20
4.2772282
40
0.9912351
50
74.3753957
51
90.7446333
0
ARC
8
DEFAULT_255_2_778
10
15.891274
20
4.6284893
40
0.626493
50
47.4852664
51
74.3762889
0
ARC
8
DEFAULT_255_2_778
10
15.9355757
20
4.664218
40
0.5702826
50
359.6143503
51
48.3403024
0
ARC
8
DEFAULT_255_2_778
10
15.8872021
20
4.6670033
40
0.6186788
50
326.3051901
51
359.3865627
0
ARC
8
DEFAULT_255_2_778
10
15.9659833
20
4.6123914
40
0.5228381
50
291.6161178
51
326.4949903
0
ARC
8
DEFAULT_255_2_778
10
15.8375366
20
4.8805507
40
0.8197163
50
285.8447694
51
293.0580568
0
ARC
8
DEFAULT_255_2_778
10
15.7922848
20
4.6531391
40
0.2304794
50
266.9808155
51
314.2618761
0
ARC
8
DEFAULT_255_2_778
10
15.7822217
20
4.6488535
40
0.2346554
50
316.7526708
51
2.5465649
0
ARC
8
DEFAULT_255_2_778
10
15.7751824
20
4.668232
40
0.2416289
50
357.8766867
51
43.018494
0
ARC
8
DEFAULT_255_2_778
10
15.7900877
20
4.674792
40
0.2263195
50
44.3787904
51
92.5938543
0
ARC
8
DEFAULT_255_2_778
10
20.6892974
20
4.7390629
40
0.1699881
50
131.1922409
51
183.6032574
0
ARC
8
DEFAULT_255_2_778
10
20.7186179
20
4.7188553
40
0.1992003
50
177.2594977
51
223.0477823
0
ARC
8
DEFAULT_255_2_778
10
20.8205019
20
4.8316455
40
0.3508834
50
225.1511896
51
252.0296045
0
ARC
8
DEFAULT_255_2_778
10
20.3763756
20
2.375132
40
2.1323399
50
69.7892154
51
75.6865802
0
ARC
8
DEFAULT_255_2_778
10
20.8022329
20
3.5146335
40
0.9158963
50
56.8522184
51
70.1625207
0
ARC
8
DEFAULT_255_2_778
10
21.0715801
20
3.9393249
40
0.4130932
50
26.1956067
51
55.9219127
0
ARC
8
DEFAULT_255_2_778
10
20.9660526
20
3.8899507
40
0.5295827
50
359.2739794
51
25.948862
0
ARC
8
DEFAULT_255_2_778
10
20.7385426
20
3.874299
40
0.7571029
50
359.9985296
51
0.6766725
0
ARC
8
DEFAULT_255_2_778
10
20.939167
20
3.8733475
40
0.5564792
50
309.3419386
51
0.0959669
0
ARC
8
DEFAULT_255_2_778
10
20.8220009
20
3.9882122
40
0.71981
50
276.9223841
51
310.7585663
0
ARC
8
DEFAULT_255_2_778
10
20.7582347
20
4.3395795
40
1.0765054
50
269.8196057
51
278.0376466
0
ARC
8
DEFAULT_255_2_778
10
20.7416702
20
4.3091393
40
1.0461427
50
254.0886253
51
270.7216082
0
ARC
8
DEFAULT_255_2_778
10
20.6490091
20
3.9745527
40
0.698977
50
231.903142
51
253.8741844
0
ARC
8
DEFAULT_255_2_778
10
20.5523764
20
3.8444081
40
0.5369524
50
181.2499316
51
231.4494973
0
ARC
8
DEFAULT_255_2_778
10
20.8313497
20
3.882297
40
0.8173044
50
179.9661669
51
183.4793894
0
ARC
8
DEFAULT_255_2_778
10
20.8305888
20
3.8954805
40
0.3049081
50
182.3873512
51
212.6482792
0
ARC
8
DEFAULT_255_2_778
10
20.7453777
20
3.8597511
40
0.2144742
50
216.8959459
51
272.2024309
0
ARC
8
DEFAULT_255_2_778
10
20.7679381
20
4.0456929
40
0.4005134
50
267.9512766
51
270.0153529
0
ARC
8
DEFAULT_255_2_778
10
20.7811356
20
3.8762405
40
0.2314314
50
266.7575171
51
310.4698
0
ARC
8
DEFAULT_255_2_778
10
20.8074963
20
3.8348108
40
0.1829321
50
312.6113687
51
359.9591498
0
ARC
8
DEFAULT_255_2_778
10
20.8074728
20
3.8346693
40
0.1829556
50
0.0034749
51
1.7259104
0
ARC
8
DEFAULT_255_2_778
10
20.8028809
20
3.8474466
40
0.1876053
50
357.7800546
51
359.997862
0
ARC
8
DEFAULT_255_2_778
10
20.8026298
20
3.8473406
40
0.1878563
50
0.0301962
51
44.401164
0
ARC
8
DEFAULT_255_2_778
10
20.6887424
20
3.7278986
40
0.3528404
50
45.3189747
51
72.0052318
0
ARC
8
DEFAULT_255_2_778
10
21.0838831
20
5.9927866
40
1.9310588
50
249.1585657
51
255.6856669
0
ARC
8
DEFAULT_255_2_778
10
20.7674218
20
5.1695322
40
1.0490835
50
237.7002463
51
249.3144902
0
ARC
8
DEFAULT_255_2_778
10
20.4287654
20
4.6174909
40
0.401597
50
205.9782179
51
236.4548668
0
ARC
8
DEFAULT_255_2_778
10
20.5418902
20
4.6734272
40
0.5277941
50
178.6372284
51
206.0577417
0
ARC
8
DEFAULT_255_2_778
10
20.5581746
20
4.7039378
40
0.5442255
50
128.4785966
51
181.8909754
0
ARC
8
DEFAULT_255_2_778
10
20.6860811
20
4.5419552
40
0.7506186
50
95.8241857
51
128.4283131
0
ARC
8
DEFAULT_255_2_778
10
20.7417725
20
4.2037176
40
1.0929648
50
89.870364
51
96.9293601
0
ARC
8
DEFAULT_255_2_778
10
20.7570316
20
4.2329537
40
1.0638027
50
74.9654866
51
90.6886742
0
ARC
8
DEFAULT_255_2_778
10
20.8515709
20
4.5918922
40
0.6926295
50
53.8508651
51
74.8161091
0
ARC
8
DEFAULT_255_2_778
10
20.9590802
20
4.7552892
40
0.4973625
50
9.5768819
51
52.7478802
0
ARC
8
DEFAULT_255_2_778
10
20.623661
20
4.6735138
40
0.8420783
50
1.2293083
51
11.2667013
0
ARC
8
DEFAULT_255_2_778
10
20.6731476
20
4.6773213
40
0.2688761
50
3.0397757
51
40.8572049
0
ARC
8
DEFAULT_255_2_778
10
20.7368406
20
4.7209781
40
0.1923376
50
43.4339254
51
44.999302
0
ARC
8
DEFAULT_255_2_778
10
20.7316176
20
4.7150775
40
0.2002036
50
45.1364398
51
91.8239465
0
ARC
8
DEFAULT_255_2_778
10
20.7155381
20
4.6945257
40
0.2208673
50
87.4809878
51
128.6657983
0
ARC
8
DEFAULT_255_2_778
10
23.0286836
20
4.6688119
40
0.6104173
50
323.8083641
51
359.2272618
0
ARC
8
DEFAULT_255_2_778
10
22.8158225
20
4.7976273
40
0.8585451
50
322.35698
51
325.2588142
0
ARC
8
DEFAULT_255_2_778
10
23.1146646
20
4.5893003
40
0.4949904
50
294.3424162
51
320.32455
0
ARC
8
DEFAULT_255_2_778
10
22.9713271
20
4.85602
40
0.7973478
50
291.9323196
51
295.8268528
0
ARC
8
DEFAULT_255_2_778
10
22.9510401
20
4.937679
40
0.8807518
50
272.8311135
51
291.1723547
0
ARC
8
DEFAULT_255_2_778
10
22.914415
20
5.3290898
40
1.2736107
50
269.9518815
51
273.6070626
0
ARC
8
DEFAULT_255_2_778
10
22.9262298
20
4.276687
40
0.9919763
50
74.3905074
51
90.7442158
0
ARC
8
DEFAULT_255_2_778
10
23.0249208
20
4.6295897
40
0.6255336
50
47.4726367
51
74.3989526
0
ARC
8
DEFAULT_255_2_778
10
23.07256
20
4.6661125
40
0.5665125
50
359.9994662
51
48.5266102
0
ARC
8
DEFAULT_255_2_778
10
23.0686844
20
4.6661294
40
0.5703879
50
359.4425118
51
359.9977793
0
ARC
8
DEFAULT_255_2_778
10
22.9254848
20
4.6531392
40
0.2304795
50
266.9808261
51
314.2618726
0
ARC
8
DEFAULT_255_2_778
10
22.9150034
20
4.6490087
40
0.2350665
50
316.7949718
51
2.5042561
0
ARC
8
DEFAULT_255_2_778
10
22.9083819
20
4.6682319
40
0.2416294
50
357.8767089
51
43.0184335
0
ARC
8
DEFAULT_255_2_778
10
22.923167
20
4.6744858
40
0.22662
50
44.4127778
51
92.5598669
0
ARC
8
DEFAULT_255_2_778
10
24.9793191
20
4.2769184
40
0.9915448
50
74.3778794
51
90.7439196
0
ARC
8
DEFAULT_255_2_778
10
25.0778546
20
4.6290338
40
0.6259021
50
47.4705103
51
74.3846275
0
ARC
8
DEFAULT_255_2_778
10
25.1218748
20
4.6640851
40
0.5703825
50
359.6277666
51
48.3491119
0
ARC
8
DEFAULT_255_2_778
10
25.0742987
20
4.6669414
40
0.6179816
50
326.268998
51
359.3916167
0
ARC
8
DEFAULT_255_2_778
10
25.1521971
20
4.6124509
40
0.5229429
50
291.6273533
51
326.4947656
0
ARC
8
DEFAULT_255_2_778
10
25.0238933
20
4.8801837
40
0.819375
50
285.8546922
51
293.0675318
0
ARC
8
DEFAULT_255_2_778
10
24.978531
20
4.6535294
40
0.2308664
50
266.9992624
51
314.2216106
0
ARC
8
DEFAULT_255_2_778
10
24.9682049
20
4.649008
40
0.2350649
50
316.7948546
51
2.5044463
0
ARC
8
DEFAULT_255_2_778
10
24.9637039
20
4.669023
40
0.2395397
50
357.6688106
51
43.2263679
0
ARC
8
DEFAULT_255_2_778
10
24.9760642
20
4.6737177
40
0.227374
50
44.4976332
51
92.4749956
0
LINE
8
DEFAULT_255_2_778
10
10.6493454
20
3.2831796
11
10.6493454
21
5.2683796
0
LINE
8
DEFAULT_255_2_778
10
10.6493454
20
5.2683796
11
11.9352454
21
5.2683796
0
LINE
8
DEFAULT_255_2_778
10
11.9352454
20
5.2683796
11
11.9352454
21
4.9005796
0
LINE
8
DEFAULT_255_2_778
10
11.9352454
20
4.9005796
11
11.1308454
21
4.9005796
0
LINE
8
DEFAULT_255_2_778
10
11.1308454
20
4.9005796
11
11.1308454
21
4.4735796
0
LINE
8
DEFAULT_255_2_778
10
11.1308454
20
4.4735796
11
11.7328454
21
4.4735796
0
LINE
8
DEFAULT_255_2_778
10
11.7328454
20
4.4735796
11
11.7328454
21
4.1057796
0
LINE
8
DEFAULT_255_2_778
10
11.7328454
20
4.1057796
11
11.1308454
21
4.1057796
0
LINE
8
DEFAULT_255_2_778
10
11.1308454
20
4.1057796
11
11.1308454
21
3.2855796
0
LINE
8
DEFAULT_255_2_778
10
11.1308454
20
3.2855796
11
10.6493454
21
3.2831796
0
LINE
8
DEFAULT_255_2_778
10
13.9434454
20
4.2814796
11
13.9434454
21
4.2814796
0
LINE
8
DEFAULT_255_2_778
10
12.4098454
20
4.2814796
11
12.4101454
21
4.2814796
0
LINE
8
DEFAULT_255_2_778
10
15.4819454
20
4.0552796
11
15.4819454
21
3.2831796
0
LINE
8
DEFAULT_255_2_778
10
15.4819454
20
3.2831796
11
15.0009454
21
3.2831796
0
LINE
8
DEFAULT_255_2_778
10
15.0009454
20
3.2831796
11
15.0009454
21
5.2683796
0
LINE
8
DEFAULT_255_2_778
10
15.0009454
20
5.2683796
11
15.7801454
21
5.2683796
0
LINE
8
DEFAULT_255_2_778
10
16.0613454
20
4.0919796
11
16.5455454
21
3.2831796
0
LINE
8
DEFAULT_255_2_778
10
16.5455454
20
3.2831796
11
15.9828454
21
3.2831796
0
LINE
8
DEFAULT_255_2_778
10
15.9828454
20
3.2831796
11
15.5383454
21
4.0552796
0
LINE
8
DEFAULT_255_2_778
10
15.5383454
20
4.0552796
11
15.4819454
21
4.0552796
0
LINE
8
DEFAULT_255_2_778
10
15.4819454
20
4.9008796
11
15.4819454
21
4.4229796
0
LINE
8
DEFAULT_255_2_778
10
15.4819454
20
4.4229796
11
15.7801454
21
4.4229796
0
LINE
8
DEFAULT_255_2_778
10
15.7798454
20
4.9008796
11
15.4819454
21
4.9008796
0
LINE
8
DEFAULT_255_2_778
10
19.3750454
20
5.2685796
11
19.3750454
21
3.2834796
0
LINE
8
DEFAULT_255_2_778
10
19.3750454
20
3.2834796
11
18.8937454
21
3.2834796
0
LINE
8
DEFAULT_255_2_778
10
18.8937454
20
3.2834796
11
18.8937454
21
4.4034796
0
LINE
8
DEFAULT_255_2_778
10
18.8937454
20
4.4034796
11
18.4352454
21
3.2834796
0
LINE
8
DEFAULT_255_2_778
10
18.4352454
20
3.2834796
11
18.0780454
21
3.2834796
0
LINE
8
DEFAULT_255_2_778
10
18.0780454
20
3.2834796
11
17.6195454
21
4.4034796
0
LINE
8
DEFAULT_255_2_778
10
17.6195454
20
4.4034796
11
17.6195454
21
3.2834796
0
LINE
8
DEFAULT_255_2_778
10
17.6195454
20
3.2834796
11
17.1385454
21
3.2834796
0
LINE
8
DEFAULT_255_2_778
10
17.1385454
20
3.2834796
11
17.1385454
21
5.2685796
0
LINE
8
DEFAULT_255_2_778
10
17.1385454
20
5.2685796
11
17.6899454
21
5.2685796
0
LINE
8
DEFAULT_255_2_778
10
17.6899454
20
5.2685796
11
18.2582454
21
3.8999796
0
LINE
8
DEFAULT_255_2_778
10
18.2582454
20
3.8999796
11
18.8236454
21
5.2685796
0
LINE
8
DEFAULT_255_2_778
10
18.8236454
20
5.2685796
11
19.3750454
21
5.2685796
0
LINE
8
DEFAULT_255_2_778
10
20.7122454
20
4.4978796
11
20.9035454
21
4.4412796
0
LINE
8
DEFAULT_255_2_778
10
20.0140454
20
3.8827796
11
20.5259454
21
3.8827796
0
LINE
8
DEFAULT_255_2_778
10
20.7977454
20
4.0634796
11
20.6064454
21
4.1216796
0
LINE
8
DEFAULT_255_2_778
10
21.4655454
20
4.6915796
11
20.9416454
21
4.6915796
0
LINE
8
DEFAULT_255_2_778
10
20.5775454
20
4.8669796
11
20.5773454
21
4.8669796
0
LINE
8
DEFAULT_255_2_778
10
22.9133454
20
4.0554796
11
22.6151454
21
4.0554796
0
LINE
8
DEFAULT_255_2_778
10
22.6151454
20
4.0554796
11
22.6151454
21
3.2834796
0
LINE
8
DEFAULT_255_2_778
10
22.6151454
20
3.2834796
11
22.1341454
21
3.2834796
0
LINE
8
DEFAULT_255_2_778
10
22.1341454
20
3.2834796
11
22.1341454
21
5.2685796
0
LINE
8
DEFAULT_255_2_778
10
22.1341454
20
5.2685796
11
22.9133454
21
5.2685796
0
LINE
8
DEFAULT_255_2_778
10
23.6390454
20
4.6605796
11
23.6390454
21
4.6605796
0
LINE
8
DEFAULT_255_2_778
10
22.6151454
20
4.4229796
11
22.9133454
21
4.4229796
0
LINE
8
DEFAULT_255_2_778
10
22.9130454
20
4.9008796
11
22.6148454
21
4.9008796
0
LINE
8
DEFAULT_255_2_778
10
22.6148454
20
4.9008796
11
22.6148454
21
4.4229796
0
LINE
8
DEFAULT_255_2_778
10
22.6148454
20
4.4229796
11
22.6151454
21
4.4229796
0
LINE
8
DEFAULT_255_2_778
10
24.6683454
20
4.0552796
11
24.6683454
21
3.2831796
0
LINE
8
DEFAULT_255_2_778
10
24.6683454
20
3.2831796
11
24.1872454
21
3.2831796
0
LINE
8
DEFAULT_255_2_778
10
24.1872454
20
3.2831796
11
24.1872454
21
5.2683796
0
LINE
8
DEFAULT_255_2_778
10
24.1872454
20
5.2683796
11
24.9664454
21
5.2683796
0
LINE
8
DEFAULT_255_2_778
10
25.2477454
20
4.0919796
11
25.7319454
21
3.2831796
0
LINE
8
DEFAULT_255_2_778
10
25.7319454
20
3.2831796
11
25.1694454
21
3.2831796
0
LINE
8
DEFAULT_255_2_778
10
25.1694454
20
3.2831796
11
24.7249454
21
4.0552796
0
LINE
8
DEFAULT_255_2_778
10
24.7249454
20
4.0552796
11
24.6683454
21
4.0552796
0
LINE
8
DEFAULT_255_2_778
10
24.6683454
20
4.9008796
11
24.6683454
21
4.4229796
0
LINE
8
DEFAULT_255_2_778
10
24.6683454
20
4.4229796
11
24.9664454
21
4.4229796
0
LINE
8
DEFAULT_255_2_778
10
24.9662454
20
4.9008796
11
24.6683454
21
4.9008796
0
LINE
8
DEFAULT_255_2_778
10
27.5205454
20
5.2738796
11
27.5205454
21
4.9061796
0
LINE
8
DEFAULT_255_2_778
10
27.5205454
20
4.9061796
11
26.8061454
21
4.9061796
0
LINE
8
DEFAULT_255_2_778
10
26.8061454
20
4.9061796
11
26.8061454
21
4.4790796
0
LINE
8
DEFAULT_255_2_778
10
26.8061454
20
4.4790796
11
27.4363454
21
4.4790796
0
LINE
8
DEFAULT_255_2_778
10
27.4363454
20
4.4790796
11
27.4363454
21
4.1113796
0
LINE
8
DEFAULT_255_2_778
10
27.4363454
20
4.1113796
11
26.8061454
21
4.1113796
0
LINE
8
DEFAULT_255_2_778
10
26.8061454
20
4.1113796
11
26.8061454
21
3.6504796
0
LINE
8
DEFAULT_255_2_778
10
26.8061454
20
3.6504796
11
27.5205454
21
3.6504796
0
LINE
8
DEFAULT_255_2_778
10
27.5205454
20
3.6504796
11
27.5205454
21
3.2799796
0
LINE
8
DEFAULT_255_2_778
10
27.5205454
20
3.2799796
11
26.3245454
21
3.2799796
0
LINE
8
DEFAULT_255_2_778
10
26.3245454
20
3.2799796
11
26.3245454
21
5.2709796
0
LINE
8
DEFAULT_255_2_778
10
26.3245454
20
5.2709796
11
27.5205454
21
5.2738796
0
LINE
8
DEFAULT_255_2_778
10
29.3884454
20
5.2738796
11
29.3884454
21
4.9061796
0
LINE
8
DEFAULT_255_2_778
10
29.3884454
20
4.9061796
11
28.6740454
21
4.9061796
0
LINE
8
DEFAULT_255_2_778
10
28.6740454
20
4.9061796
11
28.6740454
21
4.4790796
0
LINE
8
DEFAULT_255_2_778
10
28.6740454
20
4.4790796
11
29.3043454
21
4.4790796
0
LINE
8
DEFAULT_255_2_778
10
29.3043454
20
4.4790796
11
29.3043454
21
4.1113796
0
LINE
8
DEFAULT_255_2_778
10
29.3043454
20
4.1113796
11
28.6740454
21
4.1113796
0
LINE
8
DEFAULT_255_2_778
10
28.6740454
20
4.1113796
11
28.6740454
21
3.6504796
0
LINE
8
DEFAULT_255_2_778
10
28.6740454
20
3.6504796
11
29.3884454
21
3.6504796
0
LINE
8
DEFAULT_255_2_778
10
29.3884454
20
3.6504796
11
29.3884454
21
3.2799796
0
LINE
8
DEFAULT_255_2_778
10
29.3884454
20
3.2799796
11
28.1925454
21
3.2799796
0
LINE
8
DEFAULT_255_2_778
10
28.1925454
20
3.2799796
11
28.1925454
21
5.2709796
0
LINE
8
DEFAULT_255_2_778
10
28.1925454
20
5.2709796
11
29.3884454
21
5.2738796
0
ARC
8
DEFAULT_255_2_778
10
4.8283324
20
4.2839019
40
4.5834218
50
165.9211419
51
180.0500362
0
ARC
8
DEFAULT_255_2_778
10
4.7527612
20
4.3004671
40
4.5060916
50
144.6971165
51
165.8916983
0
ARC
8
DEFAULT_255_2_778
10
4.7422567
20
4.3129074
40
4.4903316
50
108.0406015
51
144.7492037
0
ARC
8
DEFAULT_255_2_778
10
4.7339702
20
4.315972
40
4.4848567
50
92.7857575
51
107.9520666
0
ARC
8
DEFAULT_255_2_778
10
4.7420896
20
4.210236
40
4.5908632
50
89.9972201
51
92.8228358
0
ARC
8
DEFAULT_255_2_778
10
4.7462338
20
4.288024
40
4.5130769
50
75.5963301
51
90.0497856
0
ARC
8
DEFAULT_255_2_778
10
4.7551321
20
4.3371418
40
4.4632911
50
52.4458992
51
75.5501225
0
ARC
8
DEFAULT_255_2_778
10
4.7268714
20
4.2978235
40
4.5116872
50
20.2732258
51
52.4657148
0
ARC
8
DEFAULT_255_2_778
10
4.7027715
20
4.2917438
40
4.5364017
50
4.4441388
51
20.2397883
0
ARC
8
DEFAULT_255_2_778
10
4.5905621
20
4.2804395
40
4.6491503
50
359.9933419
51
4.4758795
0
ARC
8
DEFAULT_255_2_778
10
4.6562923
20
4.2758965
40
4.5834218
50
345.9211419
51
0.0500362
0
ARC
8
DEFAULT_255_2_778
10
4.7318635
20
4.2593313
40
4.5060916
50
324.6971165
51
345.8916983
0
ARC
8
DEFAULT_255_2_778
10
4.7423679
20
4.246891
40
4.4903316
50
288.0406015
51
324.7492037
0
ARC
8
DEFAULT_255_2_778
10
4.7506545
20
4.2438264
40
4.4848567
50
272.7857575
51
287.9520666
0
ARC
8
DEFAULT_255_2_778
10
4.7425351
20
4.3495624
40
4.5908632
50
269.9972201
51
272.8228358
0
ARC
8
DEFAULT_255_2_778
10
4.7383973
20
4.2712592
40
4.5125617
50
255.5945644
51
270.0497087
0
ARC
8
DEFAULT_255_2_778
10
4.7296543
20
4.2226836
40
4.4633396
50
232.4437581
51
255.5481386
0
ARC
8
DEFAULT_255_2_778
10
4.7581301
20
4.2623189
40
4.5121181
50
200.2742247
51
232.4638844
0
ARC
8
DEFAULT_255_2_778
10
4.7815586
20
4.2681377
40
4.5361122
50
184.4297905
51
200.2406258
0
ARC
8
DEFAULT_255_2_778
10
4.8931858
20
4.2793651
40
4.6482737
50
179.993417
51
184.4614949
0
LINE
8
DEFAULT_255_2_778
10
0.2449123
20
4.2798992
11
0.2449123
21
4.2798992
0
LINE
8
DEFAULT_255_2_778
10
2.6980965
20
6.5219976
11
6.7866965
21
6.5219976
0
LINE
8
DEFAULT_255_2_778
10
6.7866965
20
6.5219976
11
6.7866965
21
5.2889976
0
LINE
8
DEFAULT_255_2_778
10
6.7866965
20
5.2889976
11
2.6980965
21
5.2889976
0
LINE
8
DEFAULT_255_2_778
10
2.6980965
20
5.2889976
11
2.6980965
21
6.5219976
0
LINE
8
DEFAULT_255_2_778
10
2.6980965
20
4.8778976
11
6.7866965
21
4.8778976
0
LINE
8
DEFAULT_255_2_778
10
6.7866965
20
4.8778976
11
6.7866965
21
3.6448976
0
LINE
8
DEFAULT_255_2_778
10
6.7866965
20
3.6448976
11
2.6980965
21
3.6448976
0
LINE
8
DEFAULT_255_2_778
10
2.6980965
20
3.6448976
11
2.6980965
21
4.8778976
0
LINE
8
DEFAULT_255_2_778
10
2.6980965
20
3.2337976
11
4.7422965
21
3.2337976
0
LINE
8
DEFAULT_255_2_778
10
4.7422965
20
3.2337976
11
4.7422965
21
2.0007976
0
LINE
8
DEFAULT_255_2_778
10
4.7422965
20
2.0007976
11
2.6980965
21
2.0007976
0
LINE
8
DEFAULT_255_2_778
10
2.6980965
20
2.0007976
11
2.6980965
21
3.2337976
0
ENDSEC
0
EOF