0
SECTION
2
HEADER
9
$MEASUREMENT
70
1
0
ENDSEC
0
SECTION
2
TABLES
0
TABLE
2
LTYPE
0
LTYPE
72
65
70
64
2
CONTINUOUS
3
______
73
0
40
0
0
ENDTAB
0
TABLE
2
LAYER
0
LAYER
2
DEFAULT_255_2_778
70
0
62
255
6
CONTINUOUS
0
LAYER
2
DEFAULT_255_1_234
70
0
62
255
6
CONTINUOUS
0
ENDTAB
0
ENDSEC
0
SECTION
2
ENTITIES
0
ARC
8
DEFAULT_255_2_778
10
3.5700693
20
28.1802037
40
0.7914215
50
129.1312896
51
180.1450914
0
ARC
8
DEFAULT_255_2_778
10
3.5703345
20
28.1806908
40
0.7912112
50
89.854026
51
129.1684493
0
ARC
8
DEFAULT_255_2_778
10
25.7993937
20
28.1803773
40
0.7915249
50
39.4792447
51
90.147911
0
ARC
8
DEFAULT_255_2_778
10
25.7999935
20
28.180224
40
0.7911595
50
359.8533901
51
39.5154338
0
ARC
8
DEFAULT_255_2_778
10
25.7996693
20
-1.9863486
40
0.7914836
50
309.4761667
51
0.1482649
0
ARC
8
DEFAULT_255_2_778
10
25.799398
20
-1.9867797
40
0.7913235
50
269.8517415
51
309.511178
0
ARC
8
DEFAULT_255_2_778
10
3.570342
20
-1.9867215
40
0.7913815
50
219.1282118
51
270.1454017
0
ARC
8
DEFAULT_255_2_778
10
3.5700247
20
-1.986339
40
0.7913769
50
179.8524075
51
219.1641908
0
LINE
8
DEFAULT_255_2_778
10
3.5723503
20
28.9718996
11
25.7973503
21
28.9718996
0
LINE
8
DEFAULT_255_2_778
10
26.5911503
20
28.1781996
11
26.5911503
21
-1.9843004
0
LINE
8
DEFAULT_255_2_778
10
25.7973503
20
-2.7781004
11
3.5723503
21
-2.7781004
0
LINE
8
DEFAULT_255_2_778
10
2.7786503
20
-1.9843004
11
2.7786503
21
28.1781996
0
LINE
8
DEFAULT_255_1_234
10
11.009723
20
-0.2802337
11
11.1647355
21
-0.2802337
0
LINE
8
DEFAULT_255_1_234
10
10.2643777
20
-0.1212053
11
10.2643777
21
-0.0087609
0
LINE
8
DEFAULT_255_1_234
10
11.1647355
20
0.1422357
11
11.009723
21
0.1422357
0
LINE
8
DEFAULT_255_1_234
10
10.4193902
20
-0.0127768
11
10.4193902
21
-0.1260243
0
ARC
8
DEFAULT_255_1_234
10
10.6166742
20
-0.2205154
40
0.5513052
50
340.1774281
51
353.7814284
0
ARC
8
DEFAULT_255_1_234
10
10.7738095
20
-0.2790418
40
0.3836379
50
311.4558989
51
340.4421614
0
ARC
8
DEFAULT_255_1_234
10
10.7704763
20
-0.2679472
40
0.3941894
50
282.4333181
51
310.7513653
0
ARC
8
DEFAULT_255_1_234
10
10.7265502
20
-0.0864321
40
0.5809175
50
269.9358511
51
282.809604
0
ARC
8
DEFAULT_255_1_234
10
10.7213568
20
0.0593212
40
0.7266847
50
270.0021091
51
270.3581957
0
ARC
8
DEFAULT_255_1_234
10
10.7160985
20
-0.2007415
40
0.4666519
50
250.7884749
51
270.6489167
0
ARC
8
DEFAULT_255_1_234
10
10.699282
20
-0.2644681
40
0.4009729
50
219.3627325
51
250.0611886
0
ARC
8
DEFAULT_255_1_234
10
10.7822031
20
-0.1939958
40
0.5097822
50
193.5479632
51
219.5756669
0
ARC
8
DEFAULT_255_1_234
10
11.0193652
20
-0.1324081
40
0.7547848
50
181.1218675
51
193.87563
0
ARC
8
DEFAULT_255_1_234
10
11.2263833
20
-0.121342
40
0.9620055
50
179.9918545
51
181.5394234
0
ARC
8
DEFAULT_255_1_234
10
11.0412935
20
-0.0050212
40
0.7769248
50
169.5837241
51
180.2757934
0
ARC
8
DEFAULT_255_1_234
10
10.8575873
20
0.0289229
40
0.590109
50
155.0365899
51
169.6003176
0
ARC
8
DEFAULT_255_1_234
10
10.7440337
20
0.0836677
40
0.4640625
50
136.783148
51
155.2472683
0
ARC
8
DEFAULT_255_1_234
10
10.7050814
20
0.1167562
40
0.4130255
50
121.7633186
51
136.428115
0
ARC
8
DEFAULT_255_1_234
10
10.7185776
20
0.0918227
40
0.4413323
50
95.6459699
51
121.5490577
0
ARC
8
DEFAULT_255_1_234
10
10.7343058
20
-0.0190051
40
0.55319
50
89.924208
51
96.1377933
0
ARC
8
DEFAULT_255_1_234
10
10.7393491
20
-0.0071458
40
0.5413475
50
76.6779277
51
90.4563316
0
ARC
8
DEFAULT_255_1_234
10
10.7787114
20
0.1519114
40
0.3775041
50
47.485847
51
76.9287264
0
ARC
8
DEFAULT_255_1_234
10
10.7640087
20
0.1419159
40
0.3948286
50
16.5424086
51
46.8933463
0
ARC
8
DEFAULT_255_1_234
10
10.6032244
20
0.0890861
40
0.564021
50
5.4072051
51
17.0365086
0
ARC
8
DEFAULT_255_1_234
10
10.4593261
20
0.0659679
40
0.5556559
50
7.8891745
51
15.9239216
0
ARC
8
DEFAULT_255_1_234
10
10.6580274
20
0.1236631
40
0.3487515
50
15.7653144
51
27.9410532
0
ARC
8
DEFAULT_255_1_234
10
10.7684492
20
0.182779
40
0.2235026
50
27.8166557
51
46.4008329
0
ARC
8
DEFAULT_255_1_234
10
10.7734135
20
0.1822082
40
0.2205286
50
47.4371857
51
75.0698205
0
ARC
8
DEFAULT_255_1_234
10
10.7425529
20
0.0747765
40
0.3322915
50
74.7008593
51
87.8124495
0
ARC
8
DEFAULT_255_1_234
10
10.7352217
20
-0.0308156
40
0.4380987
50
87.3814673
51
90.0240855
0
ARC
8
DEFAULT_255_1_234
10
10.731376
20
0.0869291
40
0.3203749
50
89.3451631
51
108.5745436
0
ARC
8
DEFAULT_255_1_234
10
10.7176865
20
0.1382908
40
0.2673494
50
109.2998449
51
143.3037509
0
ARC
8
DEFAULT_255_1_234
10
10.7938938
20
0.0796881
40
0.3634757
50
143.0753173
51
163.1916937
0
ARC
8
DEFAULT_255_1_234
10
10.9890666
20
0.0180967
40
0.5681262
50
162.9373603
51
174.6208611
0
ARC
8
DEFAULT_255_1_234
10
11.2516708
20
-0.010699
40
0.8322832
50
174.3419979
51
180.1430411
0
ARC
8
DEFAULT_255_1_234
10
11.1585864
20
-0.1301302
40
0.7392076
50
179.6817502
51
189.150529
0
ARC
8
DEFAULT_255_1_234
10
10.9085112
20
-0.171781
40
0.4856932
50
188.9910863
51
203.5773039
0
ARC
8
DEFAULT_255_1_234
10
10.8005445
20
-0.2165789
40
0.3688271
50
203.9077269
51
215.1312379
0
ARC
8
DEFAULT_255_1_234
10
10.7082539
20
-0.2881059
40
0.2522457
50
213.9071664
51
263.8849284
0
ARC
8
DEFAULT_255_1_234
10
10.7207868
20
-0.2096482
40
0.3316174
50
263.1758525
51
270.1031083
0
ARC
8
DEFAULT_255_1_234
10
10.723996
20
-0.0849635
40
0.4563091
50
269.6719807
51
279.0609165
0
ARC
8
DEFAULT_255_1_234
10
10.7506728
20
-0.2462093
40
0.2928759
50
278.8750225
51
293.6346586
0
ARC
8
DEFAULT_255_1_234
10
10.7826936
20
-0.32141
40
0.2111472
50
293.8553404
51
310.0518804
0
ARC
8
DEFAULT_255_1_234
10
10.783179
20
-0.3276484
40
0.2060917
50
311.0646779
51
332.0108348
0
ARC
8
DEFAULT_255_1_234
10
10.6639517
20
-0.2619022
40
0.3422352
50
331.6588543
51
343.2878891
0
ARC
8
DEFAULT_255_1_234
10
10.4577032
20
-0.1985202
40
0.5580003
50
343.1446044
51
351.010618
0
ARC
8
DEFAULT_255_1_234
10
10.3035678
20
-0.1704129
40
0.7146438
50
350.7157277
51
351.1602153
0
LINE
8
DEFAULT_255_1_234
10
11.3751671
20
0.5181211
11
11.5743542
21
0.5181211
0
LINE
8
DEFAULT_255_1_234
10
11.5743542
20
0.5181211
11
11.9566649
21
-0.4360494
0
LINE
8
DEFAULT_255_1_234
10
11.9566649
20
-0.4360494
11
12.3389757
21
0.5181211
0
LINE
8
DEFAULT_255_1_234
10
12.3389757
20
0.5181211
11
12.538966
21
0.5181211
0
LINE
8
DEFAULT_255_1_234
10
12.538966
20
0.5181211
11
12.538966
21
-0.6513
0
LINE
8
DEFAULT_255_1_234
10
12.538966
20
-0.6513
11
12.3847566
21
-0.6513
0
LINE
8
DEFAULT_255_1_234
10
12.3847566
20
-0.6513
11
12.3847566
21
-0.1959004
0
LINE
8
DEFAULT_255_1_234
10
12.3847566
20
-0.1959004
11
12.3992137
21
0.2956419
0
LINE
8
DEFAULT_255_1_234
10
12.3992137
20
0.2956419
11
12.0152966
21
-0.6513
0
LINE
8
DEFAULT_255_1_234
10
12.0152966
20
-0.6513
11
11.8972301
21
-0.6513
0
LINE
8
DEFAULT_255_1_234
10
11.8972301
20
-0.6513
11
11.5141162
21
0.2932324
0
LINE
8
DEFAULT_255_1_234
10
11.5141162
20
0.2932324
11
11.5293765
21
-0.1959004
0
LINE
8
DEFAULT_255_1_234
10
11.5293765
20
-0.1959004
11
11.5293765
21
-0.6513
0
LINE
8
DEFAULT_255_1_234
10
11.5293765
20
-0.6513
11
11.3751671
21
-0.6513
0
LINE
8
DEFAULT_255_1_234
10
11.3751671
20
-0.6513
11
11.3751671
21
0.5181211
0
LINE
8
DEFAULT_255_1_234
10
12.9598291
20
-0.0955037
11
12.8409593
21
-0.0649831
0
LINE
8
DEFAULT_255_1_234
10
12.8409593
20
-0.0649831
11
12.9003942
21
0.5181211
0
LINE
8
DEFAULT_255_1_234
10
12.9003942
20
0.5181211
11
13.4995619
21
0.5181211
0
LINE
8
DEFAULT_255_1_234
10
13.4995619
20
0.5181211
11
13.4995619
21
0.3807784
0
LINE
8
DEFAULT_255_1_234
10
13.4995619
20
0.3807784
11
13.0264925
21
0.3807784
0
LINE
8
DEFAULT_255_1_234
10
13.0264925
20
0.3807784
11
12.9911528
21
0.0619184
0
LINE
8
DEFAULT_255_1_234
10
12.7991943
20
-0.3436844
11
12.9397497
21
-0.3436844
0
LINE
8
DEFAULT_255_1_234
10
12.9991846
20
-0.0633768
11
12.9598291
21
-0.0955037
0
ARC
8
DEFAULT_255_1_234
10
13.1766312
20
-0.256077
40
0.3681349
50
93.7182161
51
120.2538958
0
ARC
8
DEFAULT_255_1_234
10
13.1860575
20
-0.3368606
40
0.449379
50
89.9660152
51
94.2496022
0
ARC
8
DEFAULT_255_1_234
10
13.1901309
20
-0.2779451
40
0.390482
50
73.8043271
51
90.5585896
0
ARC
8
DEFAULT_255_1_234
10
13.2136206
20
-0.1921398
40
0.3015334
50
41.3071453
51
73.5430202
0
ARC
8
DEFAULT_255_1_234
10
13.1720034
20
-0.2279676
40
0.3564457
50
13.5075983
51
41.2174222
0
ARC
8
DEFAULT_255_1_234
10
13.0078237
20
-0.2709514
40
0.5261351
50
1.1331335
51
13.8829381
0
ARC
8
DEFAULT_255_1_234
10
12.8666606
20
-0.2785335
40
0.6674378
50
359.9919444
51
1.544251
0
ARC
8
DEFAULT_255_1_234
10
12.9943432
20
-0.282672
40
0.5397702
50
347.8572367
51
0.4293338
0
ARC
8
DEFAULT_255_1_234
10
13.169375
20
-0.3223264
40
0.3603188
50
323.673004
51
348.1672506
0
ARC
8
DEFAULT_255_1_234
10
13.1988258
20
-0.3402832
40
0.3259678
50
316.8171152
51
323.1492751
0
ARC
8
DEFAULT_255_1_234
10
13.2049447
20
-0.343954
40
0.3189975
50
281.8396411
51
316.5457803
0
ARC
8
DEFAULT_255_1_234
10
13.1673711
20
-0.1884238
40
0.4789527
50
269.5770101
51
282.4214771
0
ARC
8
DEFAULT_255_1_234
10
13.1602523
20
-0.2097875
40
0.45759
50
256.2427136
51
270.4486331
0
ARC
8
DEFAULT_255_1_234
10
13.1303425
20
-0.3297771
40
0.3339303
50
228.9023911
51
256.3314342
0
ARC
8
DEFAULT_255_1_234
10
13.1229657
20
-0.3414254
40
0.32031
50
193.753695
51
228.5271154
0
ARC
8
DEFAULT_255_1_234
10
13.2467611
20
-0.30512
40
0.4492253
50
184.924711
51
194.497588
0
ARC
8
DEFAULT_255_1_234
10
13.2660178
20
-0.3015409
40
0.3289787
50
187.3600538
51
198.6732863
0
ARC
8
DEFAULT_255_1_234
10
13.1610472
20
-0.3379326
40
0.217884
50
198.4451669
51
217.794479
0
ARC
8
DEFAULT_255_1_234
10
13.1314647
20
-0.3588915
40
0.1816698
50
218.2887171
51
228.5612368
0
ARC
8
DEFAULT_255_1_234
10
13.1412434
20
-0.3457037
40
0.1980329
50
228.9654866
51
258.1234728
0
ARC
8
DEFAULT_255_1_234
10
13.1618144
20
-0.2576167
40
0.2884748
50
257.7258293
51
270.401361
0
ARC
8
DEFAULT_255_1_234
10
13.1663031
20
-0.3021179
40
0.2439788
50
269.4204404
51
286.4209037
0
ARC
8
DEFAULT_255_1_234
10
13.1811518
20
-0.3560343
40
0.1880666
50
286.7251356
51
320.600362
0
ARC
8
DEFAULT_255_1_234
10
13.1428343
20
-0.3249405
40
0.2374121
50
320.6712579
51
344.5441685
0
ARC
8
DEFAULT_255_1_234
10
13.0271669
20
-0.2909955
40
0.3579479
50
344.2412205
51
356.7357071
0
ARC
8
DEFAULT_255_1_234
10
12.9022818
20
-0.2806556
40
0.4832297
50
356.3548756
51
0.0500261
0
ARC
8
DEFAULT_255_1_234
10
13.0359327
20
-0.277535
40
0.3495889
50
359.5576869
51
12.953486
0
ARC
8
DEFAULT_255_1_234
10
13.1414224
20
-0.2519566
40
0.2410532
50
12.6490276
51
41.6081334
0
ARC
8
DEFAULT_255_1_234
10
13.1644595
20
-0.2323679
40
0.2108218
50
41.7850273
51
85.9892764
0
ARC
8
DEFAULT_255_1_234
10
13.1521332
20
-0.3136538
40
0.2928454
50
84.6957577
51
90.0676183
0
ARC
8
DEFAULT_255_1_234
10
13.1497816
20
-0.3805284
40
0.3597255
50
89.6804936
51
99.1614436
0
ARC
8
DEFAULT_255_1_234
10
13.1292447
20
-0.2577869
40
0.235281
50
98.9830931
51
113.8908934
0
ARC
8
DEFAULT_255_1_234
10
13.1062857
20
-0.2036413
40
0.176479
50
114.1950727
51
127.3641004
0
LINE
8
DEFAULT_255_1_234
10
14.41518
20
0.0506739
11
14.41518
21
0.0073025
0
LINE
8
DEFAULT_255_1_234
10
13.8730377
20
-0.6521032
11
13.8441234
21
-0.6521032
0
LINE
8
DEFAULT_255_1_234
10
13.8441234
20
-0.6521032
11
13.8441234
21
-0.5268081
0
LINE
8
DEFAULT_255_1_234
10
13.8441234
20
-0.5268081
11
13.8754472
21
-0.5268081
0
LINE
8
DEFAULT_255_1_234
10
14.2665929
20
0.0217597
11
14.2665929
21
0.0811945
0
ARC
8
DEFAULT_255_1_234
10
13.9872198
20
0.0963403
40
0.3635579
50
297.4037347
51
320.016758
0
ARC
8
DEFAULT_255_1_234
10
14.0162147
20
0.040624
40
0.3007486
50
270.2633101
51
297.3851877
0
ARC
8
DEFAULT_255_1_234
10
14.0128103
20
0.0869904
40
0.3471448
50
269.9966443
51
270.7900392
0
ARC
8
DEFAULT_255_1_234
10
14.0102584
20
0.0868143
40
0.3469779
50
254.5999133
51
270.4180344
0
ARC
8
DEFAULT_255_1_234
10
13.9959944
20
0.0303647
40
0.2887697
50
236.4717942
51
254.3541279
0
ARC
8
DEFAULT_255_1_234
10
14.0116161
20
0.0513711
40
0.3149125
50
208.4727207
51
236.2134933
0
ARC
8
DEFAULT_255_1_234
10
14.0754936
20
0.0904455
40
0.3897115
50
204.3447514
51
209.0453999
0
ARC
8
DEFAULT_255_1_234
10
14.1434512
20
0.1192656
40
0.4635101
50
183.9375985
51
204.1276318
0
ARC
8
DEFAULT_255_1_234
10
14.2342764
20
0.1290482
40
0.5548037
50
179.9652252
51
184.3013875
0
ARC
8
DEFAULT_255_1_234
10
14.210281
20
0.1323507
40
0.5308164
50
166.7585989
51
180.3201225
0
ARC
8
DEFAULT_255_1_234
10
14.1256423
20
0.1507488
40
0.4442163
50
154.6955053
51
166.5679793
0
ARC
8
DEFAULT_255_1_234
10
14.0403293
20
0.193721
40
0.3487299
50
136.3324195
51
155.0871442
0
ARC
8
DEFAULT_255_1_234
10
14.0122366
20
0.2177954
40
0.3117924
50
121.236733
51
135.9680508
0
ARC
8
DEFAULT_255_1_234
10
14.0262864
20
0.1917743
40
0.3413302
50
96.845628
51
120.9881519
0
ARC
8
DEFAULT_255_1_234
10
14.0408446
20
0.0982515
40
0.4359341
50
89.8870174
51
97.2802754
0
ARC
8
DEFAULT_255_1_234
10
14.0460884
20
0.1620095
40
0.3722009
50
70.6505584
51
90.6749113
0
ARC
8
DEFAULT_255_1_234
10
14.0592163
20
0.2133361
40
0.3194571
50
36.7492984
51
69.8219918
0
ARC
8
DEFAULT_255_1_234
10
13.9593328
20
0.1354993
40
0.4460685
50
15.39587
51
37.0840084
0
ARC
8
DEFAULT_255_1_234
10
13.7463761
20
0.0734242
40
0.6678714
50
3.9488873
51
15.6798563
0
ARC
8
DEFAULT_255_1_234
10
13.5062389
20
0.0517964
40
0.9089418
50
359.929245
51
4.2665314
0
ARC
8
DEFAULT_255_1_234
10
13.0456826
20
0.0006513
40
1.3695135
50
352.8366322
51
0.2782669
0
ARC
8
DEFAULT_255_1_234
10
13.5744505
20
-0.0680371
40
0.8363105
50
341.8359505
51
352.9884176
0
ARC
8
DEFAULT_255_1_234
10
13.8963224
20
-0.17653
40
0.4966642
50
322.8578092
51
342.1527901
0
ARC
8
DEFAULT_255_1_234
10
13.982718
20
-0.2354616
40
0.3922466
50
319.334325
51
322.0998941
0
ARC
8
DEFAULT_255_1_234
10
13.9517517
20
-0.2043791
40
0.4360033
50
285.9541367
51
318.8878087
0
ARC
8
DEFAULT_255_1_234
10
13.8790778
20
0.02666
40
0.678149
50
272.9281676
51
286.4922826
0
ARC
8
DEFAULT_255_1_234
10
13.8600896
20
0.2517587
40
0.9039547
50
270.8207226
51
273.4012994
0
ARC
8
DEFAULT_255_1_234
10
13.8689747
20
0.0698666
40
0.5967098
50
270.6214993
51
281.4062806
0
ARC
8
DEFAULT_255_1_234
10
13.9119728
20
-0.1357167
40
0.3866861
50
281.1852553
51
299.0621114
0
ARC
8
DEFAULT_255_1_234
10
13.9493299
20
-0.2078202
40
0.3055236
50
299.5067782
51
313.1200873
0
ARC
8
DEFAULT_255_1_234
10
13.9515266
20
-0.2157446
40
0.2982623
50
313.8526205
51
338.5989322
0
ARC
8
DEFAULT_255_1_234
10
13.789134
20
-0.1490219
40
0.4738131
50
338.2523585
51
351.2430902
0
ARC
8
DEFAULT_255_1_234
10
13.5480636
20
-0.1080553
40
0.7183203
50
350.9409515
51
357.6691871
0
ARC
8
DEFAULT_255_1_234
10
14.0371066
20
0.0921764
40
0.2294452
50
269.9447023
51
306.8248917
0
ARC
8
DEFAULT_255_1_234
10
14.0133981
20
0.1344898
40
0.2775994
50
305.5072438
51
327.0773448
0
ARC
8
DEFAULT_255_1_234
10
14.0252422
20
0.1250025
40
0.2625056
50
327.4104943
51
336.840169
0
ARC
8
DEFAULT_255_1_234
10
13.7158487
20
0.0844302
40
0.5507537
50
359.6633817
51
10.117533
0
ARC
8
DEFAULT_255_1_234
10
13.8912285
20
0.1168777
40
0.372403
50
9.9430141
51
26.7700076
0
ARC
8
DEFAULT_255_1_234
10
13.9509497
20
0.1444187
40
0.3066865
50
27.2015464
51
34.6829435
0
ARC
8
DEFAULT_255_1_234
10
13.9998978
20
0.1811977
40
0.245519
50
34.1250343
51
50.3070065
0
ARC
8
DEFAULT_255_1_234
10
14.0445657
20
0.2346385
40
0.1758693
50
50.3851167
51
90.6705993
0
ARC
8
DEFAULT_255_1_234
10
14.039889
20
0.2041799
40
0.2063326
50
89.272901
51
111.9140407
0
ARC
8
DEFAULT_255_1_234
10
14.0379418
20
0.218244
40
0.1925887
50
112.9382311
51
142.5320782
0
ARC
8
DEFAULT_255_1_234
10
14.0925598
20
0.1738969
40
0.2629232
50
142.1021256
51
166.3835592
0
ARC
8
DEFAULT_255_1_234
10
14.2106903
20
0.1433915
40
0.3849193
50
166.1100289
51
178.665427
0
ARC
8
DEFAULT_255_1_234
10
14.3154493
20
0.1375117
40
0.4897989
50
178.2632126
51
180.0111093
0
ARC
8
DEFAULT_255_1_234
10
14.2352613
20
0.1346728
40
0.40962
50
179.6161962
51
191.8787166
0
ARC
8
DEFAULT_255_1_234
10
14.1132452
20
0.1076896
40
0.2846655
50
191.6191692
51
215.2972286
0
ARC
8
DEFAULT_255_1_234
10
14.0935643
20
0.0961918
40
0.2619665
50
215.7320102
51
216.5355409
0
ARC
8
DEFAULT_255_1_234
10
14.039673
20
0.0529647
40
0.1929497
50
215.7486685
51
239.9727502
0
ARC
8
DEFAULT_255_1_234
10
14.0326645
20
0.0478894
40
0.1850822
50
241.0650169
51
269.2810483
0
ARC
8
DEFAULT_255_1_234
10
14.036856
20
0.0969371
40
0.2342059
50
268.4062526
51
270.0071348
0
ARC
8
DEFAULT_255_1_234
10
15.0469677
20
0.2103703
40
0.2822356
50
338.8763615
51
0.5166041
0
ARC
8
DEFAULT_255_1_234
10
15.0638332
20
0.2058208
40
0.2648703
50
325.8412414
51
338.4795939
0
ARC
8
DEFAULT_255_1_234
10
15.0247699
20
0.2329042
40
0.3124019
50
296.7586019
51
325.753654
0
ARC
8
DEFAULT_255_1_234
10
14.9959808
20
0.2813789
40
0.368668
50
296.0902311
51
297.3618122
0
ARC
8
DEFAULT_255_1_234
10
15.0217265
20
-0.3740959
40
0.3518806
50
47.9009248
51
67.1946869
0
ARC
8
DEFAULT_255_1_234
10
15.0413507
20
-0.3494605
40
0.320451
50
35.236241
51
47.551371
0
ARC
8
DEFAULT_255_1_234
10
15.0675125
20
-0.3320007
40
0.2890103
50
359.2759738
51
35.4014081
0
ARC
8
DEFAULT_255_1_234
10
14.9930156
20
-0.3393174
40
0.3635026
50
343.1294516
51
0.5776525
0
ARC
8
DEFAULT_255_1_234
10
15.0654701
20
-0.359267
40
0.2883832
50
310.8497458
51
342.744803
0
ARC
8
DEFAULT_255_1_234
10
15.0236814
20
-0.3115706
40
0.3517954
50
281.5473923
51
310.9169905
0
ARC
8
DEFAULT_255_1_234
10
14.9880264
20
-0.1562916
40
0.5110832
50
269.6192722
51
281.9789957
0
ARC
8
DEFAULT_255_1_234
10
14.9808053
20
-0.1562172
40
0.5111606
50
257.4584469
51
270.4287458
0
ARC
8
DEFAULT_255_1_234
10
14.9427196
20
-0.3165656
40
0.3463762
50
228.7553743
51
257.8484423
0
ARC
8
DEFAULT_255_1_234
10
14.9117394
20
-0.3538558
40
0.297916
50
184.0104442
51
228.5071787
0
ARC
8
DEFAULT_255_1_234
10
15.0280338
20
-0.3361488
40
0.4152734
50
179.9315461
51
185.3254504
0
ARC
8
DEFAULT_255_1_234
10
14.9103984
20
-0.3324008
40
0.2976554
50
145.6795913
51
180.6259649
0
ARC
8
DEFAULT_255_1_234
10
14.9267333
20
-0.3438071
40
0.3175776
50
115.5537925
51
145.6416199
0
ARC
8
DEFAULT_255_1_234
10
14.9608264
20
-0.4048972
40
0.3874232
50
113.2437915
51
116.2054627
0
ARC
8
DEFAULT_255_1_234
10
14.9455476
20
0.234958
40
0.3154751
50
222.9548379
51
244.1372485
0
ARC
8
DEFAULT_255_1_234
10
14.9333551
20
0.2212834
40
0.2972382
50
213.3439227
51
222.6271327
0
ARC
8
DEFAULT_255_1_234
10
14.9141486
20
0.2082308
40
0.274019
50
180.4316517
51
213.2713999
0
ARC
8
DEFAULT_255_1_234
10
14.9716487
20
0.212911
40
0.33158
50
179.9992944
51
181.1655061
0
ARC
8
DEFAULT_255_1_234
10
15.0125904
20
0.2163561
40
0.3725376
50
164.6186108
51
180.5292368
0
ARC
8
DEFAULT_255_1_234
10
14.9227767
20
0.2405101
40
0.2795349
50
132.2454369
51
164.5092287
0
ARC
8
DEFAULT_255_1_234
10
14.9514871
20
0.2080028
40
0.3229019
50
100.7052766
51
132.1387266
0
ARC
8
DEFAULT_255_1_234
10
14.9819843
20
0.0702086
40
0.4639835
50
89.6732617
51
101.2449487
0
ARC
8
DEFAULT_255_1_234
10
14.9882042
20
0.087699
40
0.4464999
50
76.2876631
51
90.4586123
0
ARC
8
DEFAULT_255_1_234
10
15.0188273
20
0.209922
40
0.3205023
50
47.8240157
51
76.4266918
0
ARC
8
DEFAULT_255_1_234
10
15.0410823
20
0.235959
40
0.2862661
50
6.9168658
51
47.6261438
0
ARC
8
DEFAULT_255_1_234
10
14.9224226
20
0.214037
40
0.4067708
50
359.8419705
51
7.9694496
0
ARC
8
DEFAULT_255_1_234
10
14.9566123
20
-0.3300075
40
0.2513121
50
359.4454068
51
16.9256425
0
ARC
8
DEFAULT_255_1_234
10
15.0034934
20
-0.3170967
40
0.2027071
50
17.292259
51
45.462717
0
ARC
8
DEFAULT_255_1_234
10
14.998087
20
-0.3217566
40
0.2098212
50
45.3028762
51
83.1921472
0
ARC
8
DEFAULT_255_1_234
10
14.9837554
20
-0.4019105
40
0.2911472
50
82.2614531
51
90.143954
0
ARC
8
DEFAULT_255_1_234
10
14.9806674
20
-0.378605
40
0.2678513
50
89.4959189
51
104.8579811
0
ARC
8
DEFAULT_255_1_234
10
14.9629933
20
-0.311611
40
0.1985654
50
104.8855873
51
135.2448349
0
ARC
8
DEFAULT_255_1_234
10
14.9679706
20
-0.3160664
40
0.2052373
50
135.3398955
51
172.104394
0
ARC
8
DEFAULT_255_1_234
10
15.0486764
20
-0.3315075
40
0.2873299
50
171.2651929
51
180.1859362
0
ARC
8
DEFAULT_255_1_234
10
15.0317465
20
-0.3347267
40
0.2704083
50
179.515471
51
193.6466734
0
ARC
8
DEFAULT_255_1_234
10
14.9501234
20
-0.3555223
40
0.1861855
50
193.3540587
51
225.8256931
0
ARC
8
DEFAULT_255_1_234
10
14.9541992
20
-0.3484476
40
0.1941102
50
226.418029
51
255.8553723
0
ARC
8
DEFAULT_255_1_234
10
14.9798424
20
-0.2548002
40
0.2911917
50
255.4655572
51
268.7985967
0
ARC
8
DEFAULT_255_1_234
10
14.9845616
20
-0.1709509
40
0.3751331
50
268.3464808
51
270.0104874
0
ARC
8
DEFAULT_255_1_234
10
14.9869004
20
-0.2393862
40
0.3067064
50
269.575914
51
282.0823146
0
ARC
8
DEFAULT_255_1_234
10
15.0093913
20
-0.3388197
40
0.2047712
50
281.7522535
51
306.6056425
0
ARC
8
DEFAULT_255_1_234
10
15.0192339
20
-0.3549513
40
0.1859604
50
307.1350025
51
314.0277951
0
ARC
8
DEFAULT_255_1_234
10
15.0156424
20
-0.3523234
40
0.1903475
50
314.2553419
51
350.169324
0
ARC
8
DEFAULT_255_1_234
10
14.9304892
20
-0.3338591
40
0.2774269
50
349.4145679
51
0.2930737
0
ARC
8
DEFAULT_255_1_234
10
14.9825325
20
0.1820353
40
0.2300764
50
89.477591
51
105.729794
0
ARC
8
DEFAULT_255_1_234
10
14.9689239
20
0.2325637
40
0.1777519
50
105.922966
51
135.1662921
0
ARC
8
DEFAULT_255_1_234
10
14.9709741
20
0.2311419
40
0.1802087
50
135.3053131
51
168.9882338
0
ARC
8
DEFAULT_255_1_234
10
15.0537314
20
0.2121721
40
0.2650806
50
168.3802067
51
180.3602358
0
ARC
8
DEFAULT_255_1_234
10
15.0308893
20
0.2084041
40
0.2422425
50
179.5029707
51
194.9126783
0
ARC
8
DEFAULT_255_1_234
10
14.9723554
20
0.193011
40
0.1817188
50
194.9722181
51
224.1943972
0
ARC
8
DEFAULT_255_1_234
10
14.9695421
20
0.1907169
40
0.1781027
50
224.2961434
51
262.0157375
0
ARC
8
DEFAULT_255_1_234
10
14.9837664
20
0.2638661
40
0.2525492
50
261.1250369
51
270.1959853
0
ARC
8
DEFAULT_255_1_234
10
14.9867419
20
0.2451339
40
0.233825
50
269.4825617
51
285.0988277
0
ARC
8
DEFAULT_255_1_234
10
15.0021578
20
0.187299
40
0.1739712
50
285.1585659
51
315.9484648
0
ARC
8
DEFAULT_255_1_234
10
14.993259
20
0.1954886
40
0.1860616
50
316.0412958
51
351.9162715
0
ARC
8
DEFAULT_255_1_234
10
14.9199545
20
0.2096245
40
0.2606517
50
351.1056823
51
0.1936567
0
ARC
8
DEFAULT_255_1_234
10
14.9462374
20
0.2126369
40
0.234377
50
359.4789506
51
16.0679113
0
ARC
8
DEFAULT_255_1_234
10
14.9938333
20
0.225481
40
0.1850875
50
16.3251951
51
44.791304
0
ARC
8
DEFAULT_255_1_234
10
14.9920614
20
0.2255339
40
0.186312
50
44.3958661
51
88.2498933
0
ARC
8
DEFAULT_255_1_234
10
14.9847168
20
0.1644154
40
0.2476868
50
86.9833827
51
90.0200148
0
LINE
8
DEFAULT_255_1_234
10
15.8681215
20
-0.0938974
11
15.8681215
21
-0.2151766
0
LINE
8
DEFAULT_255_1_234
10
15.8681215
20
-0.2151766
11
15.4761727
21
-0.2151766
0
LINE
8
DEFAULT_255_1_234
10
15.4761727
20
-0.2151766
11
15.4761727
21
-0.0938974
0
LINE
8
DEFAULT_255_1_234
10
15.4761727
20
-0.0938974
11
15.8681215
21
-0.0938974
0
LINE
8
DEFAULT_255_1_234
10
16.7411714
20
-0.2802337
11
16.896184
21
-0.2802337
0
LINE
8
DEFAULT_255_1_234
10
15.9958261
20
-0.1212053
11
15.9958261
21
-0.0087609
0
LINE
8
DEFAULT_255_1_234
10
16.896184
20
0.1422357
11
16.7411714
21
0.1422357
0
LINE
8
DEFAULT_255_1_234
10
16.1508387
20
-0.0127768
11
16.1508387
21
-0.1260243
0
ARC
8
DEFAULT_255_1_234
10
16.3481227
20
-0.2205154
40
0.5513052
50
340.1774281
51
353.7814284
0
ARC
8
DEFAULT_255_1_234
10
16.5052579
20
-0.2790418
40
0.3836379
50
311.4558989
51
340.4421614
0
ARC
8
DEFAULT_255_1_234
10
16.5019247
20
-0.2679472
40
0.3941894
50
282.4333181
51
310.7513653
0
ARC
8
DEFAULT_255_1_234
10
16.4579987
20
-0.0864321
40
0.5809175
50
269.9358511
51
282.809604
0
ARC
8
DEFAULT_255_1_234
10
16.4528053
20
0.0593212
40
0.7266847
50
270.0021091
51
270.3581957
0
ARC
8
DEFAULT_255_1_234
10
16.447547
20
-0.2007415
40
0.4666519
50
250.7884749
51
270.6489167
0
ARC
8
DEFAULT_255_1_234
10
16.4307304
20
-0.2644681
40
0.4009729
50
219.3627325
51
250.0611886
0
ARC
8
DEFAULT_255_1_234
10
16.5136515
20
-0.1939958
40
0.5097822
50
193.5479632
51
219.5756669
0
ARC
8
DEFAULT_255_1_234
10
16.7508136
20
-0.1324081
40
0.7547848
50
181.1218675
51
193.87563
0
ARC
8
DEFAULT_255_1_234
10
16.9578317
20
-0.121342
40
0.9620055
50
179.9918545
51
181.5394234
0
ARC
8
DEFAULT_255_1_234
10
16.7727419
20
-0.0050212
40
0.7769248
50
169.5837241
51
180.2757934
0
ARC
8
DEFAULT_255_1_234
10
16.5890357
20
0.0289229
40
0.590109
50
155.0365899
51
169.6003176
0
ARC
8
DEFAULT_255_1_234
10
16.4754821
20
0.0836677
40
0.4640625
50
136.783148
51
155.2472683
0
ARC
8
DEFAULT_255_1_234
10
16.4365298
20
0.1167562
40
0.4130255
50
121.7633186
51
136.428115
0
ARC
8
DEFAULT_255_1_234
10
16.450026
20
0.0918227
40
0.4413323
50
95.6459699
51
121.5490577
0
ARC
8
DEFAULT_255_1_234
10
16.4657542
20
-0.0190051
40
0.55319
50
89.924208
51
96.1377933
0
ARC
8
DEFAULT_255_1_234
10
16.4707975
20
-0.0071458
40
0.5413475
50
76.6779277
51
90.4563316
0
ARC
8
DEFAULT_255_1_234
10
16.5101598
20
0.1519114
40
0.3775041
50
47.485847
51
76.9287264
0
ARC
8
DEFAULT_255_1_234
10
16.4954571
20
0.1419159
40
0.3948286
50
16.5424086
51
46.8933463
0
ARC
8
DEFAULT_255_1_234
10
16.3346728
20
0.0890861
40
0.564021
50
5.4072051
51
17.0365086
0
ARC
8
DEFAULT_255_1_234
10
16.1907746
20
0.0659679
40
0.5556559
50
7.8891745
51
15.9239216
0
ARC
8
DEFAULT_255_1_234
10
16.3894759
20
0.1236631
40
0.3487515
50
15.7653144
51
27.9410532
0
ARC
8
DEFAULT_255_1_234
10
16.4998977
20
0.182779
40
0.2235026
50
27.8166557
51
46.4008329
0
ARC
8
DEFAULT_255_1_234
10
16.5048619
20
0.1822082
40
0.2205286
50
47.4371857
51
75.0698205
0
ARC
8
DEFAULT_255_1_234
10
16.4740014
20
0.0747765
40
0.3322915
50
74.7008593
51
87.8124495
0
ARC
8
DEFAULT_255_1_234
10
16.4666702
20
-0.0308156
40
0.4380987
50
87.3814673
51
90.0240855
0
ARC
8
DEFAULT_255_1_234
10
16.4628245
20
0.0869291
40
0.3203749
50
89.3451631
51
108.5745436
0
ARC
8
DEFAULT_255_1_234
10
16.449135
20
0.1382908
40
0.2673494
50
109.2998449
51
143.3037509
0
ARC
8
DEFAULT_255_1_234
10
16.5253423
20
0.0796881
40
0.3634757
50
143.0753173
51
163.1916937
0
ARC
8
DEFAULT_255_1_234
10
16.720515
20
0.0180967
40
0.5681262
50
162.9373603
51
174.6208611
0
ARC
8
DEFAULT_255_1_234
10
16.9831192
20
-0.010699
40
0.8322832
50
174.3419979
51
180.1430411
0
ARC
8
DEFAULT_255_1_234
10
16.8900349
20
-0.1301302
40
0.7392076
50
179.6817502
51
189.150529
0
ARC
8
DEFAULT_255_1_234
10
16.6399597
20
-0.171781
40
0.4856932
50
188.9910863
51
203.5773039
0
ARC
8
DEFAULT_255_1_234
10
16.531993
20
-0.2165789
40
0.3688271
50
203.9077269
51
215.1312379
0
ARC
8
DEFAULT_255_1_234
10
16.4397023
20
-0.2881059
40
0.2522457
50
213.9071664
51
263.8849284
0
ARC
8
DEFAULT_255_1_234
10
16.4522353
20
-0.2096482
40
0.3316174
50
263.1758525
51
270.1031083
0
ARC
8
DEFAULT_255_1_234
10
16.4554444
20
-0.0849635
40
0.4563091
50
269.6719807
51
279.0609165
0
ARC
8
DEFAULT_255_1_234
10
16.4821212
20
-0.2462093
40
0.2928759
50
278.8750225
51
293.6346586
0
ARC
8
DEFAULT_255_1_234
10
16.514142
20
-0.32141
40
0.2111472
50
293.8553404
51
310.0518804
0
ARC
8
DEFAULT_255_1_234
10
16.5146274
20
-0.3276484
40
0.2060917
50
311.0646779
51
332.0108348
0
ARC
8
DEFAULT_255_1_234
10
16.3954001
20
-0.2619022
40
0.3422352
50
331.6588543
51
343.2878891
0
ARC
8
DEFAULT_255_1_234
10
16.1891516
20
-0.1985202
40
0.5580003
50
343.1446044
51
351.010618
0
ARC
8
DEFAULT_255_1_234
10
16.0350162
20
-0.1704129
40
0.7146438
50
350.7157277
51
351.1602153
0
LINE
8
DEFAULT_255_1_234
10
18.005367
20
0.5181211
11
18.005367
21
-0.6513
0
LINE
8
DEFAULT_255_1_234
10
18.005367
20
-0.6513
11
17.8503545
21
-0.6513
0
LINE
8
DEFAULT_255_1_234
10
17.8503545
20
-0.6513
11
17.2616281
21
0.249861
0
LINE
8
DEFAULT_255_1_234
10
17.2616281
20
0.249861
11
17.2616281
21
-0.6513
0
LINE
8
DEFAULT_255_1_234
10
17.2616281
20
-0.6513
11
17.1066155
21
-0.6513
0
LINE
8
DEFAULT_255_1_234
10
17.1066155
20
-0.6513
11
17.1066155
21
0.5181211
0
LINE
8
DEFAULT_255_1_234
10
17.1066155
20
0.5181211
11
17.2616281
21
0.5181211
0
LINE
8
DEFAULT_255_1_234
10
17.2616281
20
0.5181211
11
17.8519608
21
-0.3870558
0
LINE
8
DEFAULT_255_1_234
10
17.8519608
20
-0.3870558
11
17.8519608
21
0.5181211
0
LINE
8
DEFAULT_255_1_234
10
17.8519608
20
0.5181211
11
18.005367
21
0.5181211
0
ARC
8
DEFAULT_255_2_778
10
17.2795513
20
25.8265655
40
0.9032652
50
36.6636783
51
62.8800292
0
ARC
8
DEFAULT_255_2_778
10
17.362048
20
27.0955795
40
0.5698185
50
305.2984654
51
359.1896208
0
ARC
8
DEFAULT_255_2_778
10
17.3634372
20
27.0909256
40
0.5683825
50
359.6567283
51
359.9965559
0
ARC
8
DEFAULT_255_2_778
10
17.3738628
20
27.0907968
40
0.5579568
50
0.0097156
51
44.9837975
0
ARC
8
DEFAULT_255_2_778
10
17.3736736
20
27.0909297
40
0.5579968
50
44.9604089
51
90.0139948
0
ARC
8
DEFAULT_255_2_778
10
17.3735813
20
27.0733846
40
0.5755419
50
90.0043846
51
90.2659864
0
ARC
8
DEFAULT_255_2_778
10
17.3015142
20
25.8802344
40
0.8779024
50
272.428255
51
302.0472027
0
ARC
8
DEFAULT_255_2_778
10
17.3149911
20
25.8457487
40
0.841549
50
302.5153244
51
0.4882776
0
ARC
8
DEFAULT_255_2_778
10
17.3237108
20
25.8737449
40
0.833059
50
358.5675863
51
29.0157619
0
ARC
8
DEFAULT_255_2_778
10
15.115709
20
25.8276166
40
0.90203
50
36.6388615
51
62.8867752
0
ARC
8
DEFAULT_255_2_778
10
15.1980877
20
27.0952954
40
0.5692748
50
305.2706468
51
359.2174393
0
ARC
8
DEFAULT_255_2_778
10
15.2034234
20
27.0905241
40
0.563894
50
359.6947901
51
359.9999584
0
ARC
8
DEFAULT_255_2_778
10
15.2087973
20
27.0905658
40
0.5585202
50
359.9956834
51
44.9740581
0
ARC
8
DEFAULT_255_2_778
10
15.2089428
20
27.090379
40
0.5585493
50
44.9981599
51
89.9835716
0
ARC
8
DEFAULT_255_2_778
10
15.2091033
20
27.0886996
40
0.5602288
50
90.0000417
51
90.3061883
0
ARC
8
DEFAULT_255_2_778
10
15.1365968
20
25.8803822
40
0.8780507
50
272.42898
51
302.0445025
0
ARC
8
DEFAULT_255_2_778
10
15.1501929
20
25.8457943
40
0.8415468
50
302.5093151
51
0.4851764
0
ARC
8
DEFAULT_255_2_778
10
15.1579024
20
25.8734974
40
0.8340609
50
358.5863171
51
28.9970314
0
LINE
8
DEFAULT_255_2_778
10
13.4101095
20
26.3659203
11
12.9532095
21
27.6489203
0
LINE
8
DEFAULT_255_2_778
10
12.9532095
20
27.6489203
11
12.6084095
21
27.6489203
0
LINE
8
DEFAULT_255_2_778
10
12.6084095
20
27.6489203
11
12.6084095
21
26.3659203
0
LINE
8
DEFAULT_255_2_778
10
12.6084095
20
26.3659203
11
13.4101095
21
26.3659203
0
LINE
8
DEFAULT_255_2_778
10
12.6084095
20
25.5642203
11
13.0334095
21
25.5642203
0
LINE
8
DEFAULT_255_2_778
10
13.0334095
20
25.5642203
11
13.2257095
21
25.0031203
0
LINE
8
DEFAULT_255_2_778
10
13.2257095
20
25.0031203
11
13.8911095
21
25.0031203
0
LINE
8
DEFAULT_255_2_778
10
13.8911095
20
25.0031203
11
13.4342095
21
26.2858203
0
LINE
8
DEFAULT_255_2_778
10
13.4342095
20
26.2858203
11
12.6084095
21
26.2858203
0
LINE
8
DEFAULT_255_2_778
10
12.6084095
20
26.2858203
11
12.6084095
21
25.5642203
0
LINE
8
DEFAULT_255_2_778
10
12.5283095
20
27.6489203
11
12.1835095
21
27.6489203
0
LINE
8
DEFAULT_255_2_778
10
12.1835095
20
27.6489203
11
11.7266095
21
26.3659203
0
LINE
8
DEFAULT_255_2_778
10
11.7266095
20
26.3659203
11
12.5283095
21
26.3659203
0
LINE
8
DEFAULT_255_2_778
10
12.5283095
20
26.3659203
11
12.5283095
21
27.6489203
0
LINE
8
DEFAULT_255_2_778
10
11.7025095
20
26.2858203
11
11.2453095
21
25.0031203
0
LINE
8
DEFAULT_255_2_778
10
11.2453095
20
25.0031203
11
11.9107095
21
25.0031203
0
LINE
8
DEFAULT_255_2_778
10
11.9107095
20
25.0031203
11
12.1031095
21
25.5642203
0
LINE
8
DEFAULT_255_2_778
10
12.1031095
20
25.5642203
11
12.5280095
21
25.5642203
0
LINE
8
DEFAULT_255_2_778
10
12.5280095
20
25.5642203
11
12.5280095
21
26.2858203
0
LINE
8
DEFAULT_255_2_778
10
12.5280095
20
26.2858203
11
11.7025095
21
26.2858203
0
LINE
8
DEFAULT_255_2_778
10
16.2965095
20
27.6489203
11
17.0981095
21
27.6489203
0
LINE
8
DEFAULT_255_2_778
10
17.0981095
20
27.6489203
11
17.0981095
21
26.3659203
0
LINE
8
DEFAULT_255_2_778
10
17.0981095
20
26.3659203
11
16.2965095
21
26.3659203
0
LINE
8
DEFAULT_255_2_778
10
16.2965095
20
26.3659203
11
16.2965095
21
27.6489203
0
LINE
8
DEFAULT_255_2_778
10
17.3709095
20
27.6489203
11
17.1786095
21
27.6489203
0
LINE
8
DEFAULT_255_2_778
10
17.1786095
20
27.6489203
11
17.1786095
21
26.3659203
0
LINE
8
DEFAULT_255_2_778
10
17.1786095
20
26.3659203
11
18.0043095
21
26.3659203
0
LINE
8
DEFAULT_255_2_778
10
18.0043095
20
26.3659203
11
18.0041095
21
26.3659203
0
LINE
8
DEFAULT_255_2_778
10
16.2965095
20
26.2858203
11
17.0981095
21
26.2858203
0
LINE
8
DEFAULT_255_2_778
10
17.0981095
20
26.2858203
11
17.0981095
21
25.0031203
0
LINE
8
DEFAULT_255_2_778
10
17.0981095
20
25.0031203
11
16.2965095
21
25.0031203
0
LINE
8
DEFAULT_255_2_778
10
16.2965095
20
25.0031203
11
16.2965095
21
26.2858203
0
LINE
8
DEFAULT_255_2_778
10
17.1783095
20
25.0031203
11
17.3387095
21
25.0031203
0
LINE
8
DEFAULT_255_2_778
10
18.0522095
20
26.2778203
11
17.1783095
21
26.2778203
0
LINE
8
DEFAULT_255_2_778
10
17.1783095
20
26.2778203
11
17.1783095
21
25.0031203
0
LINE
8
DEFAULT_255_2_778
10
17.1783095
20
25.0031203
11
17.1783095
21
25.0031203
0
LINE
8
DEFAULT_255_2_778
10
14.1316095
20
27.6489203
11
14.9333095
21
27.6489203
0
LINE
8
DEFAULT_255_2_778
10
14.9333095
20
27.6489203
11
14.9333095
21
26.3659203
0
LINE
8
DEFAULT_255_2_778
10
14.9333095
20
26.3659203
11
14.1316095
21
26.3659203
0
LINE
8
DEFAULT_255_2_778
10
14.1316095
20
26.3659203
11
14.1316095
21
27.6489203
0
LINE
8
DEFAULT_255_2_778
10
15.2061095
20
27.6489203
11
15.0138095
21
27.6489203
0
LINE
8
DEFAULT_255_2_778
10
15.0138095
20
27.6489203
11
15.0138095
21
26.3659203
0
LINE
8
DEFAULT_255_2_778
10
15.0138095
20
26.3659203
11
15.8395095
21
26.3659203
0
LINE
8
DEFAULT_255_2_778
10
15.8395095
20
26.3659203
11
15.8395095
21
26.3659203
0
LINE
8
DEFAULT_255_2_778
10
14.1316095
20
26.2858203
11
14.9333095
21
26.2858203
0
LINE
8
DEFAULT_255_2_778
10
14.9333095
20
26.2858203
11
14.9333095
21
25.0031203
0
LINE
8
DEFAULT_255_2_778
10
14.9333095
20
25.0031203
11
14.1316095
21
25.0031203
0
LINE
8
DEFAULT_255_2_778
10
14.1316095
20
25.0031203
11
14.1316095
21
26.2858203
0
LINE
8
DEFAULT_255_2_778
10
15.0135095
20
25.0031203
11
15.1738095
21
25.0031203
0
LINE
8
DEFAULT_255_2_778
10
15.8874095
20
26.2778203
11
15.0135095
21
26.2778203
0
LINE
8
DEFAULT_255_2_778
10
15.0135095
20
26.2778203
11
15.0135095
21
25.0031203
0
LINE
8
DEFAULT_255_2_778
10
15.0135095
20
25.0031203
11
15.0135095
21
25.0031203
0
LINE
8
DEFAULT_255_1_234
10
12.5959293
20
22.4997
11
12.4842881
21
22.8049061
0
LINE
8
DEFAULT_255_1_234
10
12.4842881
20
22.8049061
11
11.9943521
21
22.8049061
0
LINE
8
DEFAULT_255_1_234
10
11.9943521
20
22.8049061
11
11.8843173
21
22.4997
0
LINE
8
DEFAULT_255_1_234
10
11.8843173
20
22.4997
11
11.7252889
21
22.4997
0
LINE
8
DEFAULT_255_1_234
10
11.7252889
20
22.4997
11
12.1718535
21
23.6691211
0
LINE
8
DEFAULT_255_1_234
10
12.1718535
20
23.6691211
11
12.3067867
21
23.6691211
0
LINE
8
DEFAULT_255_1_234
10
12.3067867
20
23.6691211
11
12.7541545
21
22.4997
0
LINE
8
DEFAULT_255_1_234
10
12.7541545
20
22.4997
11
12.5959293
21
22.4997
0
LINE
8
DEFAULT_255_1_234
10
12.2393201
20
23.4787689
11
12.0409362
21
22.9318075
0
LINE
8
DEFAULT_255_1_234
10
12.0409362
20
22.9318075
11
12.4385072
21
22.9318075
0
LINE
8
DEFAULT_255_1_234
10
12.4385072
20
22.9318075
11
12.2393201
21
23.4787689
0
LINE
8
DEFAULT_255_1_234
10
13.6079283
20
22.8707663
11
13.7629409
21
22.8707663
0
LINE
8
DEFAULT_255_1_234
10
12.862583
20
23.0297947
11
12.862583
21
23.1422391
0
LINE
8
DEFAULT_255_1_234
10
13.7629409
20
23.2932357
11
13.6079283
21
23.2932357
0
LINE
8
DEFAULT_255_1_234
10
13.0175956
20
23.1382232
11
13.0175956
21
23.0249757
0
ARC
8
DEFAULT_255_1_234
10
13.2148796
20
22.9304846
40
0.5513052
50
340.1774281
51
353.7814284
0
ARC
8
DEFAULT_255_1_234
10
13.3720148
20
22.8719582
40
0.3836379
50
311.4558989
51
340.4421614
0
ARC
8
DEFAULT_255_1_234
10
13.3686816
20
22.8830528
40
0.3941894
50
282.4333181
51
310.7513653
0
ARC
8
DEFAULT_255_1_234
10
13.3247555
20
23.0645679
40
0.5809175
50
269.9358511
51
282.809604
0
ARC
8
DEFAULT_255_1_234
10
13.3195622
20
23.2103212
40
0.7266847
50
270.0021091
51
270.3581957
0
ARC
8
DEFAULT_255_1_234
10
13.3143039
20
22.9502585
40
0.4666519
50
250.7884749
51
270.6489167
0
ARC
8
DEFAULT_255_1_234
10
13.2974873
20
22.8865319
40
0.4009729
50
219.3627325
51
250.0611886
0
ARC
8
DEFAULT_255_1_234
10
13.3804084
20
22.9570042
40
0.5097822
50
193.5479632
51
219.5756669
0
ARC
8
DEFAULT_255_1_234
10
13.6175705
20
23.0185919
40
0.7547848
50
181.1218675
51
193.87563
0
ARC
8
DEFAULT_255_1_234
10
13.8245886
20
23.029658
40
0.9620055
50
179.9918545
51
181.5394234
0
ARC
8
DEFAULT_255_1_234
10
13.6394988
20
23.1459788
40
0.7769248
50
169.5837241
51
180.2757934
0
ARC
8
DEFAULT_255_1_234
10
13.4557926
20
23.1799229
40
0.590109
50
155.0365899
51
169.6003176
0
ARC
8
DEFAULT_255_1_234
10
13.342239
20
23.2346677
40
0.4640625
50
136.783148
51
155.2472683
0
ARC
8
DEFAULT_255_1_234
10
13.3032867
20
23.2677562
40
0.4130255
50
121.7633186
51
136.428115
0
ARC
8
DEFAULT_255_1_234
10
13.3167829
20
23.2428227
40
0.4413323
50
95.6459699
51
121.5490577
0
ARC
8
DEFAULT_255_1_234
10
13.3325111
20
23.1319949
40
0.55319
50
89.924208
51
96.1377933
0
ARC
8
DEFAULT_255_1_234
10
13.3375544
20
23.1438542
40
0.5413475
50
76.6779277
51
90.4563316
0
ARC
8
DEFAULT_255_1_234
10
13.3769167
20
23.3029114
40
0.3775041
50
47.485847
51
76.9287264
0
ARC
8
DEFAULT_255_1_234
10
13.362214
20
23.2929159
40
0.3948286
50
16.5424086
51
46.8933463
0
ARC
8
DEFAULT_255_1_234
10
13.2014297
20
23.2400861
40
0.564021
50
5.4072051
51
17.0365086
0
ARC
8
DEFAULT_255_1_234
10
13.0575314
20
23.2169679
40
0.5556559
50
7.8891745
51
15.9239216
0
ARC
8
DEFAULT_255_1_234
10
13.2562328
20
23.2746631
40
0.3487515
50
15.7653144
51
27.9410532
0
ARC
8
DEFAULT_255_1_234
10
13.3666546
20
23.333779
40
0.2235026
50
27.8166557
51
46.4008329
0
ARC
8
DEFAULT_255_1_234
10
13.3716188
20
23.3332082
40
0.2205286
50
47.4371857
51
75.0698205
0
ARC
8
DEFAULT_255_1_234
10
13.3407583
20
23.2257765
40
0.3322915
50
74.7008593
51
87.8124495
0
ARC
8
DEFAULT_255_1_234
10
13.333427
20
23.1201844
40
0.4380987
50
87.3814673
51
90.0240855
0
ARC
8
DEFAULT_255_1_234
10
13.3295814
20
23.2379291
40
0.3203749
50
89.3451631
51
108.5745436
0
ARC
8
DEFAULT_255_1_234
10
13.3158919
20
23.2892908
40
0.2673494
50
109.2998449
51
143.3037509
0
ARC
8
DEFAULT_255_1_234
10
13.3920992
20
23.2306881
40
0.3634757
50
143.0753173
51
163.1916937
0
ARC
8
DEFAULT_255_1_234
10
13.5872719
20
23.1690967
40
0.5681262
50
162.9373603
51
174.6208611
0
ARC
8
DEFAULT_255_1_234
10
13.8498761
20
23.140301
40
0.8322832
50
174.3419979
51
180.1430411
0
ARC
8
DEFAULT_255_1_234
10
13.7567918
20
23.0208698
40
0.7392076
50
179.6817502
51
189.150529
0
ARC
8
DEFAULT_255_1_234
10
13.5067166
20
22.979219
40
0.4856932
50
188.9910863
51
203.5773039
0
ARC
8
DEFAULT_255_1_234
10
13.3987498
20
22.9344211
40
0.3688271
50
203.9077269
51
215.1312379
0
ARC
8
DEFAULT_255_1_234
10
13.3064592
20
22.8628941
40
0.2522457
50
213.9071664
51
263.8849284
0
ARC
8
DEFAULT_255_1_234
10
13.3189921
20
22.9413518
40
0.3316174
50
263.1758525
51
270.1031083
0
ARC
8
DEFAULT_255_1_234
10
13.3222013
20
23.0660365
40
0.4563091
50
269.6719807
51
279.0609165
0
ARC
8
DEFAULT_255_1_234
10
13.3488781
20
22.9047907
40
0.2928759
50
278.8750225
51
293.6346586
0
ARC
8
DEFAULT_255_1_234
10
13.3808989
20
22.82959
40
0.2111472
50
293.8553404
51
310.0518804
0
ARC
8
DEFAULT_255_1_234
10
13.3813843
20
22.8233516
40
0.2060917
50
311.0646779
51
332.0108348
0
ARC
8
DEFAULT_255_1_234
10
13.262157
20
22.8890978
40
0.3422352
50
331.6588543
51
343.2878891
0
ARC
8
DEFAULT_255_1_234
10
13.0559085
20
22.9524798
40
0.5580003
50
343.1446044
51
351.010618
0
ARC
8
DEFAULT_255_1_234
10
12.9017731
20
22.9805871
40
0.7146438
50
350.7157277
51
351.1602153
0
LINE
8
DEFAULT_255_1_234
10
14.1219596
20
23.0554963
11
14.0030898
21
23.0860169
0
LINE
8
DEFAULT_255_1_234
10
14.0030898
20
23.0860169
11
14.0625247
21
23.6691211
0
LINE
8
DEFAULT_255_1_234
10
14.0625247
20
23.6691211
11
14.6616924
21
23.6691211
0
LINE
8
DEFAULT_255_1_234
10
14.6616924
20
23.6691211
11
14.6616924
21
23.5317784
0
LINE
8
DEFAULT_255_1_234
10
14.6616924
20
23.5317784
11
14.188623
21
23.5317784
0
LINE
8
DEFAULT_255_1_234
10
14.188623
20
23.5317784
11
14.1532833
21
23.2129184
0
LINE
8
DEFAULT_255_1_234
10
13.9613248
20
22.8073156
11
14.1018802
21
22.8073156
0
LINE
8
DEFAULT_255_1_234
10
14.1613151
20
23.0876232
11
14.1219596
21
23.0554963
0
ARC
8
DEFAULT_255_1_234
10
14.3387617
20
22.894923
40
0.3681349
50
93.7182161
51
120.2538958
0
ARC
8
DEFAULT_255_1_234
10
14.348188
20
22.8141394
40
0.449379
50
89.9660152
51
94.2496022
0
ARC
8
DEFAULT_255_1_234
10
14.3522614
20
22.8730549
40
0.390482
50
73.8043271
51
90.5585896
0
ARC
8
DEFAULT_255_1_234
10
14.3757511
20
22.9588602
40
0.3015334
50
41.3071453
51
73.5430202
0
ARC
8
DEFAULT_255_1_234
10
14.3341339
20
22.9230324
40
0.3564457
50
13.5075983
51
41.2174222
0
ARC
8
DEFAULT_255_1_234
10
14.1699542
20
22.8800486
40
0.5261351
50
1.1331335
51
13.8829381
0
ARC
8
DEFAULT_255_1_234
10
14.0287911
20
22.8724665
40
0.6674378
50
359.9919444
51
1.544251
0
ARC
8
DEFAULT_255_1_234
10
14.1564738
20
22.868328
40
0.5397702
50
347.8572367
51
0.4293338
0
ARC
8
DEFAULT_255_1_234
10
14.3315055
20
22.8286736
40
0.3603188
50
323.673004
51
348.1672506
0
ARC
8
DEFAULT_255_1_234
10
14.3609563
20
22.8107168
40
0.3259678
50
316.8171152
51
323.1492751
0
ARC
8
DEFAULT_255_1_234
10
14.3670752
20
22.807046
40
0.3189975
50
281.8396411
51
316.5457803
0
ARC
8
DEFAULT_255_1_234
10
14.3295016
20
22.9625762
40
0.4789527
50
269.5770101
51
282.4214771
0
ARC
8
DEFAULT_255_1_234
10
14.3223828
20
22.9412125
40
0.45759
50
256.2427136
51
270.4486331
0
ARC
8
DEFAULT_255_1_234
10
14.292473
20
22.8212229
40
0.3339303
50
228.9023911
51
256.3314342
0
ARC
8
DEFAULT_255_1_234
10
14.2850963
20
22.8095746
40
0.32031
50
193.753695
51
228.5271154
0
ARC
8
DEFAULT_255_1_234
10
14.4088917
20
22.84588
40
0.4492253
50
184.924711
51
194.497588
0
ARC
8
DEFAULT_255_1_234
10
14.4281483
20
22.8494591
40
0.3289787
50
187.3600538
51
198.6732863
0
ARC
8
DEFAULT_255_1_234
10
14.3231777
20
22.8130674
40
0.217884
50
198.4451669
51
217.794479
0
ARC
8
DEFAULT_255_1_234
10
14.2935953
20
22.7921085
40
0.1816698
50
218.2887171
51
228.5612368
0
ARC
8
DEFAULT_255_1_234
10
14.303374
20
22.8052963
40
0.1980329
50
228.9654866
51
258.1234728
0
ARC
8
DEFAULT_255_1_234
10
14.323945
20
22.8933833
40
0.2884748
50
257.7258293
51
270.401361
0
ARC
8
DEFAULT_255_1_234
10
14.3284336
20
22.8488821
40
0.2439788
50
269.4204404
51
286.4209037
0
ARC
8
DEFAULT_255_1_234
10
14.3432823
20
22.7949657
40
0.1880666
50
286.7251356
51
320.600362
0
ARC
8
DEFAULT_255_1_234
10
14.3049648
20
22.8260595
40
0.2374121
50
320.6712579
51
344.5441685
0
ARC
8
DEFAULT_255_1_234
10
14.1892975
20
22.8600045
40
0.3579479
50
344.2412205
51
356.7357071
0
ARC
8
DEFAULT_255_1_234
10
14.0644123
20
22.8703444
40
0.4832297
50
356.3548756
51
0.0500261
0
ARC
8
DEFAULT_255_1_234
10
14.1980632
20
22.873465
40
0.3495889
50
359.5576869
51
12.953486
0
ARC
8
DEFAULT_255_1_234
10
14.303553
20
22.8990434
40
0.2410532
50
12.6490276
51
41.6081334
0
ARC
8
DEFAULT_255_1_234
10
14.3265901
20
22.9186321
40
0.2108218
50
41.7850273
51
85.9892764
0
ARC
8
DEFAULT_255_1_234
10
14.3142637
20
22.8373462
40
0.2928454
50
84.6957577
51
90.0676183
0
ARC
8
DEFAULT_255_1_234
10
14.3119121
20
22.7704716
40
0.3597255
50
89.6804936
51
99.1614436
0
ARC
8
DEFAULT_255_1_234
10
14.2913753
20
22.8932131
40
0.235281
50
98.9830931
51
113.8908934
0
ARC
8
DEFAULT_255_1_234
10
14.2684163
20
22.9473587
40
0.176479
50
114.1950727
51
127.3641004
0
LINE
8
DEFAULT_255_1_234
10
15.5917677
20
23.1912327
11
15.5917677
21
22.9984709
0
LINE
8
DEFAULT_255_1_234
10
14.8536509
20
22.9783916
11
14.8536509
21
23.1767755
0
LINE
8
DEFAULT_255_1_234
10
15.4431805
20
22.9583123
11
15.4431805
21
23.2016739
0
LINE
8
DEFAULT_255_1_234
10
15.0022381
20
23.2129184
11
15.0022381
21
22.9751789
0
ARC
8
DEFAULT_255_1_234
10
14.3670566
20
22.9935805
40
1.2247208
50
353.8441951
51
0.2287902
0
ARC
8
DEFAULT_255_1_234
10
14.831007
20
22.9417806
40
0.7578929
50
344.4934747
51
353.9765454
0
ARC
8
DEFAULT_255_1_234
10
15.130266
20
22.8566981
40
0.4467846
50
329.2803592
51
344.7472793
0
ARC
8
DEFAULT_255_1_234
10
15.2295485
20
22.8022018
40
0.3336173
50
324.9352394
51
328.6160465
0
ARC
8
DEFAULT_255_1_234
10
15.2672594
20
22.7758427
40
0.2876076
50
280.580143
51
324.9173126
0
ARC
8
DEFAULT_255_1_234
10
15.2271386
20
22.9429099
40
0.4592847
50
269.5977311
51
281.6734359
0
ARC
8
DEFAULT_255_1_234
10
15.2199292
20
22.9309173
40
0.4472986
50
256.6228859
51
270.51044
0
ARC
8
DEFAULT_255_1_234
10
15.179727
20
22.7760877
40
0.2873874
50
215.8618325
51
257.2788573
0
ARC
8
DEFAULT_255_1_234
10
15.2818301
20
22.8445977
40
0.4102928
50
197.9693508
51
215.2623606
0
ARC
8
DEFAULT_255_1_234
10
15.5303417
20
22.9284709
40
0.6725652
50
187.8816417
51
198.2346507
0
ARC
8
DEFAULT_255_1_234
10
15.9261625
20
22.9856079
40
1.0724845
50
180.8976217
51
188.0055519
0
ARC
8
DEFAULT_255_1_234
10
16.2061813
20
22.9959777
40
1.3526448
50
180.7449369
51
181.1510016
0
ARC
8
DEFAULT_255_1_234
10
16.0484542
20
23.1816042
40
1.1948131
50
173.7675579
51
180.231553
0
ARC
8
DEFAULT_255_1_234
10
15.5966689
20
23.2326666
40
0.7401564
50
164.3058563
51
173.9002247
0
ARC
8
DEFAULT_255_1_234
10
15.3054758
20
23.3165656
40
0.4371288
50
148.7922025
51
164.568378
0
ARC
8
DEFAULT_255_1_234
10
15.210321
20
23.3696929
40
0.3282386
50
144.5883898
51
148.1176286
0
ARC
8
DEFAULT_255_1_234
10
15.1760108
20
23.3936315
40
0.2864044
50
101.6440918
51
144.514236
0
ARC
8
DEFAULT_255_1_234
10
15.2185175
20
23.2247069
40
0.4604934
50
89.5284041
51
102.5819763
0
ARC
8
DEFAULT_255_1_234
10
15.2264263
20
23.2208018
40
0.464401
50
77.0437873
51
90.5081339
0
ARC
8
DEFAULT_255_1_234
10
15.2666264
20
23.3850615
40
0.2953195
50
48.2778575
51
77.4994676
0
ARC
8
DEFAULT_255_1_234
10
15.2738896
20
23.3979746
40
0.2808655
50
36.3142134
51
47.6305865
0
ARC
8
DEFAULT_255_1_234
10
15.1870203
20
23.3394515
40
0.3855453
50
18.2931786
51
35.6769206
0
ARC
8
DEFAULT_255_1_234
10
14.9326961
20
23.2521593
40
0.654423
50
8.024666
51
18.5605216
0
ARC
8
DEFAULT_255_1_234
10
14.5163881
20
23.1906792
40
1.0752407
50
1.1274072
51
8.1718305
0
ARC
8
DEFAULT_255_1_234
10
14.1928072
20
23.1779885
40
1.3990231
50
0.5424119
51
1.3863029
0
ARC
8
DEFAULT_255_1_234
10
14.374945
20
23.2052342
40
1.0682415
50
359.8090433
51
4.9407866
0
ARC
8
DEFAULT_255_1_234
10
14.7959464
20
23.2428113
40
0.6455691
50
4.8362157
51
12.2904523
0
ARC
8
DEFAULT_255_1_234
10
15.0714579
20
23.3041965
40
0.3633074
50
12.0805627
51
23.8173984
0
ARC
8
DEFAULT_255_1_234
10
15.1888284
20
23.3538919
40
0.2358723
50
24.2871213
51
31.3935614
0
ARC
8
DEFAULT_255_1_234
10
15.2412981
20
23.3882233
40
0.1732111
50
30.7407893
51
82.4657128
0
ARC
8
DEFAULT_255_1_234
10
15.2233115
20
23.2998691
40
0.263235
50
81.1060089
51
90.2184952
0
ARC
8
DEFAULT_255_1_234
10
15.2197414
20
23.3256924
40
0.2374236
50
89.3806855
51
105.6762551
0
ARC
8
DEFAULT_255_1_234
10
15.2014045
20
23.3923567
40
0.1682847
50
105.7981136
51
149.7388061
0
ARC
8
DEFAULT_255_1_234
10
15.3078123
20
23.328395
40
0.2924306
50
149.4208916
51
163.6286378
0
ARC
8
DEFAULT_255_1_234
10
15.5169011
20
23.264625
40
0.5110213
50
163.3763315
51
172.1410975
0
ARC
8
DEFAULT_255_1_234
10
15.846973
20
23.2173518
40
0.8444586
50
172.0259487
51
178.0703232
0
ARC
8
DEFAULT_255_1_234
10
16.149982
20
23.2029906
40
1.1477868
50
177.8631668
51
179.5044149
0
ARC
8
DEFAULT_255_1_234
10
16.0427224
20
22.9715389
40
1.0404907
50
179.7995573
51
185.2460446
0
ARC
8
DEFAULT_255_1_234
10
15.6384264
20
22.9332513
40
0.6343885
50
185.1411642
51
193.0079639
0
ARC
8
DEFAULT_255_1_234
10
15.3740736
20
22.8707641
40
0.3627568
50
192.7897626
51
205.2507664
0
ARC
8
DEFAULT_255_1_234
10
15.2694283
20
22.8240415
40
0.2481908
50
205.8005384
51
211.2537509
0
ARC
8
DEFAULT_255_1_234
10
15.2170724
20
22.788958
40
0.1852521
50
210.3789793
51
238.4008143
0
ARC
8
DEFAULT_255_1_234
10
15.2151245
20
22.7936376
40
0.1882621
50
239.6520629
51
265.9793761
0
ARC
8
DEFAULT_255_1_234
10
15.2236446
20
22.8608427
40
0.2559272
50
265.1315437
51
270.060332
0
ARC
8
DEFAULT_255_1_234
10
15.2265224
20
22.8284534
40
0.2235528
50
269.3314664
51
287.2178029
0
ARC
8
DEFAULT_255_1_234
10
15.2403076
20
22.7781279
40
0.1714108
50
287.7958004
51
329.080874
0
ARC
8
DEFAULT_255_1_234
10
15.1445533
20
22.837893
40
0.2842745
50
328.6634704
51
343.3325132
0
ARC
8
DEFAULT_255_1_234
10
14.9272553
20
22.9055863
40
0.5118644
50
343.0499468
51
351.9393422
0
ARC
8
DEFAULT_255_1_234
10
14.5805853
20
22.9566949
40
0.8622784
50
351.8069023
51
357.7959224
0
ARC
8
DEFAULT_255_1_234
10
14.2570409
20
22.9734721
40
1.1862365
50
357.5871873
51
359.2677531
0
LINE
8
DEFAULT_255_1_234
10
16.5154176
20
23.1912327
11
16.5154176
21
22.9984709
0
LINE
8
DEFAULT_255_1_234
10
15.7773008
20
22.9783916
11
15.7773008
21
23.1767755
0
LINE
8
DEFAULT_255_1_234
10
16.3668304
20
22.9583123
11
16.3668304
21
23.2016739
0
LINE
8
DEFAULT_255_1_234
10
15.925888
20
23.2129184
11
15.925888
21
22.9751789
0
ARC
8
DEFAULT_255_1_234
10
15.2907065
20
22.9935805
40
1.2247208
50
353.8441951
51
0.2287902
0
ARC
8
DEFAULT_255_1_234
10
15.7546569
20
22.9417806
40
0.7578929
50
344.4934747
51
353.9765454
0
ARC
8
DEFAULT_255_1_234
10
16.0539159
20
22.8566981
40
0.4467846
50
329.2803592
51
344.7472793
0
ARC
8
DEFAULT_255_1_234
10
16.1531984
20
22.8022018
40
0.3336173
50
324.9352394
51
328.6160465
0
ARC
8
DEFAULT_255_1_234
10
16.1909093
20
22.7758427
40
0.2876076
50
280.580143
51
324.9173126
0
ARC
8
DEFAULT_255_1_234
10
16.1507885
20
22.9429099
40
0.4592847
50
269.5977311
51
281.6734359
0
ARC
8
DEFAULT_255_1_234
10
16.1435791
20
22.9309173
40
0.4472986
50
256.6228859
51
270.51044
0
ARC
8
DEFAULT_255_1_234
10
16.1033769
20
22.7760877
40
0.2873874
50
215.8618325
51
257.2788573
0
ARC
8
DEFAULT_255_1_234
10
16.20548
20
22.8445977
40
0.4102928
50
197.9693508
51
215.2623606
0
ARC
8
DEFAULT_255_1_234
10
16.4539916
20
22.9284709
40
0.6725652
50
187.8816417
51
198.2346507
0
ARC
8
DEFAULT_255_1_234
10
16.8498124
20
22.9856079
40
1.0724845
50
180.8976217
51
188.0055519
0
ARC
8
DEFAULT_255_1_234
10
17.1298312
20
22.9959777
40
1.3526448
50
180.7449369
51
181.1510016
0
ARC
8
DEFAULT_255_1_234
10
16.9721042
20
23.1816042
40
1.1948131
50
173.7675579
51
180.231553
0
ARC
8
DEFAULT_255_1_234
10
16.5203188
20
23.2326666
40
0.7401564
50
164.3058563
51
173.9002247
0
ARC
8
DEFAULT_255_1_234
10
16.2291257
20
23.3165656
40
0.4371288
50
148.7922025
51
164.568378
0
ARC
8
DEFAULT_255_1_234
10
16.1339709
20
23.3696929
40
0.3282386
50
144.5883898
51
148.1176286
0
ARC
8
DEFAULT_255_1_234
10
16.0996607
20
23.3936315
40
0.2864044
50
101.6440918
51
144.514236
0
ARC
8
DEFAULT_255_1_234
10
16.1421674
20
23.2247069
40
0.4604934
50
89.5284041
51
102.5819763
0
ARC
8
DEFAULT_255_1_234
10
16.1500762
20
23.2208018
40
0.464401
50
77.0437873
51
90.5081339
0
ARC
8
DEFAULT_255_1_234
10
16.1902763
20
23.3850615
40
0.2953195
50
48.2778575
51
77.4994676
0
ARC
8
DEFAULT_255_1_234
10
16.1975395
20
23.3979746
40
0.2808655
50
36.3142134
51
47.6305865
0
ARC
8
DEFAULT_255_1_234
10
16.1106702
20
23.3394515
40
0.3855453
50
18.2931786
51
35.6769206
0
ARC
8
DEFAULT_255_1_234
10
15.856346
20
23.2521593
40
0.654423
50
8.024666
51
18.5605216
0
ARC
8
DEFAULT_255_1_234
10
15.440038
20
23.1906792
40
1.0752407
50
1.1274072
51
8.1718305
0
ARC
8
DEFAULT_255_1_234
10
15.1164571
20
23.1779885
40
1.3990231
50
0.5424119
51
1.3863029
0
ARC
8
DEFAULT_255_1_234
10
15.2985949
20
23.2052342
40
1.0682415
50
359.8090433
51
4.9407866
0
ARC
8
DEFAULT_255_1_234
10
15.7195963
20
23.2428113
40
0.6455691
50
4.8362157
51
12.2904523
0
ARC
8
DEFAULT_255_1_234
10
15.9951078
20
23.3041965
40
0.3633074
50
12.0805627
51
23.8173984
0
ARC
8
DEFAULT_255_1_234
10
16.1124783
20
23.3538919
40
0.2358723
50
24.2871213
51
31.3935614
0
ARC
8
DEFAULT_255_1_234
10
16.164948
20
23.3882233
40
0.1732111
50
30.7407893
51
82.4657128
0
ARC
8
DEFAULT_255_1_234
10
16.1469615
20
23.2998691
40
0.263235
50
81.1060089
51
90.2184952
0
ARC
8
DEFAULT_255_1_234
10
16.1433913
20
23.3256924
40
0.2374236
50
89.3806855
51
105.6762551
0
ARC
8
DEFAULT_255_1_234
10
16.1250544
20
23.3923567
40
0.1682847
50
105.7981136
51
149.7388061
0
ARC
8
DEFAULT_255_1_234
10
16.2314622
20
23.328395
40
0.2924306
50
149.4208916
51
163.6286378
0
ARC
8
DEFAULT_255_1_234
10
16.440551
20
23.264625
40
0.5110213
50
163.3763315
51
172.1410975
0
ARC
8
DEFAULT_255_1_234
10
16.7706229
20
23.2173518
40
0.8444586
50
172.0259487
51
178.0703232
0
ARC
8
DEFAULT_255_1_234
10
17.0736319
20
23.2029906
40
1.1477868
50
177.8631668
51
179.5044149
0
ARC
8
DEFAULT_255_1_234
10
16.9663723
20
22.9715389
40
1.0404907
50
179.7995573
51
185.2460446
0
ARC
8
DEFAULT_255_1_234
10
16.5620763
20
22.9332513
40
0.6343885
50
185.1411642
51
193.0079639
0
ARC
8
DEFAULT_255_1_234
10
16.2977235
20
22.8707641
40
0.3627568
50
192.7897626
51
205.2507664
0
ARC
8
DEFAULT_255_1_234
10
16.1930782
20
22.8240415
40
0.2481908
50
205.8005384
51
211.2537509
0
ARC
8
DEFAULT_255_1_234
10
16.1407223
20
22.788958
40
0.1852521
50
210.3789793
51
238.4008143
0
ARC
8
DEFAULT_255_1_234
10
16.1387744
20
22.7936376
40
0.1882621
50
239.6520629
51
265.9793761
0
ARC
8
DEFAULT_255_1_234
10
16.1472945
20
22.8608427
40
0.2559272
50
265.1315437
51
270.060332
0
ARC
8
DEFAULT_255_1_234
10
16.1501723
20
22.8284534
40
0.2235528
50
269.3314664
51
287.2178029
0
ARC
8
DEFAULT_255_1_234
10
16.1639575
20
22.7781279
40
0.1714108
50
287.7958004
51
329.080874
0
ARC
8
DEFAULT_255_1_234
10
16.0682032
20
22.837893
40
0.2842745
50
328.6634704
51
343.3325132
0
ARC
8
DEFAULT_255_1_234
10
15.8509052
20
22.9055863
40
0.5118644
50
343.0499468
51
351.9393422
0
ARC
8
DEFAULT_255_1_234
10
15.5042352
20
22.9566949
40
0.8622784
50
351.8069023
51
357.7959224
0
ARC
8
DEFAULT_255_1_234
10
15.1806908
20
22.9734721
40
1.1862365
50
357.5871873
51
359.2677531
0
LINE
8
DEFAULT_255_1_234
10
4.9274119
20
20.6366792
11
4.9274119
21
20.5154
0
LINE
8
DEFAULT_255_1_234
10
4.9274119
20
20.5154
11
4.161184
21
20.5154
0
LINE
8
DEFAULT_255_1_234
10
4.161184
20
20.5154
11
4.161184
21
20.6222221
0
LINE
8
DEFAULT_255_1_234
10
4.161184
20
20.6222221
11
4.5659836
21
21.0719995
0
LINE
8
DEFAULT_255_1_234
10
4.2872823
20
21.3402595
11
4.1386952
21
21.3402595
0
LINE
8
DEFAULT_255_1_234
10
4.6535296
20
20.9764218
11
4.3402918
21
20.6366792
0
LINE
8
DEFAULT_255_1_234
10
4.3402918
20
20.6366792
11
4.9274119
21
20.6366792
0
ARC
8
DEFAULT_255_1_234
10
3.216967
20
22.2649527
40
1.8008286
50
318.5132453
51
320.7828378
0
ARC
8
DEFAULT_255_1_234
10
3.7456644
20
21.8346426
40
1.1191493
50
320.7372736
51
323.9737074
0
ARC
8
DEFAULT_255_1_234
10
4.1376501
20
21.5506361
40
0.6350923
50
323.8961724
51
328.6421089
0
ARC
8
DEFAULT_255_1_234
10
4.3423096
20
21.4244031
40
0.3946393
50
328.8299013
51
331.789948
0
ARC
8
DEFAULT_255_1_234
10
4.4420274
20
21.3729509
40
0.2824501
50
331.4255242
51
352.9364833
0
ARC
8
DEFAULT_255_1_234
10
4.4556775
20
21.3698976
40
0.2685315
50
353.2248685
51
0.0169286
0
ARC
8
DEFAULT_255_1_234
10
4.4766652
20
21.372195
40
0.2475536
50
359.4866256
51
15.9339782
0
ARC
8
DEFAULT_255_1_234
10
4.5273637
20
21.3858286
40
0.1950618
50
16.1714718
51
43.5284424
0
ARC
8
DEFAULT_255_1_234
10
4.5350946
20
21.3935573
40
0.184134
50
43.4415429
51
83.1661404
0
ARC
8
DEFAULT_255_1_234
10
4.5216864
20
21.3198771
40
0.258926
50
82.160215
51
90.1505798
0
ARC
8
DEFAULT_255_1_234
10
4.5185291
20
21.2661865
40
0.3126255
50
89.5460705
51
102.5418777
0
ARC
8
DEFAULT_255_1_234
10
4.4942377
20
21.3692665
40
0.2067346
50
102.1739365
51
129.2061916
0
ARC
8
DEFAULT_255_1_234
10
4.4863449
20
21.3817094
40
0.1921118
50
129.7279328
51
135.7542026
0
ARC
8
DEFAULT_255_1_234
10
4.4984977
20
21.3720045
40
0.2075944
50
136.175737
51
166.3674722
0
ARC
8
DEFAULT_255_1_234
10
4.5991896
20
21.3450182
40
0.3118201
50
165.9092917
51
178.8683903
0
ARC
8
DEFAULT_255_1_234
10
4.6856757
20
21.3403179
40
0.3983935
50
178.438168
51
180.0083905
0
ARC
8
DEFAULT_255_1_234
10
4.5455359
20
21.3442231
40
0.4068601
50
163.2878735
51
180.5581814
0
ARC
8
DEFAULT_255_1_234
10
4.4653621
20
21.366284
40
0.3237344
50
133.454115
51
162.9470031
0
ARC
8
DEFAULT_255_1_234
10
4.4832162
20
21.3473
40
0.349795
50
100.7869394
51
133.4384016
0
ARC
8
DEFAULT_255_1_234
10
4.5179934
20
21.1924319
40
0.5084616
50
89.6605301
51
101.3704185
0
ARC
8
DEFAULT_255_1_234
10
4.5246273
20
21.1985496
40
0.502348
50
78.2171172
51
90.4130393
0
ARC
8
DEFAULT_255_1_234
10
4.5601351
20
21.3609637
40
0.3361092
50
55.9268222
51
78.4888551
0
ARC
8
DEFAULT_255_1_234
10
4.5797791
20
21.3948324
40
0.2970617
50
47.9292255
51
55.4054003
0
ARC
8
DEFAULT_255_1_234
10
4.5899352
20
21.4051502
40
0.2825983
50
4.3347696
51
48.0560701
0
ARC
8
DEFAULT_255_1_234
10
4.4803745
20
21.3881601
40
0.393225
50
359.925209
51
5.5967654
0
ARC
8
DEFAULT_255_1_234
10
4.5232637
20
21.3937816
40
0.3503892
50
337.8914096
51
358.9967724
0
ARC
8
DEFAULT_255_1_234
10
4.2519049
20
21.4984706
40
0.6412172
50
326.9135351
51
338.3505194
0
ARC
8
DEFAULT_255_1_234
10
3.8533353
20
21.7539284
40
1.1146189
50
319.6472867
51
327.095818
0
ARC
8
DEFAULT_255_1_234
10
3.4700356
20
22.0701
40
1.6114559
50
317.2586784
51
319.9046139
0
LINE
8
DEFAULT_255_1_234
10
5.7121127
20
21.6848211
11
5.7121127
21
20.908152
0
LINE
8
DEFAULT_255_1_234
10
5.7121127
20
20.908152
11
5.8743538
21
20.908152
0
LINE
8
DEFAULT_255_1_234
10
5.8743538
20
20.908152
11
5.8743538
21
20.7868728
0
LINE
8
DEFAULT_255_1_234
10
5.8743538
20
20.7868728
11
5.7121127
21
20.7868728
0
LINE
8
DEFAULT_255_1_234
10
5.7121127
20
20.7868728
11
5.7121127
21
20.5154
0
LINE
8
DEFAULT_255_1_234
10
5.7121127
20
20.5154
11
5.5627224
21
20.5154
0
LINE
8
DEFAULT_255_1_234
10
5.5627224
20
20.5154
11
5.5627224
21
20.7868728
0
LINE
8
DEFAULT_255_1_234
10
5.5627224
20
20.7868728
11
5.0302181
21
20.7868728
0
LINE
8
DEFAULT_255_1_234
10
5.0302181
20
20.7868728
11
5.0302181
21
20.8744187
0
LINE
8
DEFAULT_255_1_234
10
5.0302181
20
20.8744187
11
5.5538875
21
21.6848211
0
LINE
8
DEFAULT_255_1_234
10
5.5538875
20
21.6848211
11
5.7121127
21
21.6848211
0
LINE
8
DEFAULT_255_1_234
10
5.5450525
20
21.4494912
11
5.1988846
21
20.908152
0
LINE
8
DEFAULT_255_1_234
10
5.1988846
20
20.908152
11
5.5627224
21
20.908152
0
LINE
8
DEFAULT_255_1_234
10
5.5627224
20
20.908152
11
5.5627224
21
21.4816181
0
LINE
8
DEFAULT_255_1_234
10
5.5627224
20
21.4816181
11
5.5450525
21
21.4494912
0
LINE
8
DEFAULT_255_1_234
10
6.101652
20
21.6848211
11
6.434166
21
20.7202093
0
LINE
8
DEFAULT_255_1_234
10
6.434166
20
20.7202093
11
6.7682863
21
21.6848211
0
LINE
8
DEFAULT_255_1_234
10
6.7682863
20
21.6848211
11
6.9369528
21
21.6848211
0
LINE
8
DEFAULT_255_1_234
10
6.9369528
20
21.6848211
11
6.5032389
21
20.5154
0
LINE
8
DEFAULT_255_1_234
10
6.5032389
20
20.5154
11
6.3666994
21
20.5154
0
LINE
8
DEFAULT_255_1_234
10
6.3666994
20
20.5154
11
5.9337887
21
21.6848211
0
LINE
8
DEFAULT_255_1_234
10
5.9337887
20
21.6848211
11
6.101652
21
21.6848211
0
LINE
8
DEFAULT_255_1_234
10
4.8957484
20
5.3070343
11
4.8957484
21
5.180936
0
LINE
8
DEFAULT_255_1_234
10
4.8957484
20
5.180936
11
4.3889458
21
5.180936
0
LINE
8
DEFAULT_255_1_234
10
4.3889458
20
5.180936
11
4.3889458
21
4.7664983
0
LINE
8
DEFAULT_255_1_234
10
4.3889458
20
4.7664983
11
4.9776722
21
4.7664983
0
LINE
8
DEFAULT_255_1_234
10
4.9776722
20
4.7664983
11
4.9776722
21
4.6404
0
LINE
8
DEFAULT_255_1_234
10
4.9776722
20
4.6404
11
4.2347364
21
4.6404
0
LINE
8
DEFAULT_255_1_234
10
4.2347364
20
4.6404
11
4.2347364
21
5.8098211
0
LINE
8
DEFAULT_255_1_234
10
4.2347364
20
5.8098211
11
4.9696404
21
5.8098211
0
LINE
8
DEFAULT_255_1_234
10
4.9696404
20
5.8098211
11
4.9696404
21
5.6829196
0
LINE
8
DEFAULT_255_1_234
10
4.9696404
20
5.6829196
11
4.3889458
21
5.6829196
0
LINE
8
DEFAULT_255_1_234
10
4.3889458
20
5.6829196
11
4.3889458
21
5.3070343
0
LINE
8
DEFAULT_255_1_234
10
4.3889458
20
5.3070343
11
4.8957484
21
5.3070343
0
LINE
8
DEFAULT_255_1_234
10
5.9936871
20
5.8098211
11
5.9936871
21
5.6829196
0
LINE
8
DEFAULT_255_1_234
10
5.9936871
20
5.6829196
11
5.6178017
21
5.6829196
0
LINE
8
DEFAULT_255_1_234
10
5.6178017
20
5.6829196
11
5.6178017
21
4.6404
0
LINE
8
DEFAULT_255_1_234
10
5.6178017
20
4.6404
11
5.4643955
21
4.6404
0
LINE
8
DEFAULT_255_1_234
10
5.4643955
20
4.6404
11
5.4643955
21
5.6829196
0
LINE
8
DEFAULT_255_1_234
10
5.4643955
20
5.6829196
11
5.0893133
21
5.6829196
0
LINE
8
DEFAULT_255_1_234
10
5.0893133
20
5.6829196
11
5.0893133
21
5.8098211
0
LINE
8
DEFAULT_255_1_234
10
5.0893133
20
5.8098211
11
5.9936871
21
5.8098211
0
LINE
8
DEFAULT_255_1_234
10
7.0659241
20
5.8098211
11
7.0659241
21
4.6404
0
LINE
8
DEFAULT_255_1_234
10
7.0659241
20
4.6404
11
6.9109116
21
4.6404
0
LINE
8
DEFAULT_255_1_234
10
6.9109116
20
4.6404
11
6.9109116
21
5.180936
0
LINE
8
DEFAULT_255_1_234
10
6.9109116
20
5.180936
11
6.321382
21
5.180936
0
LINE
8
DEFAULT_255_1_234
10
6.321382
20
5.180936
11
6.321382
21
4.6404
0
LINE
8
DEFAULT_255_1_234
10
6.321382
20
4.6404
11
6.1671726
21
4.6404
0
LINE
8
DEFAULT_255_1_234
10
6.1671726
20
4.6404
11
6.1671726
21
5.8098211
0
LINE
8
DEFAULT_255_1_234
10
6.1671726
20
5.8098211
11
6.321382
21
5.8098211
0
LINE
8
DEFAULT_255_1_234
10
6.321382
20
5.8098211
11
6.321382
21
5.3070343
0
LINE
8
DEFAULT_255_1_234
10
6.321382
20
5.3070343
11
6.9109116
21
5.3070343
0
LINE
8
DEFAULT_255_1_234
10
6.9109116
20
5.3070343
11
6.9109116
21
5.8098211
0
LINE
8
DEFAULT_255_1_234
10
6.9109116
20
5.8098211
11
7.0659241
21
5.8098211
0
LINE
8
DEFAULT_255_1_234
10
8.0674819
20
4.7616792
11
8.0674819
21
4.6404
0
LINE
8
DEFAULT_255_1_234
10
8.0674819
20
4.6404
11
7.3012541
21
4.6404
0
LINE
8
DEFAULT_255_1_234
10
7.3012541
20
4.6404
11
7.3012541
21
4.7472221
0
LINE
8
DEFAULT_255_1_234
10
7.3012541
20
4.7472221
11
7.7060537
21
5.1969995
0
LINE
8
DEFAULT_255_1_234
10
7.4273523
20
5.4652595
11
7.2787652
21
5.4652595
0
LINE
8
DEFAULT_255_1_234
10
7.7935996
20
5.1014218
11
7.4803618
21
4.7616792
0
LINE
8
DEFAULT_255_1_234
10
7.4803618
20
4.7616792
11
8.0674819
21
4.7616792
0
ARC
8
DEFAULT_255_1_234
10
6.357037
20
6.3899527
40
1.8008286
50
318.5132453
51
320.7828378
0
ARC
8
DEFAULT_255_1_234
10
6.8857344
20
5.9596426
40
1.1191493
50
320.7372736
51
323.9737074
0
ARC
8
DEFAULT_255_1_234
10
7.2777201
20
5.6756361
40
0.6350923
50
323.8961724
51
328.6421089
0
ARC
8
DEFAULT_255_1_234
10
7.4823796
20
5.5494031
40
0.3946393
50
328.8299013
51
331.789948
0
ARC
8
DEFAULT_255_1_234
10
7.5820975
20
5.4979509
40
0.2824501
50
331.4255242
51
352.9364833
0
ARC
8
DEFAULT_255_1_234
10
7.5957475
20
5.4948976
40
0.2685315
50
353.2248685
51
0.0169286
0
ARC
8
DEFAULT_255_1_234
10
7.6167352
20
5.497195
40
0.2475536
50
359.4866256
51
15.9339782
0
ARC
8
DEFAULT_255_1_234
10
7.6674337
20
5.5108286
40
0.1950618
50
16.1714718
51
43.5284424
0
ARC
8
DEFAULT_255_1_234
10
7.6751646
20
5.5185573
40
0.184134
50
43.4415429
51
83.1661404
0
ARC
8
DEFAULT_255_1_234
10
7.6617564
20
5.4448771
40
0.258926
50
82.160215
51
90.1505798
0
ARC
8
DEFAULT_255_1_234
10
7.6585992
20
5.3911865
40
0.3126255
50
89.5460705
51
102.5418777
0
ARC
8
DEFAULT_255_1_234
10
7.6343078
20
5.4942665
40
0.2067346
50
102.1739365
51
129.2061916
0
ARC
8
DEFAULT_255_1_234
10
7.6264149
20
5.5067094
40
0.1921118
50
129.7279328
51
135.7542026
0
ARC
8
DEFAULT_255_1_234
10
7.6385677
20
5.4970045
40
0.2075944
50
136.175737
51
166.3674722
0
ARC
8
DEFAULT_255_1_234
10
7.7392596
20
5.4700182
40
0.3118201
50
165.9092917
51
178.8683903
0
ARC
8
DEFAULT_255_1_234
10
7.8257458
20
5.4653179
40
0.3983935
50
178.438168
51
180.0083905
0
ARC
8
DEFAULT_255_1_234
10
7.685606
20
5.4692231
40
0.4068601
50
163.2878735
51
180.5581814
0
ARC
8
DEFAULT_255_1_234
10
7.6054321
20
5.491284
40
0.3237344
50
133.454115
51
162.9470031
0
ARC
8
DEFAULT_255_1_234
10
7.6232863
20
5.4723
40
0.349795
50
100.7869394
51
133.4384016
0
ARC
8
DEFAULT_255_1_234
10
7.6580634
20
5.3174319
40
0.5084616
50
89.6605301
51
101.3704185
0
ARC
8
DEFAULT_255_1_234
10
7.6646973
20
5.3235496
40
0.502348
50
78.2171172
51
90.4130393
0
ARC
8
DEFAULT_255_1_234
10
7.7002051
20
5.4859637
40
0.3361092
50
55.9268222
51
78.4888551
0
ARC
8
DEFAULT_255_1_234
10
7.7198491
20
5.5198324
40
0.2970617
50
47.9292255
51
55.4054003
0
ARC
8
DEFAULT_255_1_234
10
7.7300052
20
5.5301502
40
0.2825983
50
4.3347696
51
48.0560701
0
ARC
8
DEFAULT_255_1_234
10
7.6204446
20
5.5131601
40
0.393225
50
359.925209
51
5.5967654
0
ARC
8
DEFAULT_255_1_234
10
7.6633337
20
5.5187816
40
0.3503892
50
337.8914096
51
358.9967724
0
ARC
8
DEFAULT_255_1_234
10
7.3919749
20
5.6234706
40
0.6412172
50
326.9135351
51
338.3505194
0
ARC
8
DEFAULT_255_1_234
10
6.9934053
20
5.8789284
40
1.1146189
50
319.6472867
51
327.095818
0
ARC
8
DEFAULT_255_1_234
10
6.6101056
20
6.1951
40
1.6114559
50
317.2586784
51
319.9046139
0
LINE
8
DEFAULT_255_1_234
10
4.8873484
20
13.2445343
11
4.8873484
21
13.118436
0
LINE
8
DEFAULT_255_1_234
10
4.8873484
20
13.118436
11
4.3805458
21
13.118436
0
LINE
8
DEFAULT_255_1_234
10
4.3805458
20
13.118436
11
4.3805458
21
12.7039983
0
LINE
8
DEFAULT_255_1_234
10
4.3805458
20
12.7039983
11
4.9692722
21
12.7039983
0
LINE
8
DEFAULT_255_1_234
10
4.9692722
20
12.7039983
11
4.9692722
21
12.5779
0
LINE
8
DEFAULT_255_1_234
10
4.9692722
20
12.5779
11
4.2263364
21
12.5779
0
LINE
8
DEFAULT_255_1_234
10
4.2263364
20
12.5779
11
4.2263364
21
13.7473211
0
LINE
8
DEFAULT_255_1_234
10
4.2263364
20
13.7473211
11
4.9612404
21
13.7473211
0
LINE
8
DEFAULT_255_1_234
10
4.9612404
20
13.7473211
11
4.9612404
21
13.6204196
0
LINE
8
DEFAULT_255_1_234
10
4.9612404
20
13.6204196
11
4.3805458
21
13.6204196
0
LINE
8
DEFAULT_255_1_234
10
4.3805458
20
13.6204196
11
4.3805458
21
13.2445343
0
LINE
8
DEFAULT_255_1_234
10
4.3805458
20
13.2445343
11
4.8873484
21
13.2445343
0
LINE
8
DEFAULT_255_1_234
10
5.9852871
20
13.7473211
11
5.9852871
21
13.6204196
0
LINE
8
DEFAULT_255_1_234
10
5.9852871
20
13.6204196
11
5.6094017
21
13.6204196
0
LINE
8
DEFAULT_255_1_234
10
5.6094017
20
13.6204196
11
5.6094017
21
12.5779
0
LINE
8
DEFAULT_255_1_234
10
5.6094017
20
12.5779
11
5.4559955
21
12.5779
0
LINE
8
DEFAULT_255_1_234
10
5.4559955
20
12.5779
11
5.4559955
21
13.6204196
0
LINE
8
DEFAULT_255_1_234
10
5.4559955
20
13.6204196
11
5.0809133
21
13.6204196
0
LINE
8
DEFAULT_255_1_234
10
5.0809133
20
13.6204196
11
5.0809133
21
13.7473211
0
LINE
8
DEFAULT_255_1_234
10
5.0809133
20
13.7473211
11
5.9852871
21
13.7473211
0
LINE
8
DEFAULT_255_1_234
10
7.0575241
20
13.7473211
11
7.0575241
21
12.5779
0
LINE
8
DEFAULT_255_1_234
10
7.0575241
20
12.5779
11
6.9025116
21
12.5779
0
LINE
8
DEFAULT_255_1_234
10
6.9025116
20
12.5779
11
6.9025116
21
13.118436
0
LINE
8
DEFAULT_255_1_234
10
6.9025116
20
13.118436
11
6.312982
21
13.118436
0
LINE
8
DEFAULT_255_1_234
10
6.312982
20
13.118436
11
6.312982
21
12.5779
0
LINE
8
DEFAULT_255_1_234
10
6.312982
20
12.5779
11
6.1587726
21
12.5779
0
LINE
8
DEFAULT_255_1_234
10
6.1587726
20
12.5779
11
6.1587726
21
13.7473211
0
LINE
8
DEFAULT_255_1_234
10
6.1587726
20
13.7473211
11
6.312982
21
13.7473211
0
LINE
8
DEFAULT_255_1_234
10
6.312982
20
13.7473211
11
6.312982
21
13.2445343
0
LINE
8
DEFAULT_255_1_234
10
6.312982
20
13.2445343
11
6.9025116
21
13.2445343
0
LINE
8
DEFAULT_255_1_234
10
6.9025116
20
13.2445343
11
6.9025116
21
13.7473211
0
LINE
8
DEFAULT_255_1_234
10
6.9025116
20
13.7473211
11
7.0575241
21
13.7473211
0
LINE
8
DEFAULT_255_1_234
10
7.7811837
20
13.7529433
11
7.7811837
21
12.5779
0
LINE
8
DEFAULT_255_1_234
10
7.7811837
20
12.5779
11
7.6317934
21
12.5779
0
LINE
8
DEFAULT_255_1_234
10
7.6317934
20
12.5779
11
7.6317934
21
13.5682133
0
LINE
8
DEFAULT_255_1_234
10
7.6317934
20
13.5682133
11
7.3322096
21
13.4581785
0
LINE
8
DEFAULT_255_1_234
10
7.3322096
20
13.4581785
11
7.3322096
21
13.5931117
0
LINE
8
DEFAULT_255_1_234
10
7.3322096
20
13.5931117
11
7.7578917
21
13.7529433
0
LINE
8
DEFAULT_255_1_234
10
7.7578917
20
13.7529433
11
7.7811837
21
13.7529433
0
LINE
8
DEFAULT_255_1_234
10
23.1659817
20
21.2069327
11
23.1659817
21
21.0141709
0
LINE
8
DEFAULT_255_1_234
10
22.427865
20
20.9940916
11
22.427865
21
21.1924755
0
LINE
8
DEFAULT_255_1_234
10
23.0173946
20
20.9740123
11
23.0173946
21
21.2173739
0
LINE
8
DEFAULT_255_1_234
10
22.5764521
20
21.2286184
11
22.5764521
21
20.9908789
0
ARC
8
DEFAULT_255_1_234
10
21.9412707
20
21.0092805
40
1.2247208
50
353.8441951
51
0.2287902
0
ARC
8
DEFAULT_255_1_234
10
22.4052211
20
20.9574806
40
0.7578929
50
344.4934747
51
353.9765454
0
ARC
8
DEFAULT_255_1_234
10
22.7044801
20
20.8723981
40
0.4467846
50
329.2803592
51
344.7472793
0
ARC
8
DEFAULT_255_1_234
10
22.8037626
20
20.8179018
40
0.3336173
50
324.9352394
51
328.6160465
0
ARC
8
DEFAULT_255_1_234
10
22.8414734
20
20.7915427
40
0.2876076
50
280.580143
51
324.9173126
0
ARC
8
DEFAULT_255_1_234
10
22.8013527
20
20.9586099
40
0.4592847
50
269.5977311
51
281.6734359
0
ARC
8
DEFAULT_255_1_234
10
22.7941433
20
20.9466173
40
0.4472986
50
256.6228859
51
270.51044
0
ARC
8
DEFAULT_255_1_234
10
22.753941
20
20.7917877
40
0.2873874
50
215.8618325
51
257.2788573
0
ARC
8
DEFAULT_255_1_234
10
22.8560442
20
20.8602977
40
0.4102928
50
197.9693508
51
215.2623606
0
ARC
8
DEFAULT_255_1_234
10
23.1045558
20
20.9441709
40
0.6725652
50
187.8816417
51
198.2346507
0
ARC
8
DEFAULT_255_1_234
10
23.5003766
20
21.0013079
40
1.0724845
50
180.8976217
51
188.0055519
0
ARC
8
DEFAULT_255_1_234
10
23.7803954
20
21.0116777
40
1.3526448
50
180.7449369
51
181.1510016
0
ARC
8
DEFAULT_255_1_234
10
23.6226683
20
21.1973042
40
1.1948131
50
173.7675579
51
180.231553
0
ARC
8
DEFAULT_255_1_234
10
23.170883
20
21.2483666
40
0.7401564
50
164.3058563
51
173.9002247
0
ARC
8
DEFAULT_255_1_234
10
22.8796899
20
21.3322656
40
0.4371288
50
148.7922025
51
164.568378
0
ARC
8
DEFAULT_255_1_234
10
22.7845351
20
21.3853929
40
0.3282386
50
144.5883898
51
148.1176286
0
ARC
8
DEFAULT_255_1_234
10
22.7502249
20
21.4093315
40
0.2864044
50
101.6440918
51
144.514236
0
ARC
8
DEFAULT_255_1_234
10
22.7927315
20
21.2404069
40
0.4604934
50
89.5284041
51
102.5819763
0
ARC
8
DEFAULT_255_1_234
10
22.8006403
20
21.2365018
40
0.464401
50
77.0437873
51
90.5081339
0
ARC
8
DEFAULT_255_1_234
10
22.8408405
20
21.4007615
40
0.2953195
50
48.2778575
51
77.4994676
0
ARC
8
DEFAULT_255_1_234
10
22.8481036
20
21.4136746
40
0.2808655
50
36.3142134
51
47.6305865
0
ARC
8
DEFAULT_255_1_234
10
22.7612343
20
21.3551515
40
0.3855453
50
18.2931786
51
35.6769206
0
ARC
8
DEFAULT_255_1_234
10
22.5069102
20
21.2678593
40
0.654423
50
8.024666
51
18.5605216
0
ARC
8
DEFAULT_255_1_234
10
22.0906022
20
21.2063792
40
1.0752407
50
1.1274072
51
8.1718305
0
ARC
8
DEFAULT_255_1_234
10
21.7670213
20
21.1936885
40
1.3990231
50
0.5424119
51
1.3863029
0
ARC
8
DEFAULT_255_1_234
10
21.949159
20
21.2209342
40
1.0682415
50
359.8090433
51
4.9407866
0
ARC
8
DEFAULT_255_1_234
10
22.3701604
20
21.2585113
40
0.6455691
50
4.8362157
51
12.2904523
0
ARC
8
DEFAULT_255_1_234
10
22.6456719
20
21.3198965
40
0.3633074
50
12.0805627
51
23.8173984
0
ARC
8
DEFAULT_255_1_234
10
22.7630425
20
21.3695919
40
0.2358723
50
24.2871213
51
31.3935614
0
ARC
8
DEFAULT_255_1_234
10
22.8155122
20
21.4039233
40
0.1732111
50
30.7407893
51
82.4657128
0
ARC
8
DEFAULT_255_1_234
10
22.7975256
20
21.3155691
40
0.263235
50
81.1060089
51
90.2184952
0
ARC
8
DEFAULT_255_1_234
10
22.7939555
20
21.3413924
40
0.2374236
50
89.3806855
51
105.6762551
0
ARC
8
DEFAULT_255_1_234
10
22.7756186
20
21.4080567
40
0.1682847
50
105.7981136
51
149.7388061
0
ARC
8
DEFAULT_255_1_234
10
22.8820264
20
21.344095
40
0.2924306
50
149.4208916
51
163.6286378
0
ARC
8
DEFAULT_255_1_234
10
23.0911152
20
21.280325
40
0.5110213
50
163.3763315
51
172.1410975
0
ARC
8
DEFAULT_255_1_234
10
23.4211871
20
21.2330518
40
0.8444586
50
172.0259487
51
178.0703232
0
ARC
8
DEFAULT_255_1_234
10
23.724196
20
21.2186906
40
1.1477868
50
177.8631668
51
179.5044149
0
ARC
8
DEFAULT_255_1_234
10
23.6169365
20
20.9872389
40
1.0404907
50
179.7995573
51
185.2460446
0
ARC
8
DEFAULT_255_1_234
10
23.2126404
20
20.9489513
40
0.6343885
50
185.1411642
51
193.0079639
0
ARC
8
DEFAULT_255_1_234
10
22.9482877
20
20.8864641
40
0.3627568
50
192.7897626
51
205.2507664
0
ARC
8
DEFAULT_255_1_234
10
22.8436424
20
20.8397415
40
0.2481908
50
205.8005384
51
211.2537509
0
ARC
8
DEFAULT_255_1_234
10
22.7912864
20
20.804658
40
0.1852521
50
210.3789793
51
238.4008143
0
ARC
8
DEFAULT_255_1_234
10
22.7893386
20
20.8093376
40
0.1882621
50
239.6520629
51
265.9793761
0
ARC
8
DEFAULT_255_1_234
10
22.7978586
20
20.8765427
40
0.2559272
50
265.1315437
51
270.060332
0
ARC
8
DEFAULT_255_1_234
10
22.8007365
20
20.8441534
40
0.2235528
50
269.3314664
51
287.2178029
0
ARC
8
DEFAULT_255_1_234
10
22.8145217
20
20.7938279
40
0.1714108
50
287.7958004
51
329.080874
0
ARC
8
DEFAULT_255_1_234
10
22.7187674
20
20.853593
40
0.2842745
50
328.6634704
51
343.3325132
0
ARC
8
DEFAULT_255_1_234
10
22.5014694
20
20.9212863
40
0.5118644
50
343.0499468
51
351.9393422
0
ARC
8
DEFAULT_255_1_234
10
22.1547994
20
20.9723949
40
0.8622784
50
351.8069023
51
357.7959224
0
ARC
8
DEFAULT_255_1_234
10
21.831255
20
20.9891721
40
1.1862365
50
357.5871873
51
359.2677531
0
LINE
8
DEFAULT_255_1_234
10
23.4495021
20
21.6848211
11
23.7820161
21
20.7202093
0
LINE
8
DEFAULT_255_1_234
10
23.7820161
20
20.7202093
11
24.1161364
21
21.6848211
0
LINE
8
DEFAULT_255_1_234
10
24.1161364
20
21.6848211
11
24.2848029
21
21.6848211
0
LINE
8
DEFAULT_255_1_234
10
24.2848029
20
21.6848211
11
23.851089
21
20.5154
0
LINE
8
DEFAULT_255_1_234
10
23.851089
20
20.5154
11
23.7145495
21
20.5154
0
LINE
8
DEFAULT_255_1_234
10
23.7145495
20
20.5154
11
23.2816388
21
21.6848211
0
LINE
8
DEFAULT_255_1_234
10
23.2816388
20
21.6848211
11
23.4495021
21
21.6848211
0
ENDSEC
0
EOF