0
SECTION
2
HEADER
9
$MEASUREMENT
70
1
0
ENDSEC
0
SECTION
2
TABLES
0
TABLE
2
LTYPE
0
LTYPE
72
65
70
64
2
CONTINUOUS
3
______
73
0
40
0
0
ENDTAB
0
TABLE
2
LAYER
0
LAYER
2
DEFAULT_255_2_778
70
0
62
255
6
CONTINUOUS
0
ENDTAB
0
ENDSEC
0
SECTION
2
ENTITIES
0
LINE
8
DEFAULT_255_2_778
10
0.2207623
20
75.7676864
11
62.2208623
21
75.7676864
0
LINE
8
DEFAULT_255_2_778
10
62.2208623
20
75.7676864
11
62.2208623
21
-0.2323136
0
LINE
8
DEFAULT_255_2_778
10
62.2208623
20
-0.2323136
11
0.2207623
21
-0.2323136
0
LINE
8
DEFAULT_255_2_778
10
0.2207623
20
-0.2323136
11
0.2207623
21
75.7676864
0
LINE
8
DEFAULT_255_2_778
10
58.2632
20
75.7414896
11
58.2632
21
-0.2323104
0
ARC
8
DEFAULT_255_2_778
10
17.4114937
20
54.4694331
40
3.9990575
50
164.958672
51
180.0541499
0
ARC
8
DEFAULT_255_2_778
10
17.3631722
20
54.4790924
40
3.9498864
50
139.5324886
51
164.9120823
0
ARC
8
DEFAULT_255_2_778
10
17.3718
20
54.4758905
40
3.9585294
50
107.8307628
51
139.5782791
0
ARC
8
DEFAULT_255_2_778
10
17.3746409
20
54.453319
40
3.9808888
50
91.6628438
51
107.7702122
0
ARC
8
DEFAULT_255_2_778
10
17.3810607
20
54.3535723
40
4.0807814
50
89.9989151
51
91.7123026
0
ARC
8
DEFAULT_255_2_778
10
42.4262244
20
54.4350906
40
3.9992648
50
74.9590633
51
90.054247
0
ARC
8
DEFAULT_255_2_778
10
42.435966
20
54.4837026
40
3.9497916
50
49.5322378
51
74.9125368
0
ARC
8
DEFAULT_255_2_778
10
42.4327468
20
54.4750784
40
3.9584431
50
17.8298442
51
49.5778054
0
ARC
8
DEFAULT_255_2_778
10
42.4099604
20
54.4721571
40
3.9810317
50
1.6626901
51
17.7694544
0
ARC
8
DEFAULT_255_2_778
10
42.3094606
20
54.4657242
40
4.0816773
50
359.9990093
51
1.7120206
0
ARC
8
DEFAULT_255_2_778
10
42.3919139
20
19.7325703
40
3.9992258
50
344.9593759
51
0.0542026
0
ARC
8
DEFAULT_255_2_778
10
42.4404262
20
19.7228548
40
3.9498555
50
319.5332507
51
344.9128622
0
ARC
8
DEFAULT_255_2_778
10
42.4318842
20
19.7259995
40
3.9583963
50
287.8303112
51
319.5788661
0
ARC
8
DEFAULT_255_2_778
10
42.4289799
20
19.7487097
40
3.9809071
50
271.6979841
51
287.7700197
0
ARC
8
DEFAULT_255_2_778
10
42.422514
20
19.8491081
40
4.0814544
50
269.998932
51
271.7469511
0
ARC
8
DEFAULT_255_2_778
10
17.3773585
20
19.7667093
40
3.9990575
50
254.958672
51
270.0541499
0
ARC
8
DEFAULT_255_2_778
10
17.3676992
20
19.7183879
40
3.9498864
50
229.5324886
51
254.9120823
0
ARC
8
DEFAULT_255_2_778
10
17.370901
20
19.7270156
40
3.9585294
50
197.8307628
51
229.5782791
0
ARC
8
DEFAULT_255_2_778
10
17.3934725
20
19.7298565
40
3.9808888
50
181.6628438
51
197.7702122
0
ARC
8
DEFAULT_255_2_778
10
17.4932193
20
19.7362763
40
4.0807814
50
179.9989151
51
181.7123026
0
LINE
8
DEFAULT_255_2_778
10
17.381138
20
58.4343536
11
42.422438
21
58.4343536
0
LINE
8
DEFAULT_255_2_778
10
46.391138
20
54.4656536
11
46.391138
21
19.7363536
0
LINE
8
DEFAULT_255_2_778
10
42.422438
20
15.7676536
11
17.381138
21
15.7676536
0
LINE
8
DEFAULT_255_2_778
10
13.412438
20
19.7363536
11
13.412438
21
54.4656536
0
ENDSEC
0
EOF