0
SECTION
2
HEADER
9
$MEASUREMENT
70
1
0
ENDSEC
0
SECTION
2
TABLES
0
TABLE
2
LTYPE
0
LTYPE
72
65
70
64
2
CONTINUOUS
3
______
73
0
40
0
0
ENDTAB
0
TABLE
2
LAYER
0
LAYER
2
DEFAULT_255_2_778
70
0
62
255
6
CONTINUOUS
0
LAYER
2
DEFAULT_255_1_234
70
0
62
255
6
CONTINUOUS
0
ENDTAB
0
ENDSEC
0
SECTION
2
ENTITIES
0
ARC
8
DEFAULT_255_2_778
10
3.5700693
20
107.5552026
40
0.7914215
50
129.1312896
51
180.1450914
0
ARC
8
DEFAULT_255_2_778
10
3.5703345
20
107.5556897
40
0.7912112
50
89.854026
51
129.1684493
0
ARC
8
DEFAULT_255_2_778
10
25.7993937
20
107.5553762
40
0.7915249
50
39.4792447
51
90.147911
0
ARC
8
DEFAULT_255_2_778
10
25.7999935
20
107.5552229
40
0.7911595
50
359.8533901
51
39.5154338
0
ARC
8
DEFAULT_255_2_778
10
25.7996693
20
-1.9863497
40
0.7914836
50
309.4761667
51
0.1482649
0
ARC
8
DEFAULT_255_2_778
10
25.799398
20
-1.9867808
40
0.7913235
50
269.8517415
51
309.511178
0
ARC
8
DEFAULT_255_2_778
10
3.570342
20
-1.9867226
40
0.7913815
50
219.1282118
51
270.1454017
0
ARC
8
DEFAULT_255_2_778
10
3.5700247
20
-1.9863401
40
0.7913769
50
179.8524075
51
219.1641908
0
LINE
8
DEFAULT_255_2_778
10
3.5723503
20
108.3468985
11
25.7973503
21
108.3468985
0
LINE
8
DEFAULT_255_2_778
10
26.5911503
20
107.5531985
11
26.5911503
21
-1.9843015
0
LINE
8
DEFAULT_255_2_778
10
25.7973503
20
-2.7781015
11
3.5723503
21
-2.7781015
0
LINE
8
DEFAULT_255_2_778
10
2.7786503
20
-1.9843015
11
2.7786503
21
107.5531985
0
LINE
8
DEFAULT_255_1_234
10
10.682723
20
-0.2802337
11
10.8377355
21
-0.2802337
0
LINE
8
DEFAULT_255_1_234
10
9.9373777
20
-0.1212053
11
9.9373777
21
-0.0087609
0
LINE
8
DEFAULT_255_1_234
10
10.8377355
20
0.1422357
11
10.682723
21
0.1422357
0
LINE
8
DEFAULT_255_1_234
10
10.0923902
20
-0.0127768
11
10.0923902
21
-0.1260243
0
ARC
8
DEFAULT_255_1_234
10
10.2896742
20
-0.2205154
40
0.5513052
50
340.1774281
51
353.7814284
0
ARC
8
DEFAULT_255_1_234
10
10.4468095
20
-0.2790418
40
0.3836379
50
311.4558989
51
340.4421614
0
ARC
8
DEFAULT_255_1_234
10
10.4434763
20
-0.2679472
40
0.3941894
50
282.4333181
51
310.7513653
0
ARC
8
DEFAULT_255_1_234
10
10.3995502
20
-0.0864321
40
0.5809175
50
269.9358511
51
282.809604
0
ARC
8
DEFAULT_255_1_234
10
10.3943568
20
0.0593212
40
0.7266847
50
270.0021091
51
270.3581957
0
ARC
8
DEFAULT_255_1_234
10
10.3890985
20
-0.2007415
40
0.4666519
50
250.7884749
51
270.6489167
0
ARC
8
DEFAULT_255_1_234
10
10.372282
20
-0.2644681
40
0.4009729
50
219.3627325
51
250.0611886
0
ARC
8
DEFAULT_255_1_234
10
10.4552031
20
-0.1939958
40
0.5097822
50
193.5479632
51
219.5756669
0
ARC
8
DEFAULT_255_1_234
10
10.6923652
20
-0.1324081
40
0.7547848
50
181.1218675
51
193.87563
0
ARC
8
DEFAULT_255_1_234
10
10.8993833
20
-0.121342
40
0.9620055
50
179.9918545
51
181.5394234
0
ARC
8
DEFAULT_255_1_234
10
10.7142935
20
-0.0050212
40
0.7769248
50
169.5837241
51
180.2757934
0
ARC
8
DEFAULT_255_1_234
10
10.5305873
20
0.0289229
40
0.590109
50
155.0365899
51
169.6003176
0
ARC
8
DEFAULT_255_1_234
10
10.4170337
20
0.0836677
40
0.4640625
50
136.783148
51
155.2472683
0
ARC
8
DEFAULT_255_1_234
10
10.3780814
20
0.1167562
40
0.4130255
50
121.7633186
51
136.428115
0
ARC
8
DEFAULT_255_1_234
10
10.3915776
20
0.0918227
40
0.4413323
50
95.6459699
51
121.5490577
0
ARC
8
DEFAULT_255_1_234
10
10.4073058
20
-0.0190051
40
0.55319
50
89.924208
51
96.1377933
0
ARC
8
DEFAULT_255_1_234
10
10.4123491
20
-0.0071458
40
0.5413475
50
76.6779277
51
90.4563316
0
ARC
8
DEFAULT_255_1_234
10
10.4517114
20
0.1519114
40
0.3775041
50
47.485847
51
76.9287264
0
ARC
8
DEFAULT_255_1_234
10
10.4370087
20
0.1419159
40
0.3948286
50
16.5424086
51
46.8933463
0
ARC
8
DEFAULT_255_1_234
10
10.2762244
20
0.0890861
40
0.564021
50
5.4072051
51
17.0365086
0
ARC
8
DEFAULT_255_1_234
10
10.1323261
20
0.0659679
40
0.5556559
50
7.8891745
51
15.9239216
0
ARC
8
DEFAULT_255_1_234
10
10.3310274
20
0.1236631
40
0.3487515
50
15.7653144
51
27.9410532
0
ARC
8
DEFAULT_255_1_234
10
10.4414492
20
0.182779
40
0.2235026
50
27.8166557
51
46.4008329
0
ARC
8
DEFAULT_255_1_234
10
10.4464135
20
0.1822082
40
0.2205286
50
47.4371857
51
75.0698205
0
ARC
8
DEFAULT_255_1_234
10
10.4155529
20
0.0747765
40
0.3322915
50
74.7008593
51
87.8124495
0
ARC
8
DEFAULT_255_1_234
10
10.4082217
20
-0.0308156
40
0.4380987
50
87.3814673
51
90.0240855
0
ARC
8
DEFAULT_255_1_234
10
10.404376
20
0.0869291
40
0.3203749
50
89.3451631
51
108.5745436
0
ARC
8
DEFAULT_255_1_234
10
10.3906865
20
0.1382908
40
0.2673494
50
109.2998449
51
143.3037509
0
ARC
8
DEFAULT_255_1_234
10
10.4668938
20
0.0796881
40
0.3634757
50
143.0753173
51
163.1916937
0
ARC
8
DEFAULT_255_1_234
10
10.6620666
20
0.0180967
40
0.5681262
50
162.9373603
51
174.6208611
0
ARC
8
DEFAULT_255_1_234
10
10.9246708
20
-0.010699
40
0.8322832
50
174.3419979
51
180.1430411
0
ARC
8
DEFAULT_255_1_234
10
10.8315864
20
-0.1301302
40
0.7392076
50
179.6817502
51
189.150529
0
ARC
8
DEFAULT_255_1_234
10
10.5815112
20
-0.171781
40
0.4856932
50
188.9910863
51
203.5773039
0
ARC
8
DEFAULT_255_1_234
10
10.4735445
20
-0.2165789
40
0.3688271
50
203.9077269
51
215.1312379
0
ARC
8
DEFAULT_255_1_234
10
10.3812539
20
-0.2881059
40
0.2522457
50
213.9071664
51
263.8849284
0
ARC
8
DEFAULT_255_1_234
10
10.3937868
20
-0.2096482
40
0.3316174
50
263.1758525
51
270.1031083
0
ARC
8
DEFAULT_255_1_234
10
10.396996
20
-0.0849635
40
0.4563091
50
269.6719807
51
279.0609165
0
ARC
8
DEFAULT_255_1_234
10
10.4236728
20
-0.2462093
40
0.2928759
50
278.8750225
51
293.6346586
0
ARC
8
DEFAULT_255_1_234
10
10.4556936
20
-0.32141
40
0.2111472
50
293.8553404
51
310.0518804
0
ARC
8
DEFAULT_255_1_234
10
10.456179
20
-0.3276484
40
0.2060917
50
311.0646779
51
332.0108348
0
ARC
8
DEFAULT_255_1_234
10
10.3369517
20
-0.2619022
40
0.3422352
50
331.6588543
51
343.2878891
0
ARC
8
DEFAULT_255_1_234
10
10.1307032
20
-0.1985202
40
0.5580003
50
343.1446044
51
351.010618
0
ARC
8
DEFAULT_255_1_234
10
9.9765678
20
-0.1704129
40
0.7146438
50
350.7157277
51
351.1602153
0
LINE
8
DEFAULT_255_1_234
10
11.2136209
20
0.5181211
11
11.2136209
21
-0.6513
0
LINE
8
DEFAULT_255_1_234
10
11.2136209
20
-0.6513
11
11.0594115
21
-0.6513
0
LINE
8
DEFAULT_255_1_234
10
11.0594115
20
-0.6513
11
11.0594115
21
0.5181211
0
LINE
8
DEFAULT_255_1_234
10
11.0594115
20
0.5181211
11
11.2136209
21
0.5181211
0
LINE
8
DEFAULT_255_1_234
10
11.6441221
20
-0.0955037
11
11.5252523
21
-0.0649831
0
LINE
8
DEFAULT_255_1_234
10
11.5252523
20
-0.0649831
11
11.5846872
21
0.5181211
0
LINE
8
DEFAULT_255_1_234
10
11.5846872
20
0.5181211
11
12.1838549
21
0.5181211
0
LINE
8
DEFAULT_255_1_234
10
12.1838549
20
0.5181211
11
12.1838549
21
0.3807784
0
LINE
8
DEFAULT_255_1_234
10
12.1838549
20
0.3807784
11
11.7107855
21
0.3807784
0
LINE
8
DEFAULT_255_1_234
10
11.7107855
20
0.3807784
11
11.6754458
21
0.0619184
0
LINE
8
DEFAULT_255_1_234
10
11.4834873
20
-0.3436844
11
11.6240427
21
-0.3436844
0
LINE
8
DEFAULT_255_1_234
10
11.6834776
20
-0.0633768
11
11.6441221
21
-0.0955037
0
ARC
8
DEFAULT_255_1_234
10
11.8609242
20
-0.256077
40
0.3681349
50
93.7182161
51
120.2538958
0
ARC
8
DEFAULT_255_1_234
10
11.8703505
20
-0.3368606
40
0.449379
50
89.9660152
51
94.2496022
0
ARC
8
DEFAULT_255_1_234
10
11.8744239
20
-0.2779451
40
0.390482
50
73.8043271
51
90.5585896
0
ARC
8
DEFAULT_255_1_234
10
11.8979136
20
-0.1921398
40
0.3015334
50
41.3071453
51
73.5430202
0
ARC
8
DEFAULT_255_1_234
10
11.8562964
20
-0.2279676
40
0.3564457
50
13.5075983
51
41.2174222
0
ARC
8
DEFAULT_255_1_234
10
11.6921167
20
-0.2709514
40
0.5261351
50
1.1331335
51
13.8829381
0
ARC
8
DEFAULT_255_1_234
10
11.5509536
20
-0.2785335
40
0.6674378
50
359.9919444
51
1.544251
0
ARC
8
DEFAULT_255_1_234
10
11.6786363
20
-0.282672
40
0.5397702
50
347.8572367
51
0.4293338
0
ARC
8
DEFAULT_255_1_234
10
11.853668
20
-0.3223264
40
0.3603188
50
323.673004
51
348.1672506
0
ARC
8
DEFAULT_255_1_234
10
11.8831188
20
-0.3402832
40
0.3259678
50
316.8171152
51
323.1492751
0
ARC
8
DEFAULT_255_1_234
10
11.8892377
20
-0.343954
40
0.3189975
50
281.8396411
51
316.5457803
0
ARC
8
DEFAULT_255_1_234
10
11.8516641
20
-0.1884238
40
0.4789527
50
269.5770101
51
282.4214771
0
ARC
8
DEFAULT_255_1_234
10
11.8445453
20
-0.2097875
40
0.45759
50
256.2427136
51
270.4486331
0
ARC
8
DEFAULT_255_1_234
10
11.8146355
20
-0.3297771
40
0.3339303
50
228.9023911
51
256.3314342
0
ARC
8
DEFAULT_255_1_234
10
11.8072588
20
-0.3414254
40
0.32031
50
193.753695
51
228.5271154
0
ARC
8
DEFAULT_255_1_234
10
11.9310542
20
-0.30512
40
0.4492253
50
184.924711
51
194.497588
0
ARC
8
DEFAULT_255_1_234
10
11.9503108
20
-0.3015409
40
0.3289787
50
187.3600538
51
198.6732863
0
ARC
8
DEFAULT_255_1_234
10
11.8453402
20
-0.3379326
40
0.217884
50
198.4451669
51
217.794479
0
ARC
8
DEFAULT_255_1_234
10
11.8157578
20
-0.3588915
40
0.1816698
50
218.2887171
51
228.5612368
0
ARC
8
DEFAULT_255_1_234
10
11.8255365
20
-0.3457037
40
0.1980329
50
228.9654866
51
258.1234728
0
ARC
8
DEFAULT_255_1_234
10
11.8461075
20
-0.2576167
40
0.2884748
50
257.7258293
51
270.401361
0
ARC
8
DEFAULT_255_1_234
10
11.8505961
20
-0.3021179
40
0.2439788
50
269.4204404
51
286.4209037
0
ARC
8
DEFAULT_255_1_234
10
11.8654448
20
-0.3560343
40
0.1880666
50
286.7251356
51
320.600362
0
ARC
8
DEFAULT_255_1_234
10
11.8271273
20
-0.3249405
40
0.2374121
50
320.6712579
51
344.5441685
0
ARC
8
DEFAULT_255_1_234
10
11.71146
20
-0.2909955
40
0.3579479
50
344.2412205
51
356.7357071
0
ARC
8
DEFAULT_255_1_234
10
11.5865748
20
-0.2806556
40
0.4832297
50
356.3548756
51
0.0500261
0
ARC
8
DEFAULT_255_1_234
10
11.7202257
20
-0.277535
40
0.3495889
50
359.5576869
51
12.953486
0
ARC
8
DEFAULT_255_1_234
10
11.8257155
20
-0.2519566
40
0.2410532
50
12.6490276
51
41.6081334
0
ARC
8
DEFAULT_255_1_234
10
11.8487526
20
-0.2323679
40
0.2108218
50
41.7850273
51
85.9892764
0
ARC
8
DEFAULT_255_1_234
10
11.8364262
20
-0.3136538
40
0.2928454
50
84.6957577
51
90.0676183
0
ARC
8
DEFAULT_255_1_234
10
11.8340746
20
-0.3805284
40
0.3597255
50
89.6804936
51
99.1614436
0
ARC
8
DEFAULT_255_1_234
10
11.8135378
20
-0.2577869
40
0.235281
50
98.9830931
51
113.8908934
0
ARC
8
DEFAULT_255_1_234
10
11.7905788
20
-0.2036413
40
0.176479
50
114.1950727
51
127.3641004
0
LINE
8
DEFAULT_255_1_234
10
13.099473
20
0.0506739
11
13.099473
21
0.0073025
0
LINE
8
DEFAULT_255_1_234
10
12.5573307
20
-0.6521032
11
12.5284165
21
-0.6521032
0
LINE
8
DEFAULT_255_1_234
10
12.5284165
20
-0.6521032
11
12.5284165
21
-0.5268081
0
LINE
8
DEFAULT_255_1_234
10
12.5284165
20
-0.5268081
11
12.5597402
21
-0.5268081
0
LINE
8
DEFAULT_255_1_234
10
12.9508859
20
0.0217597
11
12.9508859
21
0.0811945
0
ARC
8
DEFAULT_255_1_234
10
12.6715129
20
0.0963403
40
0.3635579
50
297.4037347
51
320.016758
0
ARC
8
DEFAULT_255_1_234
10
12.7005077
20
0.040624
40
0.3007486
50
270.2633101
51
297.3851877
0
ARC
8
DEFAULT_255_1_234
10
12.6971033
20
0.0869904
40
0.3471448
50
269.9966443
51
270.7900392
0
ARC
8
DEFAULT_255_1_234
10
12.6945514
20
0.0868143
40
0.3469779
50
254.5999133
51
270.4180344
0
ARC
8
DEFAULT_255_1_234
10
12.6802874
20
0.0303647
40
0.2887697
50
236.4717942
51
254.3541279
0
ARC
8
DEFAULT_255_1_234
10
12.6959091
20
0.0513711
40
0.3149125
50
208.4727207
51
236.2134933
0
ARC
8
DEFAULT_255_1_234
10
12.7597866
20
0.0904455
40
0.3897115
50
204.3447514
51
209.0453999
0
ARC
8
DEFAULT_255_1_234
10
12.8277442
20
0.1192656
40
0.4635101
50
183.9375985
51
204.1276318
0
ARC
8
DEFAULT_255_1_234
10
12.9185694
20
0.1290482
40
0.5548037
50
179.9652252
51
184.3013875
0
ARC
8
DEFAULT_255_1_234
10
12.894574
20
0.1323507
40
0.5308164
50
166.7585989
51
180.3201225
0
ARC
8
DEFAULT_255_1_234
10
12.8099353
20
0.1507488
40
0.4442163
50
154.6955053
51
166.5679793
0
ARC
8
DEFAULT_255_1_234
10
12.7246223
20
0.193721
40
0.3487299
50
136.3324195
51
155.0871442
0
ARC
8
DEFAULT_255_1_234
10
12.6965296
20
0.2177954
40
0.3117924
50
121.236733
51
135.9680508
0
ARC
8
DEFAULT_255_1_234
10
12.7105794
20
0.1917743
40
0.3413302
50
96.845628
51
120.9881519
0
ARC
8
DEFAULT_255_1_234
10
12.7251376
20
0.0982515
40
0.4359341
50
89.8870174
51
97.2802754
0
ARC
8
DEFAULT_255_1_234
10
12.7303814
20
0.1620095
40
0.3722009
50
70.6505584
51
90.6749113
0
ARC
8
DEFAULT_255_1_234
10
12.7435093
20
0.2133361
40
0.3194571
50
36.7492984
51
69.8219918
0
ARC
8
DEFAULT_255_1_234
10
12.6436258
20
0.1354993
40
0.4460685
50
15.39587
51
37.0840084
0
ARC
8
DEFAULT_255_1_234
10
12.4306692
20
0.0734242
40
0.6678714
50
3.9488873
51
15.6798563
0
ARC
8
DEFAULT_255_1_234
10
12.1905319
20
0.0517964
40
0.9089418
50
359.929245
51
4.2665314
0
ARC
8
DEFAULT_255_1_234
10
11.7299757
20
0.0006513
40
1.3695135
50
352.8366322
51
0.2782669
0
ARC
8
DEFAULT_255_1_234
10
12.2587435
20
-0.0680371
40
0.8363105
50
341.8359505
51
352.9884176
0
ARC
8
DEFAULT_255_1_234
10
12.5806154
20
-0.17653
40
0.4966642
50
322.8578092
51
342.1527901
0
ARC
8
DEFAULT_255_1_234
10
12.667011
20
-0.2354616
40
0.3922466
50
319.334325
51
322.0998941
0
ARC
8
DEFAULT_255_1_234
10
12.6360447
20
-0.2043791
40
0.4360033
50
285.9541367
51
318.8878087
0
ARC
8
DEFAULT_255_1_234
10
12.5633709
20
0.02666
40
0.678149
50
272.9281676
51
286.4922826
0
ARC
8
DEFAULT_255_1_234
10
12.5443826
20
0.2517587
40
0.9039547
50
270.8207226
51
273.4012994
0
ARC
8
DEFAULT_255_1_234
10
12.5532677
20
0.0698666
40
0.5967098
50
270.6214993
51
281.4062806
0
ARC
8
DEFAULT_255_1_234
10
12.5962658
20
-0.1357167
40
0.3866861
50
281.1852553
51
299.0621114
0
ARC
8
DEFAULT_255_1_234
10
12.633623
20
-0.2078202
40
0.3055236
50
299.5067782
51
313.1200873
0
ARC
8
DEFAULT_255_1_234
10
12.6358196
20
-0.2157446
40
0.2982623
50
313.8526205
51
338.5989322
0
ARC
8
DEFAULT_255_1_234
10
12.473427
20
-0.1490219
40
0.4738131
50
338.2523585
51
351.2430902
0
ARC
8
DEFAULT_255_1_234
10
12.2323566
20
-0.1080553
40
0.7183203
50
350.9409515
51
357.6691871
0
ARC
8
DEFAULT_255_1_234
10
12.7213996
20
0.0921764
40
0.2294452
50
269.9447023
51
306.8248917
0
ARC
8
DEFAULT_255_1_234
10
12.6976911
20
0.1344898
40
0.2775994
50
305.5072438
51
327.0773448
0
ARC
8
DEFAULT_255_1_234
10
12.7095352
20
0.1250025
40
0.2625056
50
327.4104943
51
336.840169
0
ARC
8
DEFAULT_255_1_234
10
12.4001417
20
0.0844302
40
0.5507537
50
359.6633817
51
10.117533
0
ARC
8
DEFAULT_255_1_234
10
12.5755215
20
0.1168777
40
0.372403
50
9.9430141
51
26.7700076
0
ARC
8
DEFAULT_255_1_234
10
12.6352428
20
0.1444187
40
0.3066865
50
27.2015464
51
34.6829435
0
ARC
8
DEFAULT_255_1_234
10
12.6841908
20
0.1811977
40
0.245519
50
34.1250343
51
50.3070065
0
ARC
8
DEFAULT_255_1_234
10
12.7288587
20
0.2346385
40
0.1758693
50
50.3851167
51
90.6705993
0
ARC
8
DEFAULT_255_1_234
10
12.724182
20
0.2041799
40
0.2063326
50
89.272901
51
111.9140407
0
ARC
8
DEFAULT_255_1_234
10
12.7222348
20
0.218244
40
0.1925887
50
112.9382311
51
142.5320782
0
ARC
8
DEFAULT_255_1_234
10
12.7768528
20
0.1738969
40
0.2629232
50
142.1021256
51
166.3835592
0
ARC
8
DEFAULT_255_1_234
10
12.8949834
20
0.1433915
40
0.3849193
50
166.1100289
51
178.665427
0
ARC
8
DEFAULT_255_1_234
10
12.9997423
20
0.1375117
40
0.4897989
50
178.2632126
51
180.0111093
0
ARC
8
DEFAULT_255_1_234
10
12.9195543
20
0.1346728
40
0.40962
50
179.6161962
51
191.8787166
0
ARC
8
DEFAULT_255_1_234
10
12.7975382
20
0.1076896
40
0.2846655
50
191.6191692
51
215.2972286
0
ARC
8
DEFAULT_255_1_234
10
12.7778573
20
0.0961918
40
0.2619665
50
215.7320102
51
216.5355409
0
ARC
8
DEFAULT_255_1_234
10
12.723966
20
0.0529647
40
0.1929497
50
215.7486685
51
239.9727502
0
ARC
8
DEFAULT_255_1_234
10
12.7169575
20
0.0478894
40
0.1850822
50
241.0650169
51
269.2810483
0
ARC
8
DEFAULT_255_1_234
10
12.721149
20
0.0969371
40
0.2342059
50
268.4062526
51
270.0071348
0
LINE
8
DEFAULT_255_1_234
10
14.0705102
20
-0.5300208
11
14.0705102
21
-0.6513
0
LINE
8
DEFAULT_255_1_234
10
14.0705102
20
-0.6513
11
13.3042824
21
-0.6513
0
LINE
8
DEFAULT_255_1_234
10
13.3042824
20
-0.6513
11
13.3042824
21
-0.5444779
0
LINE
8
DEFAULT_255_1_234
10
13.3042824
20
-0.5444779
11
13.709082
21
-0.0947005
0
LINE
8
DEFAULT_255_1_234
10
13.4303807
20
0.1735595
11
13.2817935
21
0.1735595
0
LINE
8
DEFAULT_255_1_234
10
13.7966279
20
-0.1902782
11
13.4833901
21
-0.5300208
0
LINE
8
DEFAULT_255_1_234
10
13.4833901
20
-0.5300208
11
14.0705102
21
-0.5300208
0
ARC
8
DEFAULT_255_1_234
10
12.3600653
20
1.0982527
40
1.8008286
50
318.5132453
51
320.7828378
0
ARC
8
DEFAULT_255_1_234
10
12.8887628
20
0.6679426
40
1.1191493
50
320.7372736
51
323.9737074
0
ARC
8
DEFAULT_255_1_234
10
13.2807484
20
0.3839361
40
0.6350923
50
323.8961724
51
328.6421089
0
ARC
8
DEFAULT_255_1_234
10
13.4854079
20
0.2577031
40
0.3946393
50
328.8299013
51
331.789948
0
ARC
8
DEFAULT_255_1_234
10
13.5851258
20
0.2062509
40
0.2824501
50
331.4255242
51
352.9364833
0
ARC
8
DEFAULT_255_1_234
10
13.5987759
20
0.2031976
40
0.2685315
50
353.2248685
51
0.0169286
0
ARC
8
DEFAULT_255_1_234
10
13.6197635
20
0.205495
40
0.2475536
50
359.4866256
51
15.9339782
0
ARC
8
DEFAULT_255_1_234
10
13.6704621
20
0.2191286
40
0.1950618
50
16.1714718
51
43.5284424
0
ARC
8
DEFAULT_255_1_234
10
13.6781929
20
0.2268573
40
0.184134
50
43.4415429
51
83.1661404
0
ARC
8
DEFAULT_255_1_234
10
13.6647847
20
0.1531771
40
0.258926
50
82.160215
51
90.1505798
0
ARC
8
DEFAULT_255_1_234
10
13.6616275
20
0.0994865
40
0.3126255
50
89.5460705
51
102.5418777
0
ARC
8
DEFAULT_255_1_234
10
13.6373361
20
0.2025665
40
0.2067346
50
102.1739365
51
129.2061916
0
ARC
8
DEFAULT_255_1_234
10
13.6294433
20
0.2150094
40
0.1921118
50
129.7279328
51
135.7542026
0
ARC
8
DEFAULT_255_1_234
10
13.641596
20
0.2053045
40
0.2075944
50
136.175737
51
166.3674722
0
ARC
8
DEFAULT_255_1_234
10
13.7422879
20
0.1783182
40
0.3118201
50
165.9092917
51
178.8683903
0
ARC
8
DEFAULT_255_1_234
10
13.8287741
20
0.1736179
40
0.3983935
50
178.438168
51
180.0083905
0
ARC
8
DEFAULT_255_1_234
10
13.6886343
20
0.1775231
40
0.4068601
50
163.2878735
51
180.5581814
0
ARC
8
DEFAULT_255_1_234
10
13.6084604
20
0.199584
40
0.3237344
50
133.454115
51
162.9470031
0
ARC
8
DEFAULT_255_1_234
10
13.6263146
20
0.1806
40
0.349795
50
100.7869394
51
133.4384016
0
ARC
8
DEFAULT_255_1_234
10
13.6610917
20
0.0257319
40
0.5084616
50
89.6605301
51
101.3704185
0
ARC
8
DEFAULT_255_1_234
10
13.6677256
20
0.0318496
40
0.502348
50
78.2171172
51
90.4130393
0
ARC
8
DEFAULT_255_1_234
10
13.7032334
20
0.1942637
40
0.3361092
50
55.9268222
51
78.4888551
0
ARC
8
DEFAULT_255_1_234
10
13.7228774
20
0.2281324
40
0.2970617
50
47.9292255
51
55.4054003
0
ARC
8
DEFAULT_255_1_234
10
13.7330335
20
0.2384502
40
0.2825983
50
4.3347696
51
48.0560701
0
ARC
8
DEFAULT_255_1_234
10
13.6234729
20
0.2214601
40
0.393225
50
359.925209
51
5.5967654
0
ARC
8
DEFAULT_255_1_234
10
13.666362
20
0.2270816
40
0.3503892
50
337.8914096
51
358.9967724
0
ARC
8
DEFAULT_255_1_234
10
13.3950033
20
0.3317706
40
0.6412172
50
326.9135351
51
338.3505194
0
ARC
8
DEFAULT_255_1_234
10
12.9964336
20
0.5872284
40
1.1146189
50
319.6472867
51
327.095818
0
ARC
8
DEFAULT_255_1_234
10
12.6131339
20
0.9034
40
1.6114559
50
317.2586784
51
319.9046139
0
LINE
8
DEFAULT_255_1_234
10
14.5524145
20
-0.0938974
11
14.5524145
21
-0.2151766
0
LINE
8
DEFAULT_255_1_234
10
14.5524145
20
-0.2151766
11
14.1604657
21
-0.2151766
0
LINE
8
DEFAULT_255_1_234
10
14.1604657
20
-0.2151766
11
14.1604657
21
-0.0938974
0
LINE
8
DEFAULT_255_1_234
10
14.1604657
20
-0.0938974
11
14.5524145
21
-0.0938974
0
LINE
8
DEFAULT_255_1_234
10
15.4254645
20
-0.2802337
11
15.580477
21
-0.2802337
0
LINE
8
DEFAULT_255_1_234
10
14.6801191
20
-0.1212053
11
14.6801191
21
-0.0087609
0
LINE
8
DEFAULT_255_1_234
10
15.580477
20
0.1422357
11
15.4254645
21
0.1422357
0
LINE
8
DEFAULT_255_1_234
10
14.8351317
20
-0.0127768
11
14.8351317
21
-0.1260243
0
ARC
8
DEFAULT_255_1_234
10
15.0324157
20
-0.2205154
40
0.5513052
50
340.1774281
51
353.7814284
0
ARC
8
DEFAULT_255_1_234
10
15.1895509
20
-0.2790418
40
0.3836379
50
311.4558989
51
340.4421614
0
ARC
8
DEFAULT_255_1_234
10
15.1862178
20
-0.2679472
40
0.3941894
50
282.4333181
51
310.7513653
0
ARC
8
DEFAULT_255_1_234
10
15.1422917
20
-0.0864321
40
0.5809175
50
269.9358511
51
282.809604
0
ARC
8
DEFAULT_255_1_234
10
15.1370983
20
0.0593212
40
0.7266847
50
270.0021091
51
270.3581957
0
ARC
8
DEFAULT_255_1_234
10
15.13184
20
-0.2007415
40
0.4666519
50
250.7884749
51
270.6489167
0
ARC
8
DEFAULT_255_1_234
10
15.1150234
20
-0.2644681
40
0.4009729
50
219.3627325
51
250.0611886
0
ARC
8
DEFAULT_255_1_234
10
15.1979446
20
-0.1939958
40
0.5097822
50
193.5479632
51
219.5756669
0
ARC
8
DEFAULT_255_1_234
10
15.4351066
20
-0.1324081
40
0.7547848
50
181.1218675
51
193.87563
0
ARC
8
DEFAULT_255_1_234
10
15.6421247
20
-0.121342
40
0.9620055
50
179.9918545
51
181.5394234
0
ARC
8
DEFAULT_255_1_234
10
15.4570349
20
-0.0050212
40
0.7769248
50
169.5837241
51
180.2757934
0
ARC
8
DEFAULT_255_1_234
10
15.2733288
20
0.0289229
40
0.590109
50
155.0365899
51
169.6003176
0
ARC
8
DEFAULT_255_1_234
10
15.1597752
20
0.0836677
40
0.4640625
50
136.783148
51
155.2472683
0
ARC
8
DEFAULT_255_1_234
10
15.1208228
20
0.1167562
40
0.4130255
50
121.7633186
51
136.428115
0
ARC
8
DEFAULT_255_1_234
10
15.1343191
20
0.0918227
40
0.4413323
50
95.6459699
51
121.5490577
0
ARC
8
DEFAULT_255_1_234
10
15.1500472
20
-0.0190051
40
0.55319
50
89.924208
51
96.1377933
0
ARC
8
DEFAULT_255_1_234
10
15.1550905
20
-0.0071458
40
0.5413475
50
76.6779277
51
90.4563316
0
ARC
8
DEFAULT_255_1_234
10
15.1944529
20
0.1519114
40
0.3775041
50
47.485847
51
76.9287264
0
ARC
8
DEFAULT_255_1_234
10
15.1797501
20
0.1419159
40
0.3948286
50
16.5424086
51
46.8933463
0
ARC
8
DEFAULT_255_1_234
10
15.0189658
20
0.0890861
40
0.564021
50
5.4072051
51
17.0365086
0
ARC
8
DEFAULT_255_1_234
10
14.8750676
20
0.0659679
40
0.5556559
50
7.8891745
51
15.9239216
0
ARC
8
DEFAULT_255_1_234
10
15.0737689
20
0.1236631
40
0.3487515
50
15.7653144
51
27.9410532
0
ARC
8
DEFAULT_255_1_234
10
15.1841907
20
0.182779
40
0.2235026
50
27.8166557
51
46.4008329
0
ARC
8
DEFAULT_255_1_234
10
15.189155
20
0.1822082
40
0.2205286
50
47.4371857
51
75.0698205
0
ARC
8
DEFAULT_255_1_234
10
15.1582944
20
0.0747765
40
0.3322915
50
74.7008593
51
87.8124495
0
ARC
8
DEFAULT_255_1_234
10
15.1509632
20
-0.0308156
40
0.4380987
50
87.3814673
51
90.0240855
0
ARC
8
DEFAULT_255_1_234
10
15.1471175
20
0.0869291
40
0.3203749
50
89.3451631
51
108.5745436
0
ARC
8
DEFAULT_255_1_234
10
15.133428
20
0.1382908
40
0.2673494
50
109.2998449
51
143.3037509
0
ARC
8
DEFAULT_255_1_234
10
15.2096353
20
0.0796881
40
0.3634757
50
143.0753173
51
163.1916937
0
ARC
8
DEFAULT_255_1_234
10
15.404808
20
0.0180967
40
0.5681262
50
162.9373603
51
174.6208611
0
ARC
8
DEFAULT_255_1_234
10
15.6674123
20
-0.010699
40
0.8322832
50
174.3419979
51
180.1430411
0
ARC
8
DEFAULT_255_1_234
10
15.5743279
20
-0.1301302
40
0.7392076
50
179.6817502
51
189.150529
0
ARC
8
DEFAULT_255_1_234
10
15.3242527
20
-0.171781
40
0.4856932
50
188.9910863
51
203.5773039
0
ARC
8
DEFAULT_255_1_234
10
15.216286
20
-0.2165789
40
0.3688271
50
203.9077269
51
215.1312379
0
ARC
8
DEFAULT_255_1_234
10
15.1239953
20
-0.2881059
40
0.2522457
50
213.9071664
51
263.8849284
0
ARC
8
DEFAULT_255_1_234
10
15.1365283
20
-0.2096482
40
0.3316174
50
263.1758525
51
270.1031083
0
ARC
8
DEFAULT_255_1_234
10
15.1397374
20
-0.0849635
40
0.4563091
50
269.6719807
51
279.0609165
0
ARC
8
DEFAULT_255_1_234
10
15.1664142
20
-0.2462093
40
0.2928759
50
278.8750225
51
293.6346586
0
ARC
8
DEFAULT_255_1_234
10
15.1984351
20
-0.32141
40
0.2111472
50
293.8553404
51
310.0518804
0
ARC
8
DEFAULT_255_1_234
10
15.1989204
20
-0.3276484
40
0.2060917
50
311.0646779
51
332.0108348
0
ARC
8
DEFAULT_255_1_234
10
15.0796931
20
-0.2619022
40
0.3422352
50
331.6588543
51
343.2878891
0
ARC
8
DEFAULT_255_1_234
10
14.8734446
20
-0.1985202
40
0.5580003
50
343.1446044
51
351.010618
0
ARC
8
DEFAULT_255_1_234
10
14.7193092
20
-0.1704129
40
0.7146438
50
350.7157277
51
351.1602153
0
LINE
8
DEFAULT_255_1_234
10
16.5667745
20
0.1799849
11
16.4117619
21
0.1799849
0
LINE
8
DEFAULT_255_1_234
10
15.7194261
20
-0.3123606
11
15.8744386
21
-0.3123606
0
ARC
8
DEFAULT_255_1_234
10
16.4776432
20
1.0746768
40
1.252368
50
248.9199003
51
254.1439814
0
ARC
8
DEFAULT_255_1_234
10
16.3095927
20
0.6420234
40
0.788226
50
241.633709
51
249.0064503
0
ARC
8
DEFAULT_255_1_234
10
16.1567321
20
0.3619317
40
0.4691427
50
230.498225
51
241.8087113
0
ARC
8
DEFAULT_255_1_234
10
16.0782895
20
0.2619906
40
0.3421437
50
227.4064532
51
229.9881192
0
ARC
8
DEFAULT_255_1_234
10
16.0295416
20
0.2144088
40
0.2741476
50
200.6781896
51
228.1763934
0
ARC
8
DEFAULT_255_1_234
10
16.0367727
20
0.2129077
40
0.2804109
50
179.5061581
51
199.8694617
0
ARC
8
DEFAULT_255_1_234
10
16.0358478
20
0.220321
40
0.2795204
50
132.4834203
51
181.0242172
0
ARC
8
DEFAULT_255_1_234
10
16.0954061
20
0.1640704
40
0.3612768
50
129.2532479
51
133.4242687
0
ARC
8
DEFAULT_255_1_234
10
16.110051
20
0.1420965
40
0.3875675
50
101.98776
51
128.8742646
0
ARC
8
DEFAULT_255_1_234
10
16.1499121
20
-0.0300259
40
0.5642249
50
89.5906553
51
102.3169264
0
ARC
8
DEFAULT_255_1_234
10
16.1569613
20
0.0018148
40
0.5323783
50
77.2360837
51
90.3248275
0
ARC
8
DEFAULT_255_1_234
10
16.1776692
20
0.09854
40
0.4334697
50
63.837784
51
77.0809408
0
ARC
8
DEFAULT_255_1_234
10
16.2054454
20
0.1502911
40
0.3747796
50
45.9864267
51
64.1607727
0
ARC
8
DEFAULT_255_1_234
10
16.2315335
20
0.1800866
40
0.3352302
50
32.2747395
51
45.6547121
0
ARC
8
DEFAULT_255_1_234
10
16.2381776
20
0.181988
40
0.328603
50
359.6507365
51
32.6130309
0
ARC
8
DEFAULT_255_1_234
10
16.1438871
20
0.182466
40
0.2678863
50
359.469343
51
14.9832209
0
ARC
8
DEFAULT_255_1_234
10
16.2143934
20
0.2013539
40
0.1948938
50
14.9781179
51
48.2004265
0
ARC
8
DEFAULT_255_1_234
10
16.1979578
20
0.1806983
40
0.2212521
50
48.5927837
51
74.1241538
0
ARC
8
DEFAULT_255_1_234
10
16.1646067
20
0.0706248
40
0.3362561
50
73.7888341
51
86.6652678
0
ARC
8
DEFAULT_255_1_234
10
16.1543633
20
-0.0501119
40
0.4573953
50
86.2640471
51
90.0526343
0
ARC
8
DEFAULT_255_1_234
10
16.1515346
20
-0.0105808
40
0.4178709
50
89.6697524
51
99.2309573
0
ARC
8
DEFAULT_255_1_234
10
16.1272796
20
0.1338964
40
0.2713749
50
99.069534
51
113.7658566
0
ARC
8
DEFAULT_255_1_234
10
16.0998988
20
0.1984677
40
0.2012469
50
114.0401004
51
127.9850673
0
ARC
8
DEFAULT_255_1_234
10
16.0758552
20
0.228073
40
0.1631167
50
127.7287463
51
176.7105154
0
ARC
8
DEFAULT_255_1_234
10
16.1437269
20
0.2179693
40
0.2315392
50
175.1779447
51
180.0581938
0
ARC
8
DEFAULT_255_1_234
10
16.0594116
20
0.2167428
40
0.1472271
50
179.6142195
51
228.1246017
0
ARC
8
DEFAULT_255_1_234
10
16.1035784
20
0.2576308
40
0.2072299
50
226.5779593
51
230.8800004
0
ARC
8
DEFAULT_255_1_234
10
16.1506863
20
0.3201636
40
0.2854818
50
231.4635071
51
241.9260842
0
ARC
8
DEFAULT_255_1_234
10
16.2704041
20
0.54048
40
0.53622
50
241.7178533
51
248.3259551
0
ARC
8
DEFAULT_255_1_234
10
16.4089413
20
0.8837064
40
0.9063478
50
248.2007737
51
252.4528373
0
ARC
8
DEFAULT_255_1_234
10
16.5293138
20
1.2558441
40
1.2974635
50
252.3391078
51
254.3469452
0
ARC
8
DEFAULT_255_1_234
10
15.775084
20
-1.4418852
40
1.5037162
50
71.0197183
51
74.4087047
0
ARC
8
DEFAULT_255_1_234
10
15.9445526
20
-0.9526889
40
0.9859993
50
66.1847285
51
71.086374
0
ARC
8
DEFAULT_255_1_234
10
16.1001838
20
-0.60228
40
0.6025855
50
59.3536294
51
66.2691831
0
ARC
8
DEFAULT_255_1_234
10
16.189049
20
-0.4519391
40
0.4279449
50
49.1020879
51
59.3293958
0
ARC
8
DEFAULT_255_1_234
10
16.270923
20
-0.3586166
40
0.3038015
50
32.7919921
51
49.2505539
0
ARC
8
DEFAULT_255_1_234
10
16.303032
20
-0.3357809
40
0.264448
50
31.1181161
51
32.4005348
0
ARC
8
DEFAULT_255_1_234
10
16.2941858
20
-0.3393221
40
0.2738556
50
8.1116974
51
30.7958831
0
ARC
8
DEFAULT_255_1_234
10
16.2131526
20
-0.3531247
40
0.3560327
50
359.8389159
51
8.4706516
0
ARC
8
DEFAULT_255_1_234
10
16.2757318
20
-0.3579863
40
0.2934776
50
337.4731098
51
0.7537279
0
ARC
8
DEFAULT_255_1_234
10
16.2936012
20
-0.3599613
40
0.2762607
50
307.5917067
51
336.4315538
0
ARC
8
DEFAULT_255_1_234
10
16.247584
20
-0.3086898
40
0.3449979
50
307.6551545
51
308.4529766
0
ARC
8
DEFAULT_255_1_234
10
16.2245559
20
-0.273175
40
0.3871988
50
284.3734338
51
307.1424381
0
ARC
8
DEFAULT_255_1_234
10
16.1750389
20
-0.0910068
40
0.5759636
50
272.4382747
51
284.646547
0
ARC
8
DEFAULT_255_1_234
10
16.1623598
20
0.0889893
40
0.7563528
50
269.9708387
51
272.8178037
0
ARC
8
DEFAULT_255_1_234
10
16.1580638
20
-0.1148284
40
0.5525489
50
248.2707594
51
270.4055579
0
ARC
8
DEFAULT_255_1_234
10
16.1526379
20
-0.1338808
40
0.5328452
50
246.1383403
51
248.0542782
0
ARC
8
DEFAULT_255_1_234
10
16.1107758
20
-0.2218157
40
0.4355005
50
233.1670131
51
246.4950969
0
ARC
8
DEFAULT_255_1_234
10
16.0553663
20
-0.2966188
40
0.3424126
50
215.3403242
51
233.0843104
0
ARC
8
DEFAULT_255_1_234
10
16.0281094
20
-0.3164451
40
0.3087104
50
179.2419209
51
215.2648451
0
ARC
8
DEFAULT_255_1_234
10
16.1048688
20
-0.3150334
40
0.2304457
50
179.335461
51
199.1045811
0
ARC
8
DEFAULT_255_1_234
10
16.0716364
20
-0.3237234
40
0.1962176
50
199.8828939
51
232.7063202
0
ARC
8
DEFAULT_255_1_234
10
16.1188633
20
-0.2643212
40
0.2720938
50
232.3738199
51
255.5136649
0
ARC
8
DEFAULT_255_1_234
10
16.1529499
20
-0.1399165
40
0.4010747
50
255.2446292
51
267.5320849
0
ARC
8
DEFAULT_255_1_234
10
16.1617123
20
-0.0166298
40
0.5246356
50
267.1557994
51
270.0286766
0
ARC
8
DEFAULT_255_1_234
10
16.1644895
20
-0.061005
40
0.4802668
50
269.7000017
51
278.1660162
0
ARC
8
DEFAULT_255_1_234
10
16.19009
20
-0.2340485
40
0.3053425
50
278.0231263
51
290.625471
0
ARC
8
DEFAULT_255_1_234
10
16.2248587
20
-0.3267975
40
0.206291
50
290.6619762
51
307.0370976
0
ARC
8
DEFAULT_255_1_234
10
16.2548976
20
-0.3636496
40
0.1587906
50
306.3943566
51
355.3030547
0
ARC
8
DEFAULT_255_1_234
10
16.2036908
20
-0.3559887
40
0.2104809
50
354.3660432
51
0.0698737
0
ARC
8
DEFAULT_255_1_234
10
16.2179253
20
-0.3537383
40
0.1962563
50
359.417946
51
16.1971788
0
ARC
8
DEFAULT_255_1_234
10
16.2634563
20
-0.3412582
40
0.149053
50
16.4723299
51
52.6262157
0
ARC
8
DEFAULT_255_1_234
10
16.1813617
20
-0.4496567
40
0.2850296
50
52.7386432
51
62.4979148
0
ARC
8
DEFAULT_255_1_234
10
16.0428694
20
-0.7102717
40
0.5801521
50
62.2515216
51
68.1220564
0
ARC
8
DEFAULT_255_1_234
10
15.8708605
20
-1.1330128
40
1.0365451
50
68.0062803
51
71.8053402
0
ARC
8
DEFAULT_255_1_234
10
15.6912976
20
-1.6715242
40
1.6042013
50
71.7183119
51
73.9258742
0
LINE
8
DEFAULT_255_1_234
10
16.9442662
20
-0.1155831
11
16.9442662
21
0.0056962
0
LINE
8
DEFAULT_255_1_234
10
16.9442662
20
0.0056962
11
17.0559073
21
0.0056962
0
LINE
8
DEFAULT_255_1_234
10
16.8655551
20
0.2113087
11
16.716968
21
0.2113087
0
LINE
8
DEFAULT_255_1_234
10
16.7065267
20
-0.3428813
11
16.855917
21
-0.3428813
0
LINE
8
DEFAULT_255_1_234
10
17.0559073
20
-0.1155831
11
16.9442662
21
-0.1155831
0
ARC
8
DEFAULT_255_1_234
10
17.052994
20
0.3449713
40
0.3392876
50
270.4919872
51
281.8951556
0
ARC
8
DEFAULT_255_1_234
10
17.0771201
20
0.2347702
40
0.2264817
50
281.6691735
51
301.2943132
0
ARC
8
DEFAULT_255_1_234
10
17.0941412
20
0.2036304
40
0.1910381
50
301.7833094
51
311.7545298
0
ARC
8
DEFAULT_255_1_234
10
17.1032987
20
0.1934748
40
0.1773635
50
311.7323931
51
354.2802411
0
ARC
8
DEFAULT_255_1_234
10
17.0306613
20
0.2059722
40
0.2509385
50
353.0937916
51
0.1181479
0
ARC
8
DEFAULT_255_1_234
10
16.9845397
20
0.2107386
40
0.2970898
50
359.1805295
51
15.0453146
0
ARC
8
DEFAULT_255_1_234
10
17.1191234
20
0.2499992
40
0.1569564
50
13.9577229
51
77.6713066
0
ARC
8
DEFAULT_255_1_234
10
17.0804764
20
0.1114949
40
0.3006298
50
76.1116566
51
90.7026153
0
ARC
8
DEFAULT_255_1_234
10
17.0745602
20
0.1388545
40
0.2732568
50
89.5324876
51
103.531937
0
ARC
8
DEFAULT_255_1_234
10
17.0545046
20
0.2187884
40
0.1908508
50
103.2931773
51
133.5619022
0
ARC
8
DEFAULT_255_1_234
10
17.0500534
20
0.2247375
40
0.1834746
50
133.8349307
51
173.5344437
0
ARC
8
DEFAULT_255_1_234
10
17.1223578
20
0.2119213
40
0.2568033
50
172.5096846
51
180.1366907
0
ARC
8
DEFAULT_255_1_234
10
17.0272471
20
0.2153622
40
0.3103056
50
155.3484492
51
180.7484736
0
ARC
8
DEFAULT_255_1_234
10
17.022356
20
0.2124846
40
0.3070957
50
131.5744599
51
154.4798489
0
ARC
8
DEFAULT_255_1_234
10
17.0536708
20
0.180831
40
0.3515643
50
96.9875458
51
131.9690667
0
ARC
8
DEFAULT_255_1_234
10
17.0756188
20
0.0562636
40
0.4779224
50
89.8596053
51
97.7825159
0
ARC
8
DEFAULT_255_1_234
10
17.0804251
20
0.0300616
40
0.5041361
50
78.3655447
51
90.4131539
0
ARC
8
DEFAULT_255_1_234
10
17.1162169
20
0.1959887
40
0.3344039
50
56.6229102
51
78.638727
0
ARC
8
DEFAULT_255_1_234
10
17.1377112
20
0.2335805
40
0.2912001
50
47.0253525
51
56.0854072
0
ARC
8
DEFAULT_255_1_234
10
17.1396892
20
0.2375223
40
0.2869704
50
10.9208013
51
46.7778124
0
ARC
8
DEFAULT_255_1_234
10
17.0032959
20
0.2059857
40
0.426899
50
359.6364486
51
11.6087304
0
ARC
8
DEFAULT_255_1_234
10
17.1867803
20
0.2044752
40
0.243409
50
332.3549906
51
359.7179418
0
ARC
8
DEFAULT_255_1_234
10
17.1217404
20
0.2353142
40
0.3153459
50
325.2333722
51
332.8745602
0
ARC
8
DEFAULT_255_1_234
10
17.1370028
20
0.2246828
40
0.2967456
50
292.9802137
51
325.2392345
0
ARC
8
DEFAULT_255_1_234
10
17.1095402
20
0.2780863
40
0.3566604
50
292.5402179
51
293.6924929
0
ARC
8
DEFAULT_255_1_234
10
17.1487998
20
-0.3673909
40
0.3307468
50
57.6435486
51
72.8625112
0
ARC
8
DEFAULT_255_1_234
10
17.1842498
20
-0.3099451
40
0.2632492
50
36.7248896
51
57.4697979
0
ARC
8
DEFAULT_255_1_234
10
17.183113
20
-0.308678
40
0.2634081
50
8.0545065
51
36.356114
0
ARC
8
DEFAULT_255_1_234
10
17.0968316
20
-0.3241826
40
0.3510261
50
359.8320645
51
8.5869982
0
ARC
8
DEFAULT_255_1_234
10
17.0593092
20
-0.3289899
40
0.3885653
50
343.9829931
51
0.5571613
0
ARC
8
DEFAULT_255_1_234
10
17.1479289
20
-0.3532562
40
0.2966924
50
311.6359546
51
343.7651759
0
ARC
8
DEFAULT_255_1_234
10
17.1100858
20
-0.3105898
40
0.3537231
50
279.7829875
51
311.6255694
0
ARC
8
DEFAULT_255_1_234
10
17.0799634
20
-0.166872
40
0.5004971
50
269.7286406
51
280.3856417
0
ARC
8
DEFAULT_255_1_234
10
17.0737707
20
-0.1710004
40
0.4963778
50
256.6828919
51
270.4412052
0
ARC
8
DEFAULT_255_1_234
10
17.0399003
20
-0.3094606
40
0.3538406
50
229.4223008
51
256.8556159
0
ARC
8
DEFAULT_255_1_234
10
16.9984396
20
-0.3561264
40
0.2914296
50
181.818294
51
229.6455059
0
ARC
8
DEFAULT_255_1_234
10
17.1024352
20
-0.3430504
40
0.3959084
50
179.9755256
51
183.2323064
0
ARC
8
DEFAULT_255_1_234
10
17.0852098
20
-0.3450963
40
0.2293034
50
179.4465117
51
196.2869258
0
ARC
8
DEFAULT_255_1_234
10
17.0364506
20
-0.3584349
40
0.1787621
50
196.5661473
51
227.705904
0
ARC
8
DEFAULT_255_1_234
10
17.05286
20
-0.3400845
40
0.2033784
50
227.7652068
51
257.8762805
0
ARC
8
DEFAULT_255_1_234
10
17.0753571
20
-0.2457844
40
0.3003081
50
257.4584385
51
270.426602
0
ARC
8
DEFAULT_255_1_234
10
17.0799137
20
-0.2168004
40
0.329292
50
269.5962073
51
280.8789248
0
ARC
8
DEFAULT_255_1_234
10
17.1028666
20
-0.3314315
40
0.2123908
50
280.6346389
51
299.8595945
0
ARC
8
DEFAULT_255_1_234
10
17.1219572
20
-0.3676788
40
0.171457
50
300.3576302
51
314.5517981
0
ARC
8
DEFAULT_255_1_234
10
17.1136632
20
-0.3616081
40
0.1816095
50
315.0728369
51
345.0431014
0
ARC
8
DEFAULT_255_1_234
10
17.0213447
20
-0.3347159
40
0.2777492
50
344.5986631
51
357.9269593
0
ARC
8
DEFAULT_255_1_234
10
16.9317773
20
-0.3285724
40
0.3674917
50
357.4748886
51
0.0231117
0
ARC
8
DEFAULT_255_1_234
10
17.0340882
20
-0.3261321
40
0.2651907
50
359.5047933
51
13.4239635
0
ARC
8
DEFAULT_255_1_234
10
17.1207526
20
-0.3039522
40
0.1757509
50
12.9498199
51
48.7551375
0
ARC
8
DEFAULT_255_1_234
10
17.102526
20
-0.32886
40
0.2065134
50
49.5088623
51
72.1836453
0
ARC
8
DEFAULT_255_1_234
10
17.0667412
20
-0.4350709
40
0.3185836
50
71.9010081
51
84.3554254
0
ARC
8
DEFAULT_255_1_234
10
17.0506044
20
-0.5711674
40
0.4556151
50
84.0193428
51
89.333121
0
LINE
8
DEFAULT_255_1_234
10
18.140192
20
0.5237433
11
18.140192
21
-0.6513
0
LINE
8
DEFAULT_255_1_234
10
18.140192
20
-0.6513
11
17.9908017
21
-0.6513
0
LINE
8
DEFAULT_255_1_234
10
17.9908017
20
-0.6513
11
17.9908017
21
0.3390133
0
LINE
8
DEFAULT_255_1_234
10
17.9908017
20
0.3390133
11
17.6912178
21
0.2289785
0
LINE
8
DEFAULT_255_1_234
10
17.6912178
20
0.2289785
11
17.6912178
21
0.3639117
0
LINE
8
DEFAULT_255_1_234
10
17.6912178
20
0.3639117
11
18.1169
21
0.5237433
0
LINE
8
DEFAULT_255_1_234
10
18.1169
20
0.5237433
11
18.140192
21
0.5237433
0
LINE
8
DEFAULT_255_1_234
10
12.5973293
20
101.8747
11
12.4856881
21
102.1799061
0
LINE
8
DEFAULT_255_1_234
10
12.4856881
20
102.1799061
11
11.9957521
21
102.1799061
0
LINE
8
DEFAULT_255_1_234
10
11.9957521
20
102.1799061
11
11.8857173
21
101.8747
0
LINE
8
DEFAULT_255_1_234
10
11.8857173
20
101.8747
11
11.7266889
21
101.8747
0
LINE
8
DEFAULT_255_1_234
10
11.7266889
20
101.8747
11
12.1732535
21
103.0441211
0
LINE
8
DEFAULT_255_1_234
10
12.1732535
20
103.0441211
11
12.3081867
21
103.0441211
0
LINE
8
DEFAULT_255_1_234
10
12.3081867
20
103.0441211
11
12.7555545
21
101.8747
0
LINE
8
DEFAULT_255_1_234
10
12.7555545
20
101.8747
11
12.5973293
21
101.8747
0
LINE
8
DEFAULT_255_1_234
10
12.2407201
20
102.8537689
11
12.0423362
21
102.3068075
0
LINE
8
DEFAULT_255_1_234
10
12.0423362
20
102.3068075
11
12.4399072
21
102.3068075
0
LINE
8
DEFAULT_255_1_234
10
12.4399072
20
102.3068075
11
12.2407201
21
102.8537689
0
LINE
8
DEFAULT_255_1_234
10
13.6093283
20
102.2457663
11
13.7643409
21
102.2457663
0
LINE
8
DEFAULT_255_1_234
10
12.863983
20
102.4047947
11
12.863983
21
102.5172391
0
LINE
8
DEFAULT_255_1_234
10
13.7643409
20
102.6682357
11
13.6093283
21
102.6682357
0
LINE
8
DEFAULT_255_1_234
10
13.0189956
20
102.5132232
11
13.0189956
21
102.3999757
0
ARC
8
DEFAULT_255_1_234
10
13.2162796
20
102.3054846
40
0.5513052
50
340.1774281
51
353.7814284
0
ARC
8
DEFAULT_255_1_234
10
13.3734148
20
102.2469582
40
0.3836379
50
311.4558989
51
340.4421614
0
ARC
8
DEFAULT_255_1_234
10
13.3700816
20
102.2580528
40
0.3941894
50
282.4333181
51
310.7513653
0
ARC
8
DEFAULT_255_1_234
10
13.3261555
20
102.4395679
40
0.5809175
50
269.9358511
51
282.809604
0
ARC
8
DEFAULT_255_1_234
10
13.3209622
20
102.5853212
40
0.7266847
50
270.0021091
51
270.3581957
0
ARC
8
DEFAULT_255_1_234
10
13.3157039
20
102.3252585
40
0.4666519
50
250.7884749
51
270.6489167
0
ARC
8
DEFAULT_255_1_234
10
13.2988873
20
102.2615319
40
0.4009729
50
219.3627325
51
250.0611886
0
ARC
8
DEFAULT_255_1_234
10
13.3818084
20
102.3320042
40
0.5097822
50
193.5479632
51
219.5756669
0
ARC
8
DEFAULT_255_1_234
10
13.6189705
20
102.3935919
40
0.7547848
50
181.1218675
51
193.87563
0
ARC
8
DEFAULT_255_1_234
10
13.8259886
20
102.404658
40
0.9620055
50
179.9918545
51
181.5394234
0
ARC
8
DEFAULT_255_1_234
10
13.6408988
20
102.5209788
40
0.7769248
50
169.5837241
51
180.2757934
0
ARC
8
DEFAULT_255_1_234
10
13.4571926
20
102.5549229
40
0.590109
50
155.0365899
51
169.6003176
0
ARC
8
DEFAULT_255_1_234
10
13.343639
20
102.6096677
40
0.4640625
50
136.783148
51
155.2472683
0
ARC
8
DEFAULT_255_1_234
10
13.3046867
20
102.6427562
40
0.4130255
50
121.7633186
51
136.428115
0
ARC
8
DEFAULT_255_1_234
10
13.3181829
20
102.6178227
40
0.4413323
50
95.6459699
51
121.5490577
0
ARC
8
DEFAULT_255_1_234
10
13.3339111
20
102.5069949
40
0.55319
50
89.924208
51
96.1377933
0
ARC
8
DEFAULT_255_1_234
10
13.3389544
20
102.5188542
40
0.5413475
50
76.6779277
51
90.4563316
0
ARC
8
DEFAULT_255_1_234
10
13.3783167
20
102.6779114
40
0.3775041
50
47.485847
51
76.9287264
0
ARC
8
DEFAULT_255_1_234
10
13.363614
20
102.6679159
40
0.3948286
50
16.5424086
51
46.8933463
0
ARC
8
DEFAULT_255_1_234
10
13.2028297
20
102.6150861
40
0.564021
50
5.4072051
51
17.0365086
0
ARC
8
DEFAULT_255_1_234
10
13.0589314
20
102.5919679
40
0.5556559
50
7.8891745
51
15.9239216
0
ARC
8
DEFAULT_255_1_234
10
13.2576328
20
102.6496631
40
0.3487515
50
15.7653144
51
27.9410532
0
ARC
8
DEFAULT_255_1_234
10
13.3680546
20
102.708779
40
0.2235026
50
27.8166557
51
46.4008329
0
ARC
8
DEFAULT_255_1_234
10
13.3730188
20
102.7082082
40
0.2205286
50
47.4371857
51
75.0698205
0
ARC
8
DEFAULT_255_1_234
10
13.3421583
20
102.6007765
40
0.3322915
50
74.7008593
51
87.8124495
0
ARC
8
DEFAULT_255_1_234
10
13.334827
20
102.4951844
40
0.4380987
50
87.3814673
51
90.0240855
0
ARC
8
DEFAULT_255_1_234
10
13.3309814
20
102.6129291
40
0.3203749
50
89.3451631
51
108.5745436
0
ARC
8
DEFAULT_255_1_234
10
13.3172919
20
102.6642908
40
0.2673494
50
109.2998449
51
143.3037509
0
ARC
8
DEFAULT_255_1_234
10
13.3934992
20
102.6056881
40
0.3634757
50
143.0753173
51
163.1916937
0
ARC
8
DEFAULT_255_1_234
10
13.5886719
20
102.5440967
40
0.5681262
50
162.9373603
51
174.6208611
0
ARC
8
DEFAULT_255_1_234
10
13.8512761
20
102.515301
40
0.8322832
50
174.3419979
51
180.1430411
0
ARC
8
DEFAULT_255_1_234
10
13.7581918
20
102.3958698
40
0.7392076
50
179.6817502
51
189.150529
0
ARC
8
DEFAULT_255_1_234
10
13.5081166
20
102.354219
40
0.4856932
50
188.9910863
51
203.5773039
0
ARC
8
DEFAULT_255_1_234
10
13.4001498
20
102.3094211
40
0.3688271
50
203.9077269
51
215.1312379
0
ARC
8
DEFAULT_255_1_234
10
13.3078592
20
102.2378941
40
0.2522457
50
213.9071664
51
263.8849284
0
ARC
8
DEFAULT_255_1_234
10
13.3203921
20
102.3163518
40
0.3316174
50
263.1758525
51
270.1031083
0
ARC
8
DEFAULT_255_1_234
10
13.3236013
20
102.4410365
40
0.4563091
50
269.6719807
51
279.0609165
0
ARC
8
DEFAULT_255_1_234
10
13.3502781
20
102.2797907
40
0.2928759
50
278.8750225
51
293.6346586
0
ARC
8
DEFAULT_255_1_234
10
13.3822989
20
102.20459
40
0.2111472
50
293.8553404
51
310.0518804
0
ARC
8
DEFAULT_255_1_234
10
13.3827843
20
102.1983516
40
0.2060917
50
311.0646779
51
332.0108348
0
ARC
8
DEFAULT_255_1_234
10
13.263557
20
102.2640978
40
0.3422352
50
331.6588543
51
343.2878891
0
ARC
8
DEFAULT_255_1_234
10
13.0573085
20
102.3274798
40
0.5580003
50
343.1446044
51
351.010618
0
ARC
8
DEFAULT_255_1_234
10
12.9031731
20
102.3555871
40
0.7146438
50
350.7157277
51
351.1602153
0
LINE
8
DEFAULT_255_1_234
10
14.1233596
20
102.4304963
11
14.0044898
21
102.4610169
0
LINE
8
DEFAULT_255_1_234
10
14.0044898
20
102.4610169
11
14.0639247
21
103.0441211
0
LINE
8
DEFAULT_255_1_234
10
14.0639247
20
103.0441211
11
14.6630924
21
103.0441211
0
LINE
8
DEFAULT_255_1_234
10
14.6630924
20
103.0441211
11
14.6630924
21
102.9067784
0
LINE
8
DEFAULT_255_1_234
10
14.6630924
20
102.9067784
11
14.190023
21
102.9067784
0
LINE
8
DEFAULT_255_1_234
10
14.190023
20
102.9067784
11
14.1546833
21
102.5879184
0
LINE
8
DEFAULT_255_1_234
10
13.9627248
20
102.1823156
11
14.1032802
21
102.1823156
0
LINE
8
DEFAULT_255_1_234
10
14.1627151
20
102.4626232
11
14.1233596
21
102.4304963
0
ARC
8
DEFAULT_255_1_234
10
14.3401617
20
102.269923
40
0.3681349
50
93.7182161
51
120.2538958
0
ARC
8
DEFAULT_255_1_234
10
14.349588
20
102.1891394
40
0.449379
50
89.9660152
51
94.2496022
0
ARC
8
DEFAULT_255_1_234
10
14.3536614
20
102.2480549
40
0.390482
50
73.8043271
51
90.5585896
0
ARC
8
DEFAULT_255_1_234
10
14.3771511
20
102.3338602
40
0.3015334
50
41.3071453
51
73.5430202
0
ARC
8
DEFAULT_255_1_234
10
14.3355339
20
102.2980324
40
0.3564457
50
13.5075983
51
41.2174222
0
ARC
8
DEFAULT_255_1_234
10
14.1713542
20
102.2550486
40
0.5261351
50
1.1331335
51
13.8829381
0
ARC
8
DEFAULT_255_1_234
10
14.0301911
20
102.2474665
40
0.6674378
50
359.9919444
51
1.544251
0
ARC
8
DEFAULT_255_1_234
10
14.1578738
20
102.243328
40
0.5397702
50
347.8572367
51
0.4293338
0
ARC
8
DEFAULT_255_1_234
10
14.3329055
20
102.2036736
40
0.3603188
50
323.673004
51
348.1672506
0
ARC
8
DEFAULT_255_1_234
10
14.3623563
20
102.1857168
40
0.3259678
50
316.8171152
51
323.1492751
0
ARC
8
DEFAULT_255_1_234
10
14.3684752
20
102.182046
40
0.3189975
50
281.8396411
51
316.5457803
0
ARC
8
DEFAULT_255_1_234
10
14.3309016
20
102.3375762
40
0.4789527
50
269.5770101
51
282.4214771
0
ARC
8
DEFAULT_255_1_234
10
14.3237828
20
102.3162125
40
0.45759
50
256.2427136
51
270.4486331
0
ARC
8
DEFAULT_255_1_234
10
14.293873
20
102.1962229
40
0.3339303
50
228.9023911
51
256.3314342
0
ARC
8
DEFAULT_255_1_234
10
14.2864963
20
102.1845746
40
0.32031
50
193.753695
51
228.5271154
0
ARC
8
DEFAULT_255_1_234
10
14.4102917
20
102.22088
40
0.4492253
50
184.924711
51
194.497588
0
ARC
8
DEFAULT_255_1_234
10
14.4295483
20
102.2244591
40
0.3289787
50
187.3600538
51
198.6732863
0
ARC
8
DEFAULT_255_1_234
10
14.3245777
20
102.1880674
40
0.217884
50
198.4451669
51
217.794479
0
ARC
8
DEFAULT_255_1_234
10
14.2949953
20
102.1671085
40
0.1816698
50
218.2887171
51
228.5612368
0
ARC
8
DEFAULT_255_1_234
10
14.304774
20
102.1802963
40
0.1980329
50
228.9654866
51
258.1234728
0
ARC
8
DEFAULT_255_1_234
10
14.325345
20
102.2683833
40
0.2884748
50
257.7258293
51
270.401361
0
ARC
8
DEFAULT_255_1_234
10
14.3298336
20
102.2238821
40
0.2439788
50
269.4204404
51
286.4209037
0
ARC
8
DEFAULT_255_1_234
10
14.3446823
20
102.1699657
40
0.1880666
50
286.7251356
51
320.600362
0
ARC
8
DEFAULT_255_1_234
10
14.3063648
20
102.2010595
40
0.2374121
50
320.6712579
51
344.5441685
0
ARC
8
DEFAULT_255_1_234
10
14.1906975
20
102.2350045
40
0.3579479
50
344.2412205
51
356.7357071
0
ARC
8
DEFAULT_255_1_234
10
14.0658123
20
102.2453444
40
0.4832297
50
356.3548756
51
0.0500261
0
ARC
8
DEFAULT_255_1_234
10
14.1994632
20
102.248465
40
0.3495889
50
359.5576869
51
12.953486
0
ARC
8
DEFAULT_255_1_234
10
14.304953
20
102.2740434
40
0.2410532
50
12.6490276
51
41.6081334
0
ARC
8
DEFAULT_255_1_234
10
14.3279901
20
102.2936321
40
0.2108218
50
41.7850273
51
85.9892764
0
ARC
8
DEFAULT_255_1_234
10
14.3156637
20
102.2123462
40
0.2928454
50
84.6957577
51
90.0676183
0
ARC
8
DEFAULT_255_1_234
10
14.3133121
20
102.1454716
40
0.3597255
50
89.6804936
51
99.1614436
0
ARC
8
DEFAULT_255_1_234
10
14.2927753
20
102.2682131
40
0.235281
50
98.9830931
51
113.8908934
0
ARC
8
DEFAULT_255_1_234
10
14.2698163
20
102.3223587
40
0.176479
50
114.1950727
51
127.3641004
0
LINE
8
DEFAULT_255_1_234
10
15.5931677
20
102.5662327
11
15.5931677
21
102.3734709
0
LINE
8
DEFAULT_255_1_234
10
14.8550509
20
102.3533916
11
14.8550509
21
102.5517755
0
LINE
8
DEFAULT_255_1_234
10
15.4445805
20
102.3333123
11
15.4445805
21
102.5766739
0
LINE
8
DEFAULT_255_1_234
10
15.0036381
20
102.5879184
11
15.0036381
21
102.3501789
0
ARC
8
DEFAULT_255_1_234
10
14.3684566
20
102.3685805
40
1.2247208
50
353.8441951
51
0.2287902
0
ARC
8
DEFAULT_255_1_234
10
14.832407
20
102.3167806
40
0.7578929
50
344.4934747
51
353.9765454
0
ARC
8
DEFAULT_255_1_234
10
15.131666
20
102.2316981
40
0.4467846
50
329.2803592
51
344.7472793
0
ARC
8
DEFAULT_255_1_234
10
15.2309485
20
102.1772018
40
0.3336173
50
324.9352394
51
328.6160465
0
ARC
8
DEFAULT_255_1_234
10
15.2686594
20
102.1508427
40
0.2876076
50
280.580143
51
324.9173126
0
ARC
8
DEFAULT_255_1_234
10
15.2285386
20
102.3179099
40
0.4592847
50
269.5977311
51
281.6734359
0
ARC
8
DEFAULT_255_1_234
10
15.2213292
20
102.3059173
40
0.4472986
50
256.6228859
51
270.51044
0
ARC
8
DEFAULT_255_1_234
10
15.181127
20
102.1510877
40
0.2873874
50
215.8618325
51
257.2788573
0
ARC
8
DEFAULT_255_1_234
10
15.2832301
20
102.2195977
40
0.4102928
50
197.9693508
51
215.2623606
0
ARC
8
DEFAULT_255_1_234
10
15.5317417
20
102.3034709
40
0.6725652
50
187.8816417
51
198.2346507
0
ARC
8
DEFAULT_255_1_234
10
15.9275625
20
102.3606079
40
1.0724845
50
180.8976217
51
188.0055519
0
ARC
8
DEFAULT_255_1_234
10
16.2075813
20
102.3709777
40
1.3526448
50
180.7449369
51
181.1510016
0
ARC
8
DEFAULT_255_1_234
10
16.0498542
20
102.5566042
40
1.1948131
50
173.7675579
51
180.231553
0
ARC
8
DEFAULT_255_1_234
10
15.5980689
20
102.6076666
40
0.7401564
50
164.3058563
51
173.9002247
0
ARC
8
DEFAULT_255_1_234
10
15.3068758
20
102.6915656
40
0.4371288
50
148.7922025
51
164.568378
0
ARC
8
DEFAULT_255_1_234
10
15.211721
20
102.7446929
40
0.3282386
50
144.5883898
51
148.1176286
0
ARC
8
DEFAULT_255_1_234
10
15.1774108
20
102.7686315
40
0.2864044
50
101.6440918
51
144.514236
0
ARC
8
DEFAULT_255_1_234
10
15.2199175
20
102.5997069
40
0.4604934
50
89.5284041
51
102.5819763
0
ARC
8
DEFAULT_255_1_234
10
15.2278263
20
102.5958018
40
0.464401
50
77.0437873
51
90.5081339
0
ARC
8
DEFAULT_255_1_234
10
15.2680264
20
102.7600615
40
0.2953195
50
48.2778575
51
77.4994676
0
ARC
8
DEFAULT_255_1_234
10
15.2752896
20
102.7729746
40
0.2808655
50
36.3142134
51
47.6305865
0
ARC
8
DEFAULT_255_1_234
10
15.1884203
20
102.7144515
40
0.3855453
50
18.2931786
51
35.6769206
0
ARC
8
DEFAULT_255_1_234
10
14.9340961
20
102.6271593
40
0.654423
50
8.024666
51
18.5605216
0
ARC
8
DEFAULT_255_1_234
10
14.5177881
20
102.5656792
40
1.0752407
50
1.1274072
51
8.1718305
0
ARC
8
DEFAULT_255_1_234
10
14.1942072
20
102.5529885
40
1.3990231
50
0.5424119
51
1.3863029
0
ARC
8
DEFAULT_255_1_234
10
14.376345
20
102.5802342
40
1.0682415
50
359.8090433
51
4.9407866
0
ARC
8
DEFAULT_255_1_234
10
14.7973464
20
102.6178113
40
0.6455691
50
4.8362157
51
12.2904523
0
ARC
8
DEFAULT_255_1_234
10
15.0728579
20
102.6791965
40
0.3633074
50
12.0805627
51
23.8173984
0
ARC
8
DEFAULT_255_1_234
10
15.1902284
20
102.7288919
40
0.2358723
50
24.2871213
51
31.3935614
0
ARC
8
DEFAULT_255_1_234
10
15.2426981
20
102.7632233
40
0.1732111
50
30.7407893
51
82.4657128
0
ARC
8
DEFAULT_255_1_234
10
15.2247115
20
102.6748691
40
0.263235
50
81.1060089
51
90.2184952
0
ARC
8
DEFAULT_255_1_234
10
15.2211414
20
102.7006924
40
0.2374236
50
89.3806855
51
105.6762551
0
ARC
8
DEFAULT_255_1_234
10
15.2028045
20
102.7673567
40
0.1682847
50
105.7981136
51
149.7388061
0
ARC
8
DEFAULT_255_1_234
10
15.3092123
20
102.703395
40
0.2924306
50
149.4208916
51
163.6286378
0
ARC
8
DEFAULT_255_1_234
10
15.5183011
20
102.639625
40
0.5110213
50
163.3763315
51
172.1410975
0
ARC
8
DEFAULT_255_1_234
10
15.848373
20
102.5923518
40
0.8444586
50
172.0259487
51
178.0703232
0
ARC
8
DEFAULT_255_1_234
10
16.151382
20
102.5779906
40
1.1477868
50
177.8631668
51
179.5044149
0
ARC
8
DEFAULT_255_1_234
10
16.0441224
20
102.3465389
40
1.0404907
50
179.7995573
51
185.2460446
0
ARC
8
DEFAULT_255_1_234
10
15.6398264
20
102.3082513
40
0.6343885
50
185.1411642
51
193.0079639
0
ARC
8
DEFAULT_255_1_234
10
15.3754736
20
102.2457641
40
0.3627568
50
192.7897626
51
205.2507664
0
ARC
8
DEFAULT_255_1_234
10
15.2708283
20
102.1990415
40
0.2481908
50
205.8005384
51
211.2537509
0
ARC
8
DEFAULT_255_1_234
10
15.2184724
20
102.163958
40
0.1852521
50
210.3789793
51
238.4008143
0
ARC
8
DEFAULT_255_1_234
10
15.2165245
20
102.1686376
40
0.1882621
50
239.6520629
51
265.9793761
0
ARC
8
DEFAULT_255_1_234
10
15.2250446
20
102.2358427
40
0.2559272
50
265.1315437
51
270.060332
0
ARC
8
DEFAULT_255_1_234
10
15.2279224
20
102.2034534
40
0.2235528
50
269.3314664
51
287.2178029
0
ARC
8
DEFAULT_255_1_234
10
15.2417076
20
102.1531279
40
0.1714108
50
287.7958004
51
329.080874
0
ARC
8
DEFAULT_255_1_234
10
15.1459533
20
102.212893
40
0.2842745
50
328.6634704
51
343.3325132
0
ARC
8
DEFAULT_255_1_234
10
14.9286553
20
102.2805863
40
0.5118644
50
343.0499468
51
351.9393422
0
ARC
8
DEFAULT_255_1_234
10
14.5819853
20
102.3316949
40
0.8622784
50
351.8069023
51
357.7959224
0
ARC
8
DEFAULT_255_1_234
10
14.2584409
20
102.3484721
40
1.1862365
50
357.5871873
51
359.2677531
0
LINE
8
DEFAULT_255_1_234
10
16.5168176
20
102.5662327
11
16.5168176
21
102.3734709
0
LINE
8
DEFAULT_255_1_234
10
15.7787008
20
102.3533916
11
15.7787008
21
102.5517755
0
LINE
8
DEFAULT_255_1_234
10
16.3682304
20
102.3333123
11
16.3682304
21
102.5766739
0
LINE
8
DEFAULT_255_1_234
10
15.927288
20
102.5879184
11
15.927288
21
102.3501789
0
ARC
8
DEFAULT_255_1_234
10
15.2921065
20
102.3685805
40
1.2247208
50
353.8441951
51
0.2287902
0
ARC
8
DEFAULT_255_1_234
10
15.7560569
20
102.3167806
40
0.7578929
50
344.4934747
51
353.9765454
0
ARC
8
DEFAULT_255_1_234
10
16.0553159
20
102.2316981
40
0.4467846
50
329.2803592
51
344.7472793
0
ARC
8
DEFAULT_255_1_234
10
16.1545984
20
102.1772018
40
0.3336173
50
324.9352394
51
328.6160465
0
ARC
8
DEFAULT_255_1_234
10
16.1923093
20
102.1508427
40
0.2876076
50
280.580143
51
324.9173126
0
ARC
8
DEFAULT_255_1_234
10
16.1521885
20
102.3179099
40
0.4592847
50
269.5977311
51
281.6734359
0
ARC
8
DEFAULT_255_1_234
10
16.1449791
20
102.3059173
40
0.4472986
50
256.6228859
51
270.51044
0
ARC
8
DEFAULT_255_1_234
10
16.1047769
20
102.1510877
40
0.2873874
50
215.8618325
51
257.2788573
0
ARC
8
DEFAULT_255_1_234
10
16.20688
20
102.2195977
40
0.4102928
50
197.9693508
51
215.2623606
0
ARC
8
DEFAULT_255_1_234
10
16.4553916
20
102.3034709
40
0.6725652
50
187.8816417
51
198.2346507
0
ARC
8
DEFAULT_255_1_234
10
16.8512124
20
102.3606079
40
1.0724845
50
180.8976217
51
188.0055519
0
ARC
8
DEFAULT_255_1_234
10
17.1312312
20
102.3709777
40
1.3526448
50
180.7449369
51
181.1510016
0
ARC
8
DEFAULT_255_1_234
10
16.9735042
20
102.5566042
40
1.1948131
50
173.7675579
51
180.231553
0
ARC
8
DEFAULT_255_1_234
10
16.5217188
20
102.6076666
40
0.7401564
50
164.3058563
51
173.9002247
0
ARC
8
DEFAULT_255_1_234
10
16.2305257
20
102.6915656
40
0.4371288
50
148.7922025
51
164.568378
0
ARC
8
DEFAULT_255_1_234
10
16.1353709
20
102.7446929
40
0.3282386
50
144.5883898
51
148.1176286
0
ARC
8
DEFAULT_255_1_234
10
16.1010607
20
102.7686315
40
0.2864044
50
101.6440918
51
144.514236
0
ARC
8
DEFAULT_255_1_234
10
16.1435674
20
102.5997069
40
0.4604934
50
89.5284041
51
102.5819763
0
ARC
8
DEFAULT_255_1_234
10
16.1514762
20
102.5958018
40
0.464401
50
77.0437873
51
90.5081339
0
ARC
8
DEFAULT_255_1_234
10
16.1916763
20
102.7600615
40
0.2953195
50
48.2778575
51
77.4994676
0
ARC
8
DEFAULT_255_1_234
10
16.1989395
20
102.7729746
40
0.2808655
50
36.3142134
51
47.6305865
0
ARC
8
DEFAULT_255_1_234
10
16.1120702
20
102.7144515
40
0.3855453
50
18.2931786
51
35.6769206
0
ARC
8
DEFAULT_255_1_234
10
15.857746
20
102.6271593
40
0.654423
50
8.024666
51
18.5605216
0
ARC
8
DEFAULT_255_1_234
10
15.441438
20
102.5656792
40
1.0752407
50
1.1274072
51
8.1718305
0
ARC
8
DEFAULT_255_1_234
10
15.1178571
20
102.5529885
40
1.3990231
50
0.5424119
51
1.3863029
0
ARC
8
DEFAULT_255_1_234
10
15.2999949
20
102.5802342
40
1.0682415
50
359.8090433
51
4.9407866
0
ARC
8
DEFAULT_255_1_234
10
15.7209963
20
102.6178113
40
0.6455691
50
4.8362157
51
12.2904523
0
ARC
8
DEFAULT_255_1_234
10
15.9965078
20
102.6791965
40
0.3633074
50
12.0805627
51
23.8173984
0
ARC
8
DEFAULT_255_1_234
10
16.1138783
20
102.7288919
40
0.2358723
50
24.2871213
51
31.3935614
0
ARC
8
DEFAULT_255_1_234
10
16.166348
20
102.7632233
40
0.1732111
50
30.7407893
51
82.4657128
0
ARC
8
DEFAULT_255_1_234
10
16.1483615
20
102.6748691
40
0.263235
50
81.1060089
51
90.2184952
0
ARC
8
DEFAULT_255_1_234
10
16.1447913
20
102.7006924
40
0.2374236
50
89.3806855
51
105.6762551
0
ARC
8
DEFAULT_255_1_234
10
16.1264544
20
102.7673567
40
0.1682847
50
105.7981136
51
149.7388061
0
ARC
8
DEFAULT_255_1_234
10
16.2328622
20
102.703395
40
0.2924306
50
149.4208916
51
163.6286378
0
ARC
8
DEFAULT_255_1_234
10
16.441951
20
102.639625
40
0.5110213
50
163.3763315
51
172.1410975
0
ARC
8
DEFAULT_255_1_234
10
16.7720229
20
102.5923518
40
0.8444586
50
172.0259487
51
178.0703232
0
ARC
8
DEFAULT_255_1_234
10
17.0750319
20
102.5779906
40
1.1477868
50
177.8631668
51
179.5044149
0
ARC
8
DEFAULT_255_1_234
10
16.9677723
20
102.3465389
40
1.0404907
50
179.7995573
51
185.2460446
0
ARC
8
DEFAULT_255_1_234
10
16.5634763
20
102.3082513
40
0.6343885
50
185.1411642
51
193.0079639
0
ARC
8
DEFAULT_255_1_234
10
16.2991235
20
102.2457641
40
0.3627568
50
192.7897626
51
205.2507664
0
ARC
8
DEFAULT_255_1_234
10
16.1944782
20
102.1990415
40
0.2481908
50
205.8005384
51
211.2537509
0
ARC
8
DEFAULT_255_1_234
10
16.1421223
20
102.163958
40
0.1852521
50
210.3789793
51
238.4008143
0
ARC
8
DEFAULT_255_1_234
10
16.1401744
20
102.1686376
40
0.1882621
50
239.6520629
51
265.9793761
0
ARC
8
DEFAULT_255_1_234
10
16.1486945
20
102.2358427
40
0.2559272
50
265.1315437
51
270.060332
0
ARC
8
DEFAULT_255_1_234
10
16.1515723
20
102.2034534
40
0.2235528
50
269.3314664
51
287.2178029
0
ARC
8
DEFAULT_255_1_234
10
16.1653575
20
102.1531279
40
0.1714108
50
287.7958004
51
329.080874
0
ARC
8
DEFAULT_255_1_234
10
16.0696032
20
102.212893
40
0.2842745
50
328.6634704
51
343.3325132
0
ARC
8
DEFAULT_255_1_234
10
15.8523052
20
102.2805863
40
0.5118644
50
343.0499468
51
351.9393422
0
ARC
8
DEFAULT_255_1_234
10
15.5056352
20
102.3316949
40
0.8622784
50
351.8069023
51
357.7959224
0
ARC
8
DEFAULT_255_1_234
10
15.1820908
20
102.3484721
40
1.1862365
50
357.5871873
51
359.2677531
0
ARC
8
DEFAULT_255_2_778
10
17.2795513
20
105.2015655
40
0.9032652
50
36.6636783
51
62.8800292
0
ARC
8
DEFAULT_255_2_778
10
17.362048
20
106.4705795
40
0.5698185
50
305.2984654
51
359.1896208
0
ARC
8
DEFAULT_255_2_778
10
17.3634372
20
106.4659256
40
0.5683825
50
359.6567283
51
359.9965559
0
ARC
8
DEFAULT_255_2_778
10
17.3738628
20
106.4657968
40
0.5579568
50
0.0097156
51
44.9837975
0
ARC
8
DEFAULT_255_2_778
10
17.3736736
20
106.4659297
40
0.5579968
50
44.9604089
51
90.0139948
0
ARC
8
DEFAULT_255_2_778
10
17.3735813
20
106.4483846
40
0.5755419
50
90.0043846
51
90.2659864
0
ARC
8
DEFAULT_255_2_778
10
17.3015142
20
105.2552344
40
0.8779024
50
272.428255
51
302.0472027
0
ARC
8
DEFAULT_255_2_778
10
17.3149911
20
105.2207487
40
0.841549
50
302.5153244
51
0.4882776
0
ARC
8
DEFAULT_255_2_778
10
17.3237108
20
105.2487449
40
0.833059
50
358.5675863
51
29.0157619
0
ARC
8
DEFAULT_255_2_778
10
15.115709
20
105.2026166
40
0.90203
50
36.6388615
51
62.8867752
0
ARC
8
DEFAULT_255_2_778
10
15.1980877
20
106.4702954
40
0.5692748
50
305.2706468
51
359.2174393
0
ARC
8
DEFAULT_255_2_778
10
15.2034234
20
106.4655241
40
0.563894
50
359.6947901
51
359.9999584
0
ARC
8
DEFAULT_255_2_778
10
15.2087973
20
106.4655658
40
0.5585202
50
359.9956834
51
44.9740581
0
ARC
8
DEFAULT_255_2_778
10
15.2091182
20
106.4658026
40
0.5581257
50
44.9801433
51
90.0010632
0
ARC
8
DEFAULT_255_2_778
10
15.2091083
20
106.4618714
40
0.562057
50
90.0000416
51
90.3056982
0
ARC
8
DEFAULT_255_2_778
10
15.1365968
20
105.2553822
40
0.8780507
50
272.42898
51
302.0445025
0
ARC
8
DEFAULT_255_2_778
10
15.1501929
20
105.2207943
40
0.8415468
50
302.5093151
51
0.4851764
0
ARC
8
DEFAULT_255_2_778
10
15.1579024
20
105.2484974
40
0.8340609
50
358.5863171
51
28.9970314
0
LINE
8
DEFAULT_255_2_778
10
13.4101095
20
105.7409203
11
12.9532095
21
107.0239203
0
LINE
8
DEFAULT_255_2_778
10
12.9532095
20
107.0239203
11
12.6084095
21
107.0239203
0
LINE
8
DEFAULT_255_2_778
10
12.6084095
20
107.0239203
11
12.6084095
21
105.7409203
0
LINE
8
DEFAULT_255_2_778
10
12.6084095
20
105.7409203
11
13.4101095
21
105.7409203
0
LINE
8
DEFAULT_255_2_778
10
12.6084095
20
104.9392203
11
13.0334095
21
104.9392203
0
LINE
8
DEFAULT_255_2_778
10
13.0334095
20
104.9392203
11
13.2257095
21
104.3781203
0
LINE
8
DEFAULT_255_2_778
10
13.2257095
20
104.3781203
11
13.8911095
21
104.3781203
0
LINE
8
DEFAULT_255_2_778
10
13.8911095
20
104.3781203
11
13.4342095
21
105.6608203
0
LINE
8
DEFAULT_255_2_778
10
13.4342095
20
105.6608203
11
12.6084095
21
105.6608203
0
LINE
8
DEFAULT_255_2_778
10
12.6084095
20
105.6608203
11
12.6084095
21
104.9392203
0
LINE
8
DEFAULT_255_2_778
10
12.5283095
20
107.0239203
11
12.1835095
21
107.0239203
0
LINE
8
DEFAULT_255_2_778
10
12.1835095
20
107.0239203
11
11.7266095
21
105.7409203
0
LINE
8
DEFAULT_255_2_778
10
11.7266095
20
105.7409203
11
12.5283095
21
105.7409203
0
LINE
8
DEFAULT_255_2_778
10
12.5283095
20
105.7409203
11
12.5283095
21
107.0239203
0
LINE
8
DEFAULT_255_2_778
10
11.7025095
20
105.6608203
11
11.2453095
21
104.3781203
0
LINE
8
DEFAULT_255_2_778
10
11.2453095
20
104.3781203
11
11.9107095
21
104.3781203
0
LINE
8
DEFAULT_255_2_778
10
11.9107095
20
104.3781203
11
12.1031095
21
104.9392203
0
LINE
8
DEFAULT_255_2_778
10
12.1031095
20
104.9392203
11
12.5280095
21
104.9392203
0
LINE
8
DEFAULT_255_2_778
10
12.5280095
20
104.9392203
11
12.5280095
21
105.6608203
0
LINE
8
DEFAULT_255_2_778
10
12.5280095
20
105.6608203
11
11.7025095
21
105.6608203
0
LINE
8
DEFAULT_255_2_778
10
16.2965095
20
107.0239203
11
17.0981095
21
107.0239203
0
LINE
8
DEFAULT_255_2_778
10
17.0981095
20
107.0239203
11
17.0981095
21
105.7409203
0
LINE
8
DEFAULT_255_2_778
10
17.0981095
20
105.7409203
11
16.2965095
21
105.7409203
0
LINE
8
DEFAULT_255_2_778
10
16.2965095
20
105.7409203
11
16.2965095
21
107.0239203
0
LINE
8
DEFAULT_255_2_778
10
17.3709095
20
107.0239203
11
17.1786095
21
107.0239203
0
LINE
8
DEFAULT_255_2_778
10
17.1786095
20
107.0239203
11
17.1786095
21
105.7409203
0
LINE
8
DEFAULT_255_2_778
10
17.1786095
20
105.7409203
11
18.0043095
21
105.7409203
0
LINE
8
DEFAULT_255_2_778
10
18.0043095
20
105.7409203
11
18.0041095
21
105.7409203
0
LINE
8
DEFAULT_255_2_778
10
16.2965095
20
105.6608203
11
17.0981095
21
105.6608203
0
LINE
8
DEFAULT_255_2_778
10
17.0981095
20
105.6608203
11
17.0981095
21
104.3781203
0
LINE
8
DEFAULT_255_2_778
10
17.0981095
20
104.3781203
11
16.2965095
21
104.3781203
0
LINE
8
DEFAULT_255_2_778
10
16.2965095
20
104.3781203
11
16.2965095
21
105.6608203
0
LINE
8
DEFAULT_255_2_778
10
17.1783095
20
104.3781203
11
17.3387095
21
104.3781203
0
LINE
8
DEFAULT_255_2_778
10
18.0522095
20
105.6528203
11
17.1783095
21
105.6528203
0
LINE
8
DEFAULT_255_2_778
10
17.1783095
20
105.6528203
11
17.1783095
21
104.3781203
0
LINE
8
DEFAULT_255_2_778
10
17.1783095
20
104.3781203
11
17.1783095
21
104.3781203
0
LINE
8
DEFAULT_255_2_778
10
14.1316095
20
107.0239203
11
14.9333095
21
107.0239203
0
LINE
8
DEFAULT_255_2_778
10
14.9333095
20
107.0239203
11
14.9333095
21
105.7409203
0
LINE
8
DEFAULT_255_2_778
10
14.9333095
20
105.7409203
11
14.1316095
21
105.7409203
0
LINE
8
DEFAULT_255_2_778
10
14.1316095
20
105.7409203
11
14.1316095
21
107.0239203
0
LINE
8
DEFAULT_255_2_778
10
15.2061095
20
107.0239203
11
15.0138095
21
107.0239203
0
LINE
8
DEFAULT_255_2_778
10
15.0138095
20
107.0239203
11
15.0138095
21
105.7409203
0
LINE
8
DEFAULT_255_2_778
10
15.0138095
20
105.7409203
11
15.8395095
21
105.7409203
0
LINE
8
DEFAULT_255_2_778
10
15.8395095
20
105.7409203
11
15.8395095
21
105.7409203
0
LINE
8
DEFAULT_255_2_778
10
14.1316095
20
105.6608203
11
14.9333095
21
105.6608203
0
LINE
8
DEFAULT_255_2_778
10
14.9333095
20
105.6608203
11
14.9333095
21
104.3781203
0
LINE
8
DEFAULT_255_2_778
10
14.9333095
20
104.3781203
11
14.1316095
21
104.3781203
0
LINE
8
DEFAULT_255_2_778
10
14.1316095
20
104.3781203
11
14.1316095
21
105.6608203
0
LINE
8
DEFAULT_255_2_778
10
15.0135095
20
104.3781203
11
15.1738095
21
104.3781203
0
LINE
8
DEFAULT_255_2_778
10
15.8874095
20
105.6528203
11
15.0135095
21
105.6528203
0
LINE
8
DEFAULT_255_2_778
10
15.0135095
20
105.6528203
11
15.0135095
21
104.3781203
0
LINE
8
DEFAULT_255_2_778
10
15.0135095
20
104.3781203
11
15.0135095
21
104.3781203
0
LINE
8
DEFAULT_255_1_234
10
4.9274119
20
100.0116792
11
4.9274119
21
99.8904
0
LINE
8
DEFAULT_255_1_234
10
4.9274119
20
99.8904
11
4.161184
21
99.8904
0
LINE
8
DEFAULT_255_1_234
10
4.161184
20
99.8904
11
4.161184
21
99.9972221
0
LINE
8
DEFAULT_255_1_234
10
4.161184
20
99.9972221
11
4.5659836
21
100.4469995
0
LINE
8
DEFAULT_255_1_234
10
4.2872823
20
100.7152595
11
4.1386952
21
100.7152595
0
LINE
8
DEFAULT_255_1_234
10
4.6535296
20
100.3514218
11
4.3402918
21
100.0116792
0
LINE
8
DEFAULT_255_1_234
10
4.3402918
20
100.0116792
11
4.9274119
21
100.0116792
0
ARC
8
DEFAULT_255_1_234
10
3.216967
20
101.6399527
40
1.8008286
50
318.5132453
51
320.7828378
0
ARC
8
DEFAULT_255_1_234
10
3.7456644
20
101.2096426
40
1.1191493
50
320.7372736
51
323.9737074
0
ARC
8
DEFAULT_255_1_234
10
4.1376501
20
100.9256361
40
0.6350923
50
323.8961724
51
328.6421089
0
ARC
8
DEFAULT_255_1_234
10
4.3423096
20
100.7994031
40
0.3946393
50
328.8299013
51
331.789948
0
ARC
8
DEFAULT_255_1_234
10
4.4420274
20
100.7479509
40
0.2824501
50
331.4255242
51
352.9364833
0
ARC
8
DEFAULT_255_1_234
10
4.4556775
20
100.7448976
40
0.2685315
50
353.2248685
51
0.0169286
0
ARC
8
DEFAULT_255_1_234
10
4.4766652
20
100.747195
40
0.2475536
50
359.4866256
51
15.9339782
0
ARC
8
DEFAULT_255_1_234
10
4.5273637
20
100.7608286
40
0.1950618
50
16.1714718
51
43.5284424
0
ARC
8
DEFAULT_255_1_234
10
4.5350946
20
100.7685573
40
0.184134
50
43.4415429
51
83.1661404
0
ARC
8
DEFAULT_255_1_234
10
4.5216864
20
100.6948771
40
0.258926
50
82.160215
51
90.1505798
0
ARC
8
DEFAULT_255_1_234
10
4.5185291
20
100.6411865
40
0.3126255
50
89.5460705
51
102.5418777
0
ARC
8
DEFAULT_255_1_234
10
4.4942377
20
100.7442665
40
0.2067346
50
102.1739365
51
129.2061916
0
ARC
8
DEFAULT_255_1_234
10
4.4863449
20
100.7567094
40
0.1921118
50
129.7279328
51
135.7542026
0
ARC
8
DEFAULT_255_1_234
10
4.4984977
20
100.7470045
40
0.2075944
50
136.175737
51
166.3674722
0
ARC
8
DEFAULT_255_1_234
10
4.5991896
20
100.7200182
40
0.3118201
50
165.9092917
51
178.8683903
0
ARC
8
DEFAULT_255_1_234
10
4.6856757
20
100.7153179
40
0.3983935
50
178.438168
51
180.0083905
0
ARC
8
DEFAULT_255_1_234
10
4.5455359
20
100.7192231
40
0.4068601
50
163.2878735
51
180.5581814
0
ARC
8
DEFAULT_255_1_234
10
4.4653621
20
100.741284
40
0.3237344
50
133.454115
51
162.9470031
0
ARC
8
DEFAULT_255_1_234
10
4.4832162
20
100.7223
40
0.349795
50
100.7869394
51
133.4384016
0
ARC
8
DEFAULT_255_1_234
10
4.5179934
20
100.5674319
40
0.5084616
50
89.6605301
51
101.3704185
0
ARC
8
DEFAULT_255_1_234
10
4.5246273
20
100.5735496
40
0.502348
50
78.2171172
51
90.4130393
0
ARC
8
DEFAULT_255_1_234
10
4.5601351
20
100.7359637
40
0.3361092
50
55.9268222
51
78.4888551
0
ARC
8
DEFAULT_255_1_234
10
4.5797791
20
100.7698324
40
0.2970617
50
47.9292255
51
55.4054003
0
ARC
8
DEFAULT_255_1_234
10
4.5899352
20
100.7801502
40
0.2825983
50
4.3347696
51
48.0560701
0
ARC
8
DEFAULT_255_1_234
10
4.4803745
20
100.7631601
40
0.393225
50
359.925209
51
5.5967654
0
ARC
8
DEFAULT_255_1_234
10
4.5232637
20
100.7687816
40
0.3503892
50
337.8914096
51
358.9967724
0
ARC
8
DEFAULT_255_1_234
10
4.2519049
20
100.8734706
40
0.6412172
50
326.9135351
51
338.3505194
0
ARC
8
DEFAULT_255_1_234
10
3.8533353
20
101.1289284
40
1.1146189
50
319.6472867
51
327.095818
0
ARC
8
DEFAULT_255_1_234
10
3.4700356
20
101.4451
40
1.6114559
50
317.2586784
51
319.9046139
0
LINE
8
DEFAULT_255_1_234
10
5.7121127
20
101.0598211
11
5.7121127
21
100.283152
0
LINE
8
DEFAULT_255_1_234
10
5.7121127
20
100.283152
11
5.8743538
21
100.283152
0
LINE
8
DEFAULT_255_1_234
10
5.8743538
20
100.283152
11
5.8743538
21
100.1618728
0
LINE
8
DEFAULT_255_1_234
10
5.8743538
20
100.1618728
11
5.7121127
21
100.1618728
0
LINE
8
DEFAULT_255_1_234
10
5.7121127
20
100.1618728
11
5.7121127
21
99.8904
0
LINE
8
DEFAULT_255_1_234
10
5.7121127
20
99.8904
11
5.5627224
21
99.8904
0
LINE
8
DEFAULT_255_1_234
10
5.5627224
20
99.8904
11
5.5627224
21
100.1618728
0
LINE
8
DEFAULT_255_1_234
10
5.5627224
20
100.1618728
11
5.0302181
21
100.1618728
0
LINE
8
DEFAULT_255_1_234
10
5.0302181
20
100.1618728
11
5.0302181
21
100.2494187
0
LINE
8
DEFAULT_255_1_234
10
5.0302181
20
100.2494187
11
5.5538875
21
101.0598211
0
LINE
8
DEFAULT_255_1_234
10
5.5538875
20
101.0598211
11
5.7121127
21
101.0598211
0
LINE
8
DEFAULT_255_1_234
10
5.5450525
20
100.8244912
11
5.1988846
21
100.283152
0
LINE
8
DEFAULT_255_1_234
10
5.1988846
20
100.283152
11
5.5627224
21
100.283152
0
LINE
8
DEFAULT_255_1_234
10
5.5627224
20
100.283152
11
5.5627224
21
100.8566181
0
LINE
8
DEFAULT_255_1_234
10
5.5627224
20
100.8566181
11
5.5450525
21
100.8244912
0
LINE
8
DEFAULT_255_1_234
10
6.101652
20
101.0598211
11
6.434166
21
100.0952093
0
LINE
8
DEFAULT_255_1_234
10
6.434166
20
100.0952093
11
6.7682863
21
101.0598211
0
LINE
8
DEFAULT_255_1_234
10
6.7682863
20
101.0598211
11
6.9369528
21
101.0598211
0
LINE
8
DEFAULT_255_1_234
10
6.9369528
20
101.0598211
11
6.5032389
21
99.8904
0
LINE
8
DEFAULT_255_1_234
10
6.5032389
20
99.8904
11
6.3666994
21
99.8904
0
LINE
8
DEFAULT_255_1_234
10
6.3666994
20
99.8904
11
5.9337887
21
101.0598211
0
LINE
8
DEFAULT_255_1_234
10
5.9337887
20
101.0598211
11
6.101652
21
101.0598211
0
LINE
8
DEFAULT_255_1_234
10
4.9984293
20
4.6404
11
4.8867881
21
4.9456061
0
LINE
8
DEFAULT_255_1_234
10
4.8867881
20
4.9456061
11
4.3968521
21
4.9456061
0
LINE
8
DEFAULT_255_1_234
10
4.3968521
20
4.9456061
11
4.2868173
21
4.6404
0
LINE
8
DEFAULT_255_1_234
10
4.2868173
20
4.6404
11
4.1277889
21
4.6404
0
LINE
8
DEFAULT_255_1_234
10
4.1277889
20
4.6404
11
4.5743535
21
5.8098211
0
LINE
8
DEFAULT_255_1_234
10
4.5743535
20
5.8098211
11
4.7092867
21
5.8098211
0
LINE
8
DEFAULT_255_1_234
10
4.7092867
20
5.8098211
11
5.1566545
21
4.6404
0
LINE
8
DEFAULT_255_1_234
10
5.1566545
20
4.6404
11
4.9984293
21
4.6404
0
LINE
8
DEFAULT_255_1_234
10
4.6418201
20
5.6194689
11
4.4434362
21
5.0725075
0
LINE
8
DEFAULT_255_1_234
10
4.4434362
20
5.0725075
11
4.8410072
21
5.0725075
0
LINE
8
DEFAULT_255_1_234
10
4.8410072
20
5.0725075
11
4.6418201
21
5.6194689
0
LINE
8
DEFAULT_255_1_234
10
5.4795304
20
5.8098211
11
5.4795304
21
4.6404
0
LINE
8
DEFAULT_255_1_234
10
5.4795304
20
4.6404
11
5.325321
21
4.6404
0
LINE
8
DEFAULT_255_1_234
10
5.325321
20
4.6404
11
5.325321
21
5.8098211
0
LINE
8
DEFAULT_255_1_234
10
5.325321
20
5.8098211
11
5.4795304
21
5.8098211
0
LINE
8
DEFAULT_255_1_234
10
5.9389458
20
5.1761169
11
5.9389458
21
5.2973962
0
LINE
8
DEFAULT_255_1_234
10
5.9389458
20
5.2973962
11
6.050587
21
5.2973962
0
LINE
8
DEFAULT_255_1_234
10
5.8602348
20
5.5030087
11
5.7116477
21
5.5030087
0
LINE
8
DEFAULT_255_1_234
10
5.7012064
20
4.9488188
11
5.8505967
21
4.9488188
0
LINE
8
DEFAULT_255_1_234
10
6.050587
20
5.1761169
11
5.9389458
21
5.1761169
0
ARC
8
DEFAULT_255_1_234
10
6.0476737
20
5.6366713
40
0.3392876
50
270.4919872
51
281.8951556
0
ARC
8
DEFAULT_255_1_234
10
6.0717998
20
5.5264702
40
0.2264817
50
281.6691735
51
301.2943132
0
ARC
8
DEFAULT_255_1_234
10
6.0888209
20
5.4953304
40
0.1910381
50
301.7833094
51
311.7545298
0
ARC
8
DEFAULT_255_1_234
10
6.0979784
20
5.4851748
40
0.1773635
50
311.7323931
51
354.2802411
0
ARC
8
DEFAULT_255_1_234
10
6.025341
20
5.4976722
40
0.2509385
50
353.0937916
51
0.1181479
0
ARC
8
DEFAULT_255_1_234
10
5.9792194
20
5.5024386
40
0.2970898
50
359.1805295
51
15.0453146
0
ARC
8
DEFAULT_255_1_234
10
6.1138031
20
5.5416992
40
0.1569564
50
13.9577229
51
77.6713066
0
ARC
8
DEFAULT_255_1_234
10
6.075156
20
5.4031949
40
0.3006298
50
76.1116566
51
90.7026153
0
ARC
8
DEFAULT_255_1_234
10
6.0692399
20
5.4305545
40
0.2732568
50
89.5324876
51
103.531937
0
ARC
8
DEFAULT_255_1_234
10
6.0491843
20
5.5104884
40
0.1908508
50
103.2931773
51
133.5619022
0
ARC
8
DEFAULT_255_1_234
10
6.0447331
20
5.5164375
40
0.1834746
50
133.8349307
51
173.5344437
0
ARC
8
DEFAULT_255_1_234
10
6.1170374
20
5.5036213
40
0.2568033
50
172.5096846
51
180.1366907
0
ARC
8
DEFAULT_255_1_234
10
6.0219268
20
5.5070622
40
0.3103056
50
155.3484492
51
180.7484736
0
ARC
8
DEFAULT_255_1_234
10
6.0170357
20
5.5041846
40
0.3070957
50
131.5744599
51
154.4798489
0
ARC
8
DEFAULT_255_1_234
10
6.0483505
20
5.472531
40
0.3515643
50
96.9875458
51
131.9690667
0
ARC
8
DEFAULT_255_1_234
10
6.0702985
20
5.3479636
40
0.4779224
50
89.8596053
51
97.7825159
0
ARC
8
DEFAULT_255_1_234
10
6.0751048
20
5.3217616
40
0.5041361
50
78.3655447
51
90.4131539
0
ARC
8
DEFAULT_255_1_234
10
6.1108966
20
5.4876887
40
0.3344039
50
56.6229102
51
78.638727
0
ARC
8
DEFAULT_255_1_234
10
6.1323909
20
5.5252805
40
0.2912001
50
47.0253525
51
56.0854072
0
ARC
8
DEFAULT_255_1_234
10
6.1343689
20
5.5292223
40
0.2869704
50
10.9208013
51
46.7778124
0
ARC
8
DEFAULT_255_1_234
10
5.9979756
20
5.4976857
40
0.426899
50
359.6364486
51
11.6087304
0
ARC
8
DEFAULT_255_1_234
10
6.18146
20
5.4961752
40
0.243409
50
332.3549906
51
359.7179418
0
ARC
8
DEFAULT_255_1_234
10
6.1164201
20
5.5270142
40
0.3153459
50
325.2333722
51
332.8745602
0
ARC
8
DEFAULT_255_1_234
10
6.1316825
20
5.5163828
40
0.2967456
50
292.9802137
51
325.2392345
0
ARC
8
DEFAULT_255_1_234
10
6.1042199
20
5.5697863
40
0.3566604
50
292.5402179
51
293.6924929
0
ARC
8
DEFAULT_255_1_234
10
6.1434795
20
4.9243091
40
0.3307468
50
57.6435486
51
72.8625112
0
ARC
8
DEFAULT_255_1_234
10
6.1789295
20
4.9817549
40
0.2632492
50
36.7248896
51
57.4697979
0
ARC
8
DEFAULT_255_1_234
10
6.1777927
20
4.983022
40
0.2634081
50
8.0545065
51
36.356114
0
ARC
8
DEFAULT_255_1_234
10
6.0915112
20
4.9675174
40
0.3510261
50
359.8320645
51
8.5869982
0
ARC
8
DEFAULT_255_1_234
10
6.0539889
20
4.9627101
40
0.3885653
50
343.9829931
51
0.5571613
0
ARC
8
DEFAULT_255_1_234
10
6.1426086
20
4.9384438
40
0.2966924
50
311.6359546
51
343.7651759
0
ARC
8
DEFAULT_255_1_234
10
6.1047655
20
4.9811102
40
0.3537231
50
279.7829875
51
311.6255694
0
ARC
8
DEFAULT_255_1_234
10
6.0746431
20
5.124828
40
0.5004971
50
269.7286406
51
280.3856417
0
ARC
8
DEFAULT_255_1_234
10
6.0684504
20
5.1206996
40
0.4963778
50
256.6828919
51
270.4412052
0
ARC
8
DEFAULT_255_1_234
10
6.03458
20
4.9822394
40
0.3538406
50
229.4223008
51
256.8556159
0
ARC
8
DEFAULT_255_1_234
10
5.9931192
20
4.9355736
40
0.2914296
50
181.818294
51
229.6455059
0
ARC
8
DEFAULT_255_1_234
10
6.0971149
20
4.9486496
40
0.3959084
50
179.9755256
51
183.2323064
0
ARC
8
DEFAULT_255_1_234
10
6.0798894
20
4.9466037
40
0.2293034
50
179.4465117
51
196.2869258
0
ARC
8
DEFAULT_255_1_234
10
6.0311302
20
4.9332651
40
0.1787621
50
196.5661473
51
227.705904
0
ARC
8
DEFAULT_255_1_234
10
6.0475397
20
4.9516155
40
0.2033784
50
227.7652068
51
257.8762805
0
ARC
8
DEFAULT_255_1_234
10
6.0700367
20
5.0459156
40
0.3003081
50
257.4584385
51
270.426602
0
ARC
8
DEFAULT_255_1_234
10
6.0745934
20
5.0748996
40
0.329292
50
269.5962073
51
280.8789248
0
ARC
8
DEFAULT_255_1_234
10
6.0975462
20
4.9602685
40
0.2123908
50
280.6346389
51
299.8595945
0
ARC
8
DEFAULT_255_1_234
10
6.1166369
20
4.9240212
40
0.171457
50
300.3576302
51
314.5517981
0
ARC
8
DEFAULT_255_1_234
10
6.1083429
20
4.9300919
40
0.1816095
50
315.0728369
51
345.0431014
0
ARC
8
DEFAULT_255_1_234
10
6.0160244
20
4.9569841
40
0.2777492
50
344.5986631
51
357.9269593
0
ARC
8
DEFAULT_255_1_234
10
5.926457
20
4.9631276
40
0.3674917
50
357.4748886
51
0.0231117
0
ARC
8
DEFAULT_255_1_234
10
6.0287679
20
4.9655679
40
0.2651907
50
359.5047933
51
13.4239635
0
ARC
8
DEFAULT_255_1_234
10
6.1154323
20
4.9877478
40
0.1757509
50
12.9498199
51
48.7551375
0
ARC
8
DEFAULT_255_1_234
10
6.0972057
20
4.96284
40
0.2065134
50
49.5088623
51
72.1836453
0
ARC
8
DEFAULT_255_1_234
10
6.0614209
20
4.8566291
40
0.3185836
50
71.9010081
51
84.3554254
0
ARC
8
DEFAULT_255_1_234
10
6.0452841
20
4.7205326
40
0.4556151
50
84.0193428
51
89.333121
0
LINE
8
DEFAULT_255_1_234
10
4.9984293
20
12.5779
11
4.8867881
21
12.8831061
0
LINE
8
DEFAULT_255_1_234
10
4.8867881
20
12.8831061
11
4.3968521
21
12.8831061
0
LINE
8
DEFAULT_255_1_234
10
4.3968521
20
12.8831061
11
4.2868173
21
12.5779
0
LINE
8
DEFAULT_255_1_234
10
4.2868173
20
12.5779
11
4.1277889
21
12.5779
0
LINE
8
DEFAULT_255_1_234
10
4.1277889
20
12.5779
11
4.5743535
21
13.7473211
0
LINE
8
DEFAULT_255_1_234
10
4.5743535
20
13.7473211
11
4.7092867
21
13.7473211
0
LINE
8
DEFAULT_255_1_234
10
4.7092867
20
13.7473211
11
5.1566545
21
12.5779
0
LINE
8
DEFAULT_255_1_234
10
5.1566545
20
12.5779
11
4.9984293
21
12.5779
0
LINE
8
DEFAULT_255_1_234
10
4.6418201
20
13.5569689
11
4.4434362
21
13.0100075
0
LINE
8
DEFAULT_255_1_234
10
4.4434362
20
13.0100075
11
4.8410072
21
13.0100075
0
LINE
8
DEFAULT_255_1_234
10
4.8410072
20
13.0100075
11
4.6418201
21
13.5569689
0
LINE
8
DEFAULT_255_1_234
10
5.4795304
20
13.7473211
11
5.4795304
21
12.5779
0
LINE
8
DEFAULT_255_1_234
10
5.4795304
20
12.5779
11
5.325321
21
12.5779
0
LINE
8
DEFAULT_255_1_234
10
5.325321
20
12.5779
11
5.325321
21
13.7473211
0
LINE
8
DEFAULT_255_1_234
10
5.325321
20
13.7473211
11
5.4795304
21
13.7473211
0
LINE
8
DEFAULT_255_1_234
10
6.4891199
20
12.6991792
11
6.4891199
21
12.5779
0
LINE
8
DEFAULT_255_1_234
10
6.4891199
20
12.5779
11
5.7228921
21
12.5779
0
LINE
8
DEFAULT_255_1_234
10
5.7228921
20
12.5779
11
5.7228921
21
12.6847221
0
LINE
8
DEFAULT_255_1_234
10
5.7228921
20
12.6847221
11
6.1276917
21
13.1344995
0
LINE
8
DEFAULT_255_1_234
10
5.8489904
20
13.4027595
11
5.7004032
21
13.4027595
0
LINE
8
DEFAULT_255_1_234
10
6.2152376
20
13.0389218
11
5.9019999
21
12.6991792
0
LINE
8
DEFAULT_255_1_234
10
5.9019999
20
12.6991792
11
6.4891199
21
12.6991792
0
ARC
8
DEFAULT_255_1_234
10
4.778675
20
14.3274527
40
1.8008286
50
318.5132453
51
320.7828378
0
ARC
8
DEFAULT_255_1_234
10
5.3073725
20
13.8971426
40
1.1191493
50
320.7372736
51
323.9737074
0
ARC
8
DEFAULT_255_1_234
10
5.6993581
20
13.6131361
40
0.6350923
50
323.8961724
51
328.6421089
0
ARC
8
DEFAULT_255_1_234
10
5.9040177
20
13.4869031
40
0.3946393
50
328.8299013
51
331.789948
0
ARC
8
DEFAULT_255_1_234
10
6.0037355
20
13.4354509
40
0.2824501
50
331.4255242
51
352.9364833
0
ARC
8
DEFAULT_255_1_234
10
6.0173856
20
13.4323976
40
0.2685315
50
353.2248685
51
0.0169286
0
ARC
8
DEFAULT_255_1_234
10
6.0383732
20
13.434695
40
0.2475536
50
359.4866256
51
15.9339782
0
ARC
8
DEFAULT_255_1_234
10
6.0890718
20
13.4483286
40
0.1950618
50
16.1714718
51
43.5284424
0
ARC
8
DEFAULT_255_1_234
10
6.0968026
20
13.4560573
40
0.184134
50
43.4415429
51
83.1661404
0
ARC
8
DEFAULT_255_1_234
10
6.0833945
20
13.3823771
40
0.258926
50
82.160215
51
90.1505798
0
ARC
8
DEFAULT_255_1_234
10
6.0802372
20
13.3286865
40
0.3126255
50
89.5460705
51
102.5418777
0
ARC
8
DEFAULT_255_1_234
10
6.0559458
20
13.4317665
40
0.2067346
50
102.1739365
51
129.2061916
0
ARC
8
DEFAULT_255_1_234
10
6.048053
20
13.4442094
40
0.1921118
50
129.7279328
51
135.7542026
0
ARC
8
DEFAULT_255_1_234
10
6.0602057
20
13.4345045
40
0.2075944
50
136.175737
51
166.3674722
0
ARC
8
DEFAULT_255_1_234
10
6.1608977
20
13.4075182
40
0.3118201
50
165.9092917
51
178.8683903
0
ARC
8
DEFAULT_255_1_234
10
6.2473838
20
13.4028179
40
0.3983935
50
178.438168
51
180.0083905
0
ARC
8
DEFAULT_255_1_234
10
6.107244
20
13.4067231
40
0.4068601
50
163.2878735
51
180.5581814
0
ARC
8
DEFAULT_255_1_234
10
6.0270701
20
13.428784
40
0.3237344
50
133.454115
51
162.9470031
0
ARC
8
DEFAULT_255_1_234
10
6.0449243
20
13.4098
40
0.349795
50
100.7869394
51
133.4384016
0
ARC
8
DEFAULT_255_1_234
10
6.0797014
20
13.2549319
40
0.5084616
50
89.6605301
51
101.3704185
0
ARC
8
DEFAULT_255_1_234
10
6.0863353
20
13.2610496
40
0.502348
50
78.2171172
51
90.4130393
0
ARC
8
DEFAULT_255_1_234
10
6.1218431
20
13.4234637
40
0.3361092
50
55.9268222
51
78.4888551
0
ARC
8
DEFAULT_255_1_234
10
6.1414872
20
13.4573324
40
0.2970617
50
47.9292255
51
55.4054003
0
ARC
8
DEFAULT_255_1_234
10
6.1516432
20
13.4676502
40
0.2825983
50
4.3347696
51
48.0560701
0
ARC
8
DEFAULT_255_1_234
10
6.0420826
20
13.4506601
40
0.393225
50
359.925209
51
5.5967654
0
ARC
8
DEFAULT_255_1_234
10
6.0849718
20
13.4562816
40
0.3503892
50
337.8914096
51
358.9967724
0
ARC
8
DEFAULT_255_1_234
10
5.813613
20
13.5609706
40
0.6412172
50
326.9135351
51
338.3505194
0
ARC
8
DEFAULT_255_1_234
10
5.4150433
20
13.8164284
40
1.1146189
50
319.6472867
51
327.095818
0
ARC
8
DEFAULT_255_1_234
10
5.0317437
20
14.1326
40
1.6114559
50
317.2586784
51
319.9046139
0
LINE
8
DEFAULT_255_1_234
10
4.9907293
20
20.5154
11
4.8790881
21
20.8206061
0
LINE
8
DEFAULT_255_1_234
10
4.8790881
20
20.8206061
11
4.3891521
21
20.8206061
0
LINE
8
DEFAULT_255_1_234
10
4.3891521
20
20.8206061
11
4.2791173
21
20.5154
0
LINE
8
DEFAULT_255_1_234
10
4.2791173
20
20.5154
11
4.1200889
21
20.5154
0
LINE
8
DEFAULT_255_1_234
10
4.1200889
20
20.5154
11
4.5666535
21
21.6848211
0
LINE
8
DEFAULT_255_1_234
10
4.5666535
20
21.6848211
11
4.7015867
21
21.6848211
0
LINE
8
DEFAULT_255_1_234
10
4.7015867
20
21.6848211
11
5.1489545
21
20.5154
0
LINE
8
DEFAULT_255_1_234
10
5.1489545
20
20.5154
11
4.9907293
21
20.5154
0
LINE
8
DEFAULT_255_1_234
10
4.6341201
20
21.4944689
11
4.4357362
21
20.9475075
0
LINE
8
DEFAULT_255_1_234
10
4.4357362
20
20.9475075
11
4.8333072
21
20.9475075
0
LINE
8
DEFAULT_255_1_234
10
4.8333072
20
20.9475075
11
4.6341201
21
21.4944689
0
LINE
8
DEFAULT_255_1_234
10
5.4718304
20
21.6848211
11
5.4718304
21
20.5154
0
LINE
8
DEFAULT_255_1_234
10
5.4718304
20
20.5154
11
5.317621
21
20.5154
0
LINE
8
DEFAULT_255_1_234
10
5.317621
20
20.5154
11
5.317621
21
21.6848211
0
LINE
8
DEFAULT_255_1_234
10
5.317621
20
21.6848211
11
5.4718304
21
21.6848211
0
LINE
8
DEFAULT_255_1_234
10
6.2035218
20
21.6904433
11
6.2035218
21
20.5154
0
LINE
8
DEFAULT_255_1_234
10
6.2035218
20
20.5154
11
6.0541314
21
20.5154
0
LINE
8
DEFAULT_255_1_234
10
6.0541314
20
20.5154
11
6.0541314
21
21.5057133
0
LINE
8
DEFAULT_255_1_234
10
6.0541314
20
21.5057133
11
5.7545476
21
21.3956785
0
LINE
8
DEFAULT_255_1_234
10
5.7545476
20
21.3956785
11
5.7545476
21
21.5306117
0
LINE
8
DEFAULT_255_1_234
10
5.7545476
20
21.5306117
11
6.1802297
21
21.6904433
0
LINE
8
DEFAULT_255_1_234
10
6.1802297
20
21.6904433
11
6.2035218
21
21.6904433
0
LINE
8
DEFAULT_255_1_234
10
4.9984293
20
28.4529
11
4.8867881
21
28.7581061
0
LINE
8
DEFAULT_255_1_234
10
4.8867881
20
28.7581061
11
4.3968521
21
28.7581061
0
LINE
8
DEFAULT_255_1_234
10
4.3968521
20
28.7581061
11
4.2868173
21
28.4529
0
LINE
8
DEFAULT_255_1_234
10
4.2868173
20
28.4529
11
4.1277889
21
28.4529
0
LINE
8
DEFAULT_255_1_234
10
4.1277889
20
28.4529
11
4.5743535
21
29.6223211
0
LINE
8
DEFAULT_255_1_234
10
4.5743535
20
29.6223211
11
4.7092867
21
29.6223211
0
LINE
8
DEFAULT_255_1_234
10
4.7092867
20
29.6223211
11
5.1566545
21
28.4529
0
LINE
8
DEFAULT_255_1_234
10
5.1566545
20
28.4529
11
4.9984293
21
28.4529
0
LINE
8
DEFAULT_255_1_234
10
4.6418201
20
29.4319689
11
4.4434362
21
28.8850075
0
LINE
8
DEFAULT_255_1_234
10
4.4434362
20
28.8850075
11
4.8410072
21
28.8850075
0
LINE
8
DEFAULT_255_1_234
10
4.8410072
20
28.8850075
11
4.6418201
21
29.4319689
0
LINE
8
DEFAULT_255_1_234
10
5.4795304
20
29.6223211
11
5.4795304
21
28.4529
0
LINE
8
DEFAULT_255_1_234
10
5.4795304
20
28.4529
11
5.325321
21
28.4529
0
LINE
8
DEFAULT_255_1_234
10
5.325321
20
28.4529
11
5.325321
21
29.6223211
0
LINE
8
DEFAULT_255_1_234
10
5.325321
20
29.6223211
11
5.4795304
21
29.6223211
0
LINE
8
DEFAULT_255_1_234
10
6.4561898
20
29.1444327
11
6.4561898
21
28.9516709
0
LINE
8
DEFAULT_255_1_234
10
5.718073
20
28.9315916
11
5.718073
21
29.1299755
0
LINE
8
DEFAULT_255_1_234
10
6.3076026
20
28.9115123
11
6.3076026
21
29.1548739
0
LINE
8
DEFAULT_255_1_234
10
5.8666602
20
29.1661184
11
5.8666602
21
28.9283789
0
ARC
8
DEFAULT_255_1_234
10
5.2314788
20
28.9467805
40
1.2247208
50
353.8441951
51
0.2287902
0
ARC
8
DEFAULT_255_1_234
10
5.6954291
20
28.8949806
40
0.7578929
50
344.4934747
51
353.9765454
0
ARC
8
DEFAULT_255_1_234
10
5.9946881
20
28.8098981
40
0.4467846
50
329.2803592
51
344.7472793
0
ARC
8
DEFAULT_255_1_234
10
6.0939706
20
28.7554018
40
0.3336173
50
324.9352394
51
328.6160465
0
ARC
8
DEFAULT_255_1_234
10
6.1316815
20
28.7290427
40
0.2876076
50
280.580143
51
324.9173126
0
ARC
8
DEFAULT_255_1_234
10
6.0915608
20
28.8961099
40
0.4592847
50
269.5977311
51
281.6734359
0
ARC
8
DEFAULT_255_1_234
10
6.0843513
20
28.8841173
40
0.4472986
50
256.6228859
51
270.51044
0
ARC
8
DEFAULT_255_1_234
10
6.0441491
20
28.7292877
40
0.2873874
50
215.8618325
51
257.2788573
0
ARC
8
DEFAULT_255_1_234
10
6.1462523
20
28.7977977
40
0.4102928
50
197.9693508
51
215.2623606
0
ARC
8
DEFAULT_255_1_234
10
6.3947638
20
28.8816709
40
0.6725652
50
187.8816417
51
198.2346507
0
ARC
8
DEFAULT_255_1_234
10
6.7905846
20
28.9388079
40
1.0724845
50
180.8976217
51
188.0055519
0
ARC
8
DEFAULT_255_1_234
10
7.0706035
20
28.9491777
40
1.3526448
50
180.7449369
51
181.1510016
0
ARC
8
DEFAULT_255_1_234
10
6.9128764
20
29.1348042
40
1.1948131
50
173.7675579
51
180.231553
0
ARC
8
DEFAULT_255_1_234
10
6.461091
20
29.1858666
40
0.7401564
50
164.3058563
51
173.9002247
0
ARC
8
DEFAULT_255_1_234
10
6.1698979
20
29.2697656
40
0.4371288
50
148.7922025
51
164.568378
0
ARC
8
DEFAULT_255_1_234
10
6.0747431
20
29.3228929
40
0.3282386
50
144.5883898
51
148.1176286
0
ARC
8
DEFAULT_255_1_234
10
6.0404329
20
29.3468315
40
0.2864044
50
101.6440918
51
144.514236
0
ARC
8
DEFAULT_255_1_234
10
6.0829396
20
29.1779069
40
0.4604934
50
89.5284041
51
102.5819763
0
ARC
8
DEFAULT_255_1_234
10
6.0908484
20
29.1740018
40
0.464401
50
77.0437873
51
90.5081339
0
ARC
8
DEFAULT_255_1_234
10
6.1310485
20
29.3382615
40
0.2953195
50
48.2778575
51
77.4994676
0
ARC
8
DEFAULT_255_1_234
10
6.1383117
20
29.3511746
40
0.2808655
50
36.3142134
51
47.6305865
0
ARC
8
DEFAULT_255_1_234
10
6.0514424
20
29.2926515
40
0.3855453
50
18.2931786
51
35.6769206
0
ARC
8
DEFAULT_255_1_234
10
5.7971183
20
29.2053593
40
0.654423
50
8.024666
51
18.5605216
0
ARC
8
DEFAULT_255_1_234
10
5.3808103
20
29.1438792
40
1.0752407
50
1.1274072
51
8.1718305
0
ARC
8
DEFAULT_255_1_234
10
5.0572293
20
29.1311885
40
1.3990231
50
0.5424119
51
1.3863029
0
ARC
8
DEFAULT_255_1_234
10
5.2393671
20
29.1584342
40
1.0682415
50
359.8090433
51
4.9407866
0
ARC
8
DEFAULT_255_1_234
10
5.6603685
20
29.1960113
40
0.6455691
50
4.8362157
51
12.2904523
0
ARC
8
DEFAULT_255_1_234
10
5.93588
20
29.2573965
40
0.3633074
50
12.0805627
51
23.8173984
0
ARC
8
DEFAULT_255_1_234
10
6.0532505
20
29.3070919
40
0.2358723
50
24.2871213
51
31.3935614
0
ARC
8
DEFAULT_255_1_234
10
6.1057202
20
29.3414233
40
0.1732111
50
30.7407893
51
82.4657128
0
ARC
8
DEFAULT_255_1_234
10
6.0877337
20
29.2530691
40
0.263235
50
81.1060089
51
90.2184952
0
ARC
8
DEFAULT_255_1_234
10
6.0841636
20
29.2788924
40
0.2374236
50
89.3806855
51
105.6762551
0
ARC
8
DEFAULT_255_1_234
10
6.0658266
20
29.3455567
40
0.1682847
50
105.7981136
51
149.7388061
0
ARC
8
DEFAULT_255_1_234
10
6.1722344
20
29.281595
40
0.2924306
50
149.4208916
51
163.6286378
0
ARC
8
DEFAULT_255_1_234
10
6.3813233
20
29.217825
40
0.5110213
50
163.3763315
51
172.1410975
0
ARC
8
DEFAULT_255_1_234
10
6.7113951
20
29.1705518
40
0.8444586
50
172.0259487
51
178.0703232
0
ARC
8
DEFAULT_255_1_234
10
7.0144041
20
29.1561906
40
1.1477868
50
177.8631668
51
179.5044149
0
ARC
8
DEFAULT_255_1_234
10
6.9071445
20
28.9247389
40
1.0404907
50
179.7995573
51
185.2460446
0
ARC
8
DEFAULT_255_1_234
10
6.5028485
20
28.8864513
40
0.6343885
50
185.1411642
51
193.0079639
0
ARC
8
DEFAULT_255_1_234
10
6.2384957
20
28.8239641
40
0.3627568
50
192.7897626
51
205.2507664
0
ARC
8
DEFAULT_255_1_234
10
6.1338504
20
28.7772415
40
0.2481908
50
205.8005384
51
211.2537509
0
ARC
8
DEFAULT_255_1_234
10
6.0814945
20
28.742158
40
0.1852521
50
210.3789793
51
238.4008143
0
ARC
8
DEFAULT_255_1_234
10
6.0795467
20
28.7468376
40
0.1882621
50
239.6520629
51
265.9793761
0
ARC
8
DEFAULT_255_1_234
10
6.0880667
20
28.8140427
40
0.2559272
50
265.1315437
51
270.060332
0
ARC
8
DEFAULT_255_1_234
10
6.0909446
20
28.7816534
40
0.2235528
50
269.3314664
51
287.2178029
0
ARC
8
DEFAULT_255_1_234
10
6.1047298
20
28.7313279
40
0.1714108
50
287.7958004
51
329.080874
0
ARC
8
DEFAULT_255_1_234
10
6.0089754
20
28.791093
40
0.2842745
50
328.6634704
51
343.3325132
0
ARC
8
DEFAULT_255_1_234
10
5.7916774
20
28.8587863
40
0.5118644
50
343.0499468
51
351.9393422
0
ARC
8
DEFAULT_255_1_234
10
5.4450074
20
28.9098949
40
0.8622784
50
351.8069023
51
357.7959224
0
ARC
8
DEFAULT_255_1_234
10
5.121463
20
28.9266721
40
1.1862365
50
357.5871873
51
359.2677531
0
LINE
8
DEFAULT_255_1_234
10
4.4599154
20
36.3904
11
4.1362364
21
36.3904
0
LINE
8
DEFAULT_255_1_234
10
4.1362364
20
36.3904
11
4.1362364
21
37.5598211
0
LINE
8
DEFAULT_255_1_234
10
4.1362364
20
37.5598211
11
4.4663408
21
37.5598211
0
LINE
8
DEFAULT_255_1_234
10
4.9819784
20
37.0144661
11
4.9819784
21
36.9397709
0
LINE
8
DEFAULT_255_1_234
10
4.4703567
20
37.4329196
11
4.2904458
21
37.4329196
0
LINE
8
DEFAULT_255_1_234
10
4.2904458
20
37.4329196
11
4.2904458
21
36.5164983
0
LINE
8
DEFAULT_255_1_234
10
4.2904458
20
36.5164983
11
4.4526869
21
36.5164983
0
LINE
8
DEFAULT_255_1_234
10
4.8293754
20
36.9429836
11
4.8293754
21
37.0112534
0
ARC
8
DEFAULT_255_1_234
10
4.4702351
20
36.9732894
40
0.5865446
50
75.4101064
51
90.3804066
0
ARC
8
DEFAULT_255_1_234
10
4.4931864
20
37.0689492
40
0.4881916
50
60.145586
51
75.1888407
0
ARC
8
DEFAULT_255_1_234
10
4.509064
20
37.0966199
40
0.4562893
50
26.5253612
51
60.1450928
0
ARC
8
DEFAULT_255_1_234
10
4.3970389
20
37.0372158
40
0.5830602
50
7.4030428
51
26.8320788
0
ARC
8
DEFAULT_255_1_234
10
4.2376146
20
37.0123804
40
0.7443669
50
0.1605367
51
7.7176192
0
ARC
8
DEFAULT_255_1_234
10
4.254005
20
36.9359434
40
0.7279835
50
348.7289388
51
0.3012466
0
ARC
8
DEFAULT_255_1_234
10
4.4196481
20
36.9030386
40
0.559104
50
333.0706509
51
348.7181832
0
ARC
8
DEFAULT_255_1_234
10
4.5163238
20
36.8505319
40
0.4491417
50
299.2531685
51
333.4571258
0
ARC
8
DEFAULT_255_1_234
10
4.4802378
20
36.9190828
40
0.5265881
50
278.107187
51
299.0339503
0
ARC
8
DEFAULT_255_1_234
10
4.4546457
20
37.0698216
40
0.679442
50
270.4443897
51
278.4511052
0
ARC
8
DEFAULT_255_1_234
10
4.4567287
20
36.9769213
40
0.4604407
50
269.4970433
51
284.0205042
0
ARC
8
DEFAULT_255_1_234
10
4.4922588
20
36.8403978
40
0.3193797
50
283.7700273
51
318.1555492
0
ARC
8
DEFAULT_255_1_234
10
4.4585346
20
36.8656367
40
0.3613588
50
318.7415601
51
343.6873628
0
ARC
8
DEFAULT_255_1_234
10
4.2781369
20
36.9219832
40
0.5503313
50
343.3325091
51
355.8548958
0
ARC
8
DEFAULT_255_1_234
10
4.0683054
20
36.9419319
40
0.7610708
50
355.4988528
51
0.0791727
0
ARC
8
DEFAULT_255_1_234
10
4.1465676
20
37.015478
40
0.6828208
50
359.6455037
51
9.8607896
0
ARC
8
DEFAULT_255_1_234
10
4.3826374
20
37.0581099
40
0.4429406
50
9.6571907
51
26.1932807
0
ARC
8
DEFAULT_255_1_234
10
4.4754363
20
37.1012118
40
0.3406537
50
26.5777228
51
40.1532208
0
ARC
8
DEFAULT_255_1_234
10
4.5010089
20
37.1211619
40
0.308246
50
40.3840491
51
80.1431104
0
ARC
8
DEFAULT_255_1_234
10
4.4683207
20
36.9762333
40
0.4566909
50
79.2152159
51
89.7445637
0
LINE
8
DEFAULT_255_1_234
10
5.3803526
20
37.5598211
11
5.3803526
21
36.3904
0
LINE
8
DEFAULT_255_1_234
10
5.3803526
20
36.3904
11
5.2261433
21
36.3904
0
LINE
8
DEFAULT_255_1_234
10
5.2261433
20
36.3904
11
5.2261433
21
37.5598211
0
LINE
8
DEFAULT_255_1_234
10
5.2261433
20
37.5598211
11
5.3803526
21
37.5598211
0
LINE
8
DEFAULT_255_1_234
10
6.3786977
20
37.5598211
11
6.3786977
21
37.476291
0
LINE
8
DEFAULT_255_1_234
10
6.3786977
20
37.476291
11
5.8943839
21
36.3904
0
LINE
8
DEFAULT_255_1_234
10
5.8943839
20
36.3904
11
5.7385682
21
36.3904
0
LINE
8
DEFAULT_255_1_234
10
5.7385682
20
36.3904
11
6.2212756
21
37.4377387
0
LINE
8
DEFAULT_255_1_234
10
6.2212756
20
37.4377387
11
5.5883747
21
37.4377387
0
LINE
8
DEFAULT_255_1_234
10
5.5883747
20
37.4377387
11
5.5883747
21
37.5598211
0
LINE
8
DEFAULT_255_1_234
10
5.5883747
20
37.5598211
11
6.3786977
21
37.5598211
0
LINE
8
DEFAULT_255_1_234
10
4.4599154
20
44.3279
11
4.1362364
21
44.3279
0
LINE
8
DEFAULT_255_1_234
10
4.1362364
20
44.3279
11
4.1362364
21
45.4973211
0
LINE
8
DEFAULT_255_1_234
10
4.1362364
20
45.4973211
11
4.4663408
21
45.4973211
0
LINE
8
DEFAULT_255_1_234
10
4.9819784
20
44.9519661
11
4.9819784
21
44.8772709
0
LINE
8
DEFAULT_255_1_234
10
4.4703567
20
45.3704196
11
4.2904458
21
45.3704196
0
LINE
8
DEFAULT_255_1_234
10
4.2904458
20
45.3704196
11
4.2904458
21
44.4539983
0
LINE
8
DEFAULT_255_1_234
10
4.2904458
20
44.4539983
11
4.4526869
21
44.4539983
0
LINE
8
DEFAULT_255_1_234
10
4.8293754
20
44.8804836
11
4.8293754
21
44.9487534
0
ARC
8
DEFAULT_255_1_234
10
4.4702351
20
44.9107894
40
0.5865446
50
75.4101064
51
90.3804066
0
ARC
8
DEFAULT_255_1_234
10
4.4931864
20
45.0064492
40
0.4881916
50
60.145586
51
75.1888407
0
ARC
8
DEFAULT_255_1_234
10
4.509064
20
45.0341199
40
0.4562893
50
26.5253612
51
60.1450928
0
ARC
8
DEFAULT_255_1_234
10
4.3970389
20
44.9747158
40
0.5830602
50
7.4030428
51
26.8320788
0
ARC
8
DEFAULT_255_1_234
10
4.2376146
20
44.9498804
40
0.7443669
50
0.1605367
51
7.7176192
0
ARC
8
DEFAULT_255_1_234
10
4.254005
20
44.8734434
40
0.7279835
50
348.7289388
51
0.3012466
0
ARC
8
DEFAULT_255_1_234
10
4.4196481
20
44.8405386
40
0.559104
50
333.0706509
51
348.7181832
0
ARC
8
DEFAULT_255_1_234
10
4.5163238
20
44.7880319
40
0.4491417
50
299.2531685
51
333.4571258
0
ARC
8
DEFAULT_255_1_234
10
4.4802378
20
44.8565828
40
0.5265881
50
278.107187
51
299.0339503
0
ARC
8
DEFAULT_255_1_234
10
4.4546457
20
45.0073216
40
0.679442
50
270.4443897
51
278.4511052
0
ARC
8
DEFAULT_255_1_234
10
4.4567287
20
44.9144213
40
0.4604407
50
269.4970433
51
284.0205042
0
ARC
8
DEFAULT_255_1_234
10
4.4922588
20
44.7778978
40
0.3193797
50
283.7700273
51
318.1555492
0
ARC
8
DEFAULT_255_1_234
10
4.4585346
20
44.8031367
40
0.3613588
50
318.7415601
51
343.6873628
0
ARC
8
DEFAULT_255_1_234
10
4.2781369
20
44.8594832
40
0.5503313
50
343.3325091
51
355.8548958
0
ARC
8
DEFAULT_255_1_234
10
4.0683054
20
44.8794319
40
0.7610708
50
355.4988528
51
0.0791727
0
ARC
8
DEFAULT_255_1_234
10
4.1465676
20
44.952978
40
0.6828208
50
359.6455037
51
9.8607896
0
ARC
8
DEFAULT_255_1_234
10
4.3826374
20
44.9956099
40
0.4429406
50
9.6571907
51
26.1932807
0
ARC
8
DEFAULT_255_1_234
10
4.4754363
20
45.0387118
40
0.3406537
50
26.5777228
51
40.1532208
0
ARC
8
DEFAULT_255_1_234
10
4.5010089
20
45.0586619
40
0.308246
50
40.3840491
51
80.1431104
0
ARC
8
DEFAULT_255_1_234
10
4.4683207
20
44.9137333
40
0.4566909
50
79.2152159
51
89.7445637
0
LINE
8
DEFAULT_255_1_234
10
5.3803526
20
45.4973211
11
5.3803526
21
44.3279
0
LINE
8
DEFAULT_255_1_234
10
5.3803526
20
44.3279
11
5.2261433
21
44.3279
0
LINE
8
DEFAULT_255_1_234
10
5.2261433
20
44.3279
11
5.2261433
21
45.4973211
0
LINE
8
DEFAULT_255_1_234
10
5.2261433
20
45.4973211
11
5.3803526
21
45.4973211
0
LINE
8
DEFAULT_255_1_234
10
6.1803138
20
45.4981243
11
6.2068185
21
45.4981243
0
LINE
8
DEFAULT_255_1_234
10
6.2068185
20
45.4981243
11
6.2068185
21
45.372026
0
LINE
8
DEFAULT_255_1_234
10
6.2068185
20
45.372026
11
6.1795106
21
45.372026
0
LINE
8
DEFAULT_255_1_234
10
5.6325492
20
44.7728583
11
5.6325492
21
44.8298836
0
LINE
8
DEFAULT_255_1_234
10
5.7819396
20
44.8106075
11
5.7819396
21
44.7559917
0
ARC
8
DEFAULT_255_1_234
10
6.1847454
20
44.8722455
40
0.4998079
50
90.6001036
51
104.514704
0
ARC
8
DEFAULT_255_1_234
10
6.1458969
20
45.0167131
40
0.3502176
50
104.2855254
51
133.862935
0
ARC
8
DEFAULT_255_1_234
10
6.1622727
20
45.005883
40
0.3693984
50
134.5302688
51
161.6210873
0
ARC
8
DEFAULT_255_1_234
10
6.3275915
20
44.9475895
40
0.5446739
50
161.2849839
51
174.2076652
0
ARC
8
DEFAULT_255_1_234
10
6.4682852
20
44.9281787
40
0.6866274
50
173.7810589
51
174.9254635
0
ARC
8
DEFAULT_255_1_234
10
6.0132684
20
44.7898839
40
0.3033419
50
95.8330959
51
138.9954921
0
ARC
8
DEFAULT_255_1_234
10
6.035604
20
44.6620375
40
0.4328947
50
89.8753725
51
97.0544009
0
ARC
8
DEFAULT_255_1_234
10
6.0403506
20
44.7455748
40
0.3493769
50
71.6407809
51
90.6240094
0
ARC
8
DEFAULT_255_1_234
10
6.055408
20
44.8010082
40
0.2920396
50
39.6367836
51
71.019018
0
ARC
8
DEFAULT_255_1_234
10
5.9917553
20
44.7459998
40
0.3761538
50
10.658731
51
39.9043955
0
ARC
8
DEFAULT_255_1_234
10
5.8369636
20
44.7123686
40
0.5345136
50
359.682601
51
11.132623
0
ARC
8
DEFAULT_255_1_234
10
5.8329767
20
44.705301
40
0.5385081
50
347.2486944
51
0.4369317
0
ARC
8
DEFAULT_255_1_234
10
5.9997244
20
44.6651807
40
0.3670249
50
318.1409698
51
347.6118597
0
ARC
8
DEFAULT_255_1_234
10
6.0322237
20
44.6384702
40
0.3250007
50
275.6342139
51
317.8248465
0
ARC
8
DEFAULT_255_1_234
10
6.0101348
20
44.7684219
40
0.4565864
50
269.8874292
51
276.7917694
0
ARC
8
DEFAULT_255_1_234
10
6.0046419
20
44.6658743
40
0.3540676
50
246.9140195
51
270.7437342
0
ARC
8
DEFAULT_255_1_234
10
6.0052809
20
44.6516384
40
0.3412781
50
218.1665114
51
245.878116
0
ARC
8
DEFAULT_255_1_234
10
6.093227
20
44.7252279
40
0.455911
50
191.4115814
51
218.6077802
0
ARC
8
DEFAULT_255_1_234
10
6.2870359
20
44.7686833
40
0.6545001
50
179.6345085
51
191.7836486
0
ARC
8
DEFAULT_255_1_234
10
6.8452696
20
44.8365697
40
1.2127388
50
171.4525249
51
180.3158839
0
ARC
8
DEFAULT_255_1_234
10
6.4057571
20
44.9049608
40
0.7679464
50
157.9802646
51
171.6246686
0
ARC
8
DEFAULT_255_1_234
10
6.1843592
20
44.9932421
40
0.5296008
50
141.4298019
51
157.854097
0
ARC
8
DEFAULT_255_1_234
10
6.1201913
20
45.0386381
40
0.4511509
50
102.8715806
51
140.8564722
0
ARC
8
DEFAULT_255_1_234
10
6.1849528
20
44.7946552
40
0.7034845
50
90.3778349
51
103.5869322
0
ARC
8
DEFAULT_255_1_234
10
6.0111305
20
44.734173
40
0.2370698
50
89.8751008
51
126.2071704
0
ARC
8
DEFAULT_255_1_234
10
6.0157094
20
44.7187303
40
0.2522934
50
124.9745049
51
144.895901
0
ARC
8
DEFAULT_255_1_234
10
5.9981285
20
44.733056
40
0.2296779
50
145.2974905
51
160.2660252
0
ARC
8
DEFAULT_255_1_234
10
6.3053824
20
44.7528071
40
0.5234525
50
179.6514266
51
190.2855912
0
ARC
8
DEFAULT_255_1_234
10
6.1359961
20
44.7208786
40
0.3510893
50
190.0945431
51
207.5098196
0
ARC
8
DEFAULT_255_1_234
10
6.0794231
20
44.6939623
40
0.288489
50
207.9583163
51
216.3251085
0
ARC
8
DEFAULT_255_1_234
10
6.0454339
20
44.6660105
40
0.2445587
50
215.7661442
51
232.5456785
0
ARC
8
DEFAULT_255_1_234
10
6.0071322
20
44.6173482
40
0.1826382
50
232.8005391
51
270.6605633
0
ARC
8
DEFAULT_255_1_234
10
6.0117022
20
44.6537612
40
0.2190529
50
269.35537
51
288.4744281
0
ARC
8
DEFAULT_255_1_234
10
6.020992
20
44.6188118
40
0.1829749
50
289.1833337
51
322.9683818
0
ARC
8
DEFAULT_255_1_234
10
5.9598442
20
44.6670391
40
0.2608399
50
322.6007884
51
346.5182367
0
ARC
8
DEFAULT_255_1_234
10
5.8441038
20
44.6965616
40
0.3802777
50
346.2582162
51
358.7741648
0
ARC
8
DEFAULT_255_1_234
10
5.7422707
20
44.7020965
40
0.4822176
50
358.3755224
51
0.0098023
0
ARC
8
DEFAULT_255_1_234
10
5.8178894
20
44.7048657
40
0.4066078
50
359.6214041
51
11.2839074
0
ARC
8
DEFAULT_255_1_234
10
5.9456041
20
44.7315066
40
0.2761514
50
11.0482309
51
31.8146458
0
ARC
8
DEFAULT_255_1_234
10
5.9765084
20
44.7482584
40
0.2410679
50
32.3035391
51
38.082671
0
ARC
8
DEFAULT_255_1_234
10
6.0185744
20
44.7863662
40
0.1844966
50
36.825067
51
85.7415724
0
ARC
8
DEFAULT_255_1_234
10
6.0118577
20
44.7363301
40
0.2349122
50
85.0140713
51
90.0513278
0
LINE
8
DEFAULT_255_1_234
10
4.4599154
20
52.2654
11
4.1362364
21
52.2654
0
LINE
8
DEFAULT_255_1_234
10
4.1362364
20
52.2654
11
4.1362364
21
53.4348211
0
LINE
8
DEFAULT_255_1_234
10
4.1362364
20
53.4348211
11
4.4663408
21
53.4348211
0
LINE
8
DEFAULT_255_1_234
10
4.9819784
20
52.8894661
11
4.9819784
21
52.8147709
0
LINE
8
DEFAULT_255_1_234
10
4.4703567
20
53.3079196
11
4.2904458
21
53.3079196
0
LINE
8
DEFAULT_255_1_234
10
4.2904458
20
53.3079196
11
4.2904458
21
52.3914983
0
LINE
8
DEFAULT_255_1_234
10
4.2904458
20
52.3914983
11
4.4526869
21
52.3914983
0
LINE
8
DEFAULT_255_1_234
10
4.8293754
20
52.8179836
11
4.8293754
21
52.8862534
0
ARC
8
DEFAULT_255_1_234
10
4.4702351
20
52.8482894
40
0.5865446
50
75.4101064
51
90.3804066
0
ARC
8
DEFAULT_255_1_234
10
4.4931864
20
52.9439492
40
0.4881916
50
60.145586
51
75.1888407
0
ARC
8
DEFAULT_255_1_234
10
4.509064
20
52.9716199
40
0.4562893
50
26.5253612
51
60.1450928
0
ARC
8
DEFAULT_255_1_234
10
4.3970389
20
52.9122158
40
0.5830602
50
7.4030428
51
26.8320788
0
ARC
8
DEFAULT_255_1_234
10
4.2376146
20
52.8873804
40
0.7443669
50
0.1605367
51
7.7176192
0
ARC
8
DEFAULT_255_1_234
10
4.254005
20
52.8109434
40
0.7279835
50
348.7289388
51
0.3012466
0
ARC
8
DEFAULT_255_1_234
10
4.4196481
20
52.7780386
40
0.559104
50
333.0706509
51
348.7181832
0
ARC
8
DEFAULT_255_1_234
10
4.5163238
20
52.7255319
40
0.4491417
50
299.2531685
51
333.4571258
0
ARC
8
DEFAULT_255_1_234
10
4.4802378
20
52.7940828
40
0.5265881
50
278.107187
51
299.0339503
0
ARC
8
DEFAULT_255_1_234
10
4.4546457
20
52.9448216
40
0.679442
50
270.4443897
51
278.4511052
0
ARC
8
DEFAULT_255_1_234
10
4.4567287
20
52.8519213
40
0.4604407
50
269.4970433
51
284.0205042
0
ARC
8
DEFAULT_255_1_234
10
4.4922588
20
52.7153978
40
0.3193797
50
283.7700273
51
318.1555492
0
ARC
8
DEFAULT_255_1_234
10
4.4585346
20
52.7406367
40
0.3613588
50
318.7415601
51
343.6873628
0
ARC
8
DEFAULT_255_1_234
10
4.2781369
20
52.7969832
40
0.5503313
50
343.3325091
51
355.8548958
0
ARC
8
DEFAULT_255_1_234
10
4.0683054
20
52.8169319
40
0.7610708
50
355.4988528
51
0.0791727
0
ARC
8
DEFAULT_255_1_234
10
4.1465676
20
52.890478
40
0.6828208
50
359.6455037
51
9.8607896
0
ARC
8
DEFAULT_255_1_234
10
4.3826374
20
52.9331099
40
0.4429406
50
9.6571907
51
26.1932807
0
ARC
8
DEFAULT_255_1_234
10
4.4754363
20
52.9762118
40
0.3406537
50
26.5777228
51
40.1532208
0
ARC
8
DEFAULT_255_1_234
10
4.5010089
20
52.9961619
40
0.308246
50
40.3840491
51
80.1431104
0
ARC
8
DEFAULT_255_1_234
10
4.4683207
20
52.8512333
40
0.4566909
50
79.2152159
51
89.7445637
0
LINE
8
DEFAULT_255_1_234
10
5.3803526
20
53.4348211
11
5.3803526
21
52.2654
0
LINE
8
DEFAULT_255_1_234
10
5.3803526
20
52.2654
11
5.2261433
21
52.2654
0
LINE
8
DEFAULT_255_1_234
10
5.2261433
20
52.2654
11
5.2261433
21
53.4348211
0
LINE
8
DEFAULT_255_1_234
10
5.2261433
20
53.4348211
11
5.3803526
21
53.4348211
0
LINE
8
DEFAULT_255_1_234
10
5.8108538
20
52.8211963
11
5.6919841
21
52.8517169
0
LINE
8
DEFAULT_255_1_234
10
5.6919841
20
52.8517169
11
5.7514189
21
53.4348211
0
LINE
8
DEFAULT_255_1_234
10
5.7514189
20
53.4348211
11
6.3505866
21
53.4348211
0
LINE
8
DEFAULT_255_1_234
10
6.3505866
20
53.4348211
11
6.3505866
21
53.2974784
0
LINE
8
DEFAULT_255_1_234
10
6.3505866
20
53.2974784
11
5.8775172
21
53.2974784
0
LINE
8
DEFAULT_255_1_234
10
5.8775172
20
53.2974784
11
5.8421776
21
52.9786184
0
LINE
8
DEFAULT_255_1_234
10
5.650219
20
52.5730156
11
5.7907745
21
52.5730156
0
LINE
8
DEFAULT_255_1_234
10
5.8502093
20
52.8533232
11
5.8108538
21
52.8211963
0
ARC
8
DEFAULT_255_1_234
10
6.027656
20
52.660623
40
0.3681349
50
93.7182161
51
120.2538958
0
ARC
8
DEFAULT_255_1_234
10
6.0370823
20
52.5798394
40
0.449379
50
89.9660152
51
94.2496022
0
ARC
8
DEFAULT_255_1_234
10
6.0411557
20
52.6387549
40
0.390482
50
73.8043271
51
90.5585896
0
ARC
8
DEFAULT_255_1_234
10
6.0646454
20
52.7245602
40
0.3015334
50
41.3071453
51
73.5430202
0
ARC
8
DEFAULT_255_1_234
10
6.0230281
20
52.6887324
40
0.3564457
50
13.5075983
51
41.2174222
0
ARC
8
DEFAULT_255_1_234
10
5.8588485
20
52.6457486
40
0.5261351
50
1.1331335
51
13.8829381
0
ARC
8
DEFAULT_255_1_234
10
5.7176854
20
52.6381665
40
0.6674378
50
359.9919444
51
1.544251
0
ARC
8
DEFAULT_255_1_234
10
5.845368
20
52.634028
40
0.5397702
50
347.8572367
51
0.4293338
0
ARC
8
DEFAULT_255_1_234
10
6.0203998
20
52.5943736
40
0.3603188
50
323.673004
51
348.1672506
0
ARC
8
DEFAULT_255_1_234
10
6.0498506
20
52.5764168
40
0.3259678
50
316.8171152
51
323.1492751
0
ARC
8
DEFAULT_255_1_234
10
6.0559695
20
52.572746
40
0.3189975
50
281.8396411
51
316.5457803
0
ARC
8
DEFAULT_255_1_234
10
6.0183958
20
52.7282762
40
0.4789527
50
269.5770101
51
282.4214771
0
ARC
8
DEFAULT_255_1_234
10
6.011277
20
52.7069125
40
0.45759
50
256.2427136
51
270.4486331
0
ARC
8
DEFAULT_255_1_234
10
5.9813672
20
52.5869229
40
0.3339303
50
228.9023911
51
256.3314342
0
ARC
8
DEFAULT_255_1_234
10
5.9739905
20
52.5752746
40
0.32031
50
193.753695
51
228.5271154
0
ARC
8
DEFAULT_255_1_234
10
6.0977859
20
52.61158
40
0.4492253
50
184.924711
51
194.497588
0
ARC
8
DEFAULT_255_1_234
10
6.1170426
20
52.6151591
40
0.3289787
50
187.3600538
51
198.6732863
0
ARC
8
DEFAULT_255_1_234
10
6.012072
20
52.5787674
40
0.217884
50
198.4451669
51
217.794479
0
ARC
8
DEFAULT_255_1_234
10
5.9824895
20
52.5578085
40
0.1816698
50
218.2887171
51
228.5612368
0
ARC
8
DEFAULT_255_1_234
10
5.9922682
20
52.5709963
40
0.1980329
50
228.9654866
51
258.1234728
0
ARC
8
DEFAULT_255_1_234
10
6.0128392
20
52.6590833
40
0.2884748
50
257.7258293
51
270.401361
0
ARC
8
DEFAULT_255_1_234
10
6.0173278
20
52.6145821
40
0.2439788
50
269.4204404
51
286.4209037
0
ARC
8
DEFAULT_255_1_234
10
6.0321766
20
52.5606657
40
0.1880666
50
286.7251356
51
320.600362
0
ARC
8
DEFAULT_255_1_234
10
5.9938591
20
52.5917595
40
0.2374121
50
320.6712579
51
344.5441685
0
ARC
8
DEFAULT_255_1_234
10
5.8781917
20
52.6257045
40
0.3579479
50
344.2412205
51
356.7357071
0
ARC
8
DEFAULT_255_1_234
10
5.7533065
20
52.6360444
40
0.4832297
50
356.3548756
51
0.0500261
0
ARC
8
DEFAULT_255_1_234
10
5.8869575
20
52.639165
40
0.3495889
50
359.5576869
51
12.953486
0
ARC
8
DEFAULT_255_1_234
10
5.9924472
20
52.6647434
40
0.2410532
50
12.6490276
51
41.6081334
0
ARC
8
DEFAULT_255_1_234
10
6.0154843
20
52.6843321
40
0.2108218
50
41.7850273
51
85.9892764
0
ARC
8
DEFAULT_255_1_234
10
6.003158
20
52.6030462
40
0.2928454
50
84.6957577
51
90.0676183
0
ARC
8
DEFAULT_255_1_234
10
6.0008064
20
52.5361716
40
0.3597255
50
89.6804936
51
99.1614436
0
ARC
8
DEFAULT_255_1_234
10
5.9802695
20
52.6589131
40
0.235281
50
98.9830931
51
113.8908934
0
ARC
8
DEFAULT_255_1_234
10
5.9573105
20
52.7130587
40
0.176479
50
114.1950727
51
127.3641004
0
LINE
8
DEFAULT_255_1_234
10
4.5658154
20
60.2029
11
4.2421364
21
60.2029
0
LINE
8
DEFAULT_255_1_234
10
4.2421364
20
60.2029
11
4.2421364
21
61.3723211
0
LINE
8
DEFAULT_255_1_234
10
4.2421364
20
61.3723211
11
4.5722408
21
61.3723211
0
LINE
8
DEFAULT_255_1_234
10
5.0878784
20
60.8269661
11
5.0878784
21
60.7522709
0
LINE
8
DEFAULT_255_1_234
10
4.5762567
20
61.2454196
11
4.3963458
21
61.2454196
0
LINE
8
DEFAULT_255_1_234
10
4.3963458
20
61.2454196
11
4.3963458
21
60.3289983
0
LINE
8
DEFAULT_255_1_234
10
4.3963458
20
60.3289983
11
4.5585869
21
60.3289983
0
LINE
8
DEFAULT_255_1_234
10
4.9352754
20
60.7554836
11
4.9352754
21
60.8237534
0
ARC
8
DEFAULT_255_1_234
10
4.5761351
20
60.7857894
40
0.5865446
50
75.4101064
51
90.3804066
0
ARC
8
DEFAULT_255_1_234
10
4.5990864
20
60.8814492
40
0.4881916
50
60.145586
51
75.1888407
0
ARC
8
DEFAULT_255_1_234
10
4.614964
20
60.9091199
40
0.4562893
50
26.5253612
51
60.1450928
0
ARC
8
DEFAULT_255_1_234
10
4.5029389
20
60.8497158
40
0.5830602
50
7.4030428
51
26.8320788
0
ARC
8
DEFAULT_255_1_234
10
4.3435146
20
60.8248804
40
0.7443669
50
0.1605367
51
7.7176192
0
ARC
8
DEFAULT_255_1_234
10
4.359905
20
60.7484434
40
0.7279835
50
348.7289388
51
0.3012466
0
ARC
8
DEFAULT_255_1_234
10
4.5255481
20
60.7155386
40
0.559104
50
333.0706509
51
348.7181832
0
ARC
8
DEFAULT_255_1_234
10
4.6222238
20
60.6630319
40
0.4491417
50
299.2531685
51
333.4571258
0
ARC
8
DEFAULT_255_1_234
10
4.5861378
20
60.7315828
40
0.5265881
50
278.107187
51
299.0339503
0
ARC
8
DEFAULT_255_1_234
10
4.5605457
20
60.8823216
40
0.679442
50
270.4443897
51
278.4511052
0
ARC
8
DEFAULT_255_1_234
10
4.5626287
20
60.7894213
40
0.4604407
50
269.4970433
51
284.0205042
0
ARC
8
DEFAULT_255_1_234
10
4.5981588
20
60.6528978
40
0.3193797
50
283.7700273
51
318.1555492
0
ARC
8
DEFAULT_255_1_234
10
4.5644346
20
60.6781367
40
0.3613588
50
318.7415601
51
343.6873628
0
ARC
8
DEFAULT_255_1_234
10
4.3840369
20
60.7344832
40
0.5503313
50
343.3325091
51
355.8548958
0
ARC
8
DEFAULT_255_1_234
10
4.1742054
20
60.7544319
40
0.7610708
50
355.4988528
51
0.0791727
0
ARC
8
DEFAULT_255_1_234
10
4.2524676
20
60.827978
40
0.6828208
50
359.6455037
51
9.8607896
0
ARC
8
DEFAULT_255_1_234
10
4.4885374
20
60.8706099
40
0.4429406
50
9.6571907
51
26.1932807
0
ARC
8
DEFAULT_255_1_234
10
4.5813363
20
60.9137118
40
0.3406537
50
26.5777228
51
40.1532208
0
ARC
8
DEFAULT_255_1_234
10
4.6069089
20
60.9336619
40
0.308246
50
40.3840491
51
80.1431104
0
ARC
8
DEFAULT_255_1_234
10
4.5742207
20
60.7887333
40
0.4566909
50
79.2152159
51
89.7445637
0
LINE
8
DEFAULT_255_1_234
10
5.4862526
20
61.3723211
11
5.4862526
21
60.2029
0
LINE
8
DEFAULT_255_1_234
10
5.4862526
20
60.2029
11
5.3320433
21
60.2029
0
LINE
8
DEFAULT_255_1_234
10
5.3320433
20
60.2029
11
5.3320433
21
61.3723211
0
LINE
8
DEFAULT_255_1_234
10
5.3320433
20
61.3723211
11
5.4862526
21
61.3723211
0
LINE
8
DEFAULT_255_1_234
10
6.3568931
20
61.3723211
11
6.3568931
21
60.595652
0
LINE
8
DEFAULT_255_1_234
10
6.3568931
20
60.595652
11
6.5191342
21
60.595652
0
LINE
8
DEFAULT_255_1_234
10
6.5191342
20
60.595652
11
6.5191342
21
60.4743728
0
LINE
8
DEFAULT_255_1_234
10
6.5191342
20
60.4743728
11
6.3568931
21
60.4743728
0
LINE
8
DEFAULT_255_1_234
10
6.3568931
20
60.4743728
11
6.3568931
21
60.2029
0
LINE
8
DEFAULT_255_1_234
10
6.3568931
20
60.2029
11
6.2075027
21
60.2029
0
LINE
8
DEFAULT_255_1_234
10
6.2075027
20
60.2029
11
6.2075027
21
60.4743728
0
LINE
8
DEFAULT_255_1_234
10
6.2075027
20
60.4743728
11
5.6749985
21
60.4743728
0
LINE
8
DEFAULT_255_1_234
10
5.6749985
20
60.4743728
11
5.6749985
21
60.5619187
0
LINE
8
DEFAULT_255_1_234
10
5.6749985
20
60.5619187
11
6.1986678
21
61.3723211
0
LINE
8
DEFAULT_255_1_234
10
6.1986678
20
61.3723211
11
6.3568931
21
61.3723211
0
LINE
8
DEFAULT_255_1_234
10
6.1898329
20
61.1369912
11
5.843665
21
60.595652
0
LINE
8
DEFAULT_255_1_234
10
5.843665
20
60.595652
11
6.2075027
21
60.595652
0
LINE
8
DEFAULT_255_1_234
10
6.2075027
20
60.595652
11
6.2075027
21
61.1691181
0
LINE
8
DEFAULT_255_1_234
10
6.2075027
20
61.1691181
11
6.1898329
21
61.1369912
0
LINE
8
DEFAULT_255_1_234
10
4.4599154
20
68.1404
11
4.1362364
21
68.1404
0
LINE
8
DEFAULT_255_1_234
10
4.1362364
20
68.1404
11
4.1362364
21
69.3098211
0
LINE
8
DEFAULT_255_1_234
10
4.1362364
20
69.3098211
11
4.4663408
21
69.3098211
0
LINE
8
DEFAULT_255_1_234
10
4.9819784
20
68.7644661
11
4.9819784
21
68.6897709
0
LINE
8
DEFAULT_255_1_234
10
4.4703567
20
69.1829196
11
4.2904458
21
69.1829196
0
LINE
8
DEFAULT_255_1_234
10
4.2904458
20
69.1829196
11
4.2904458
21
68.2664983
0
LINE
8
DEFAULT_255_1_234
10
4.2904458
20
68.2664983
11
4.4526869
21
68.2664983
0
LINE
8
DEFAULT_255_1_234
10
4.8293754
20
68.6929836
11
4.8293754
21
68.7612534
0
ARC
8
DEFAULT_255_1_234
10
4.4702351
20
68.7232894
40
0.5865446
50
75.4101064
51
90.3804066
0
ARC
8
DEFAULT_255_1_234
10
4.4931864
20
68.8189492
40
0.4881916
50
60.145586
51
75.1888407
0
ARC
8
DEFAULT_255_1_234
10
4.509064
20
68.8466199
40
0.4562893
50
26.5253612
51
60.1450928
0
ARC
8
DEFAULT_255_1_234
10
4.3970389
20
68.7872158
40
0.5830602
50
7.4030428
51
26.8320788
0
ARC
8
DEFAULT_255_1_234
10
4.2376146
20
68.7623804
40
0.7443669
50
0.1605367
51
7.7176192
0
ARC
8
DEFAULT_255_1_234
10
4.254005
20
68.6859434
40
0.7279835
50
348.7289388
51
0.3012466
0
ARC
8
DEFAULT_255_1_234
10
4.4196481
20
68.6530386
40
0.559104
50
333.0706509
51
348.7181832
0
ARC
8
DEFAULT_255_1_234
10
4.5163238
20
68.6005319
40
0.4491417
50
299.2531685
51
333.4571258
0
ARC
8
DEFAULT_255_1_234
10
4.4802378
20
68.6690828
40
0.5265881
50
278.107187
51
299.0339503
0
ARC
8
DEFAULT_255_1_234
10
4.4546457
20
68.8198216
40
0.679442
50
270.4443897
51
278.4511052
0
ARC
8
DEFAULT_255_1_234
10
4.4567287
20
68.7269213
40
0.4604407
50
269.4970433
51
284.0205042
0
ARC
8
DEFAULT_255_1_234
10
4.4922588
20
68.5903978
40
0.3193797
50
283.7700273
51
318.1555492
0
ARC
8
DEFAULT_255_1_234
10
4.4585346
20
68.6156367
40
0.3613588
50
318.7415601
51
343.6873628
0
ARC
8
DEFAULT_255_1_234
10
4.2781369
20
68.6719832
40
0.5503313
50
343.3325091
51
355.8548958
0
ARC
8
DEFAULT_255_1_234
10
4.0683054
20
68.6919319
40
0.7610708
50
355.4988528
51
0.0791727
0
ARC
8
DEFAULT_255_1_234
10
4.1465676
20
68.765478
40
0.6828208
50
359.6455037
51
9.8607896
0
ARC
8
DEFAULT_255_1_234
10
4.3826374
20
68.8081099
40
0.4429406
50
9.6571907
51
26.1932807
0
ARC
8
DEFAULT_255_1_234
10
4.4754363
20
68.8512118
40
0.3406537
50
26.5777228
51
40.1532208
0
ARC
8
DEFAULT_255_1_234
10
4.5010089
20
68.8711619
40
0.308246
50
40.3840491
51
80.1431104
0
ARC
8
DEFAULT_255_1_234
10
4.4683207
20
68.7262333
40
0.4566909
50
79.2152159
51
89.7445637
0
LINE
8
DEFAULT_255_1_234
10
5.3803526
20
69.3098211
11
5.3803526
21
68.1404
0
LINE
8
DEFAULT_255_1_234
10
5.3803526
20
68.1404
11
5.2261433
21
68.1404
0
LINE
8
DEFAULT_255_1_234
10
5.2261433
20
68.1404
11
5.2261433
21
69.3098211
0
LINE
8
DEFAULT_255_1_234
10
5.2261433
20
69.3098211
11
5.3803526
21
69.3098211
0
LINE
8
DEFAULT_255_1_234
10
5.8397681
20
68.6761169
11
5.8397681
21
68.7973962
0
LINE
8
DEFAULT_255_1_234
10
5.8397681
20
68.7973962
11
5.9514092
21
68.7973962
0
LINE
8
DEFAULT_255_1_234
10
5.761057
20
69.0030087
11
5.6124699
21
69.0030087
0
LINE
8
DEFAULT_255_1_234
10
5.6020286
20
68.4488188
11
5.7514189
21
68.4488188
0
LINE
8
DEFAULT_255_1_234
10
5.9514092
20
68.6761169
11
5.8397681
21
68.6761169
0
ARC
8
DEFAULT_255_1_234
10
5.9484959
20
69.1366713
40
0.3392876
50
270.4919872
51
281.8951556
0
ARC
8
DEFAULT_255_1_234
10
5.972622
20
69.0264702
40
0.2264817
50
281.6691735
51
301.2943132
0
ARC
8
DEFAULT_255_1_234
10
5.9896431
20
68.9953304
40
0.1910381
50
301.7833094
51
311.7545298
0
ARC
8
DEFAULT_255_1_234
10
5.9988006
20
68.9851748
40
0.1773635
50
311.7323931
51
354.2802411
0
ARC
8
DEFAULT_255_1_234
10
5.9261632
20
68.9976722
40
0.2509385
50
353.0937916
51
0.1181479
0
ARC
8
DEFAULT_255_1_234
10
5.8800416
20
69.0024386
40
0.2970898
50
359.1805295
51
15.0453146
0
ARC
8
DEFAULT_255_1_234
10
6.0146253
20
69.0416992
40
0.1569564
50
13.9577229
51
77.6713066
0
ARC
8
DEFAULT_255_1_234
10
5.9759783
20
68.9031949
40
0.3006298
50
76.1116566
51
90.7026153
0
ARC
8
DEFAULT_255_1_234
10
5.9700621
20
68.9305545
40
0.2732568
50
89.5324876
51
103.531937
0
ARC
8
DEFAULT_255_1_234
10
5.9500065
20
69.0104884
40
0.1908508
50
103.2931773
51
133.5619022
0
ARC
8
DEFAULT_255_1_234
10
5.9455553
20
69.0164375
40
0.1834746
50
133.8349307
51
173.5344437
0
ARC
8
DEFAULT_255_1_234
10
6.0178597
20
69.0036213
40
0.2568033
50
172.5096846
51
180.1366907
0
ARC
8
DEFAULT_255_1_234
10
5.922749
20
69.0070622
40
0.3103056
50
155.3484492
51
180.7484736
0
ARC
8
DEFAULT_255_1_234
10
5.9178579
20
69.0041846
40
0.3070957
50
131.5744599
51
154.4798489
0
ARC
8
DEFAULT_255_1_234
10
5.9491727
20
68.972531
40
0.3515643
50
96.9875458
51
131.9690667
0
ARC
8
DEFAULT_255_1_234
10
5.9711207
20
68.8479636
40
0.4779224
50
89.8596053
51
97.7825159
0
ARC
8
DEFAULT_255_1_234
10
5.975927
20
68.8217616
40
0.5041361
50
78.3655447
51
90.4131539
0
ARC
8
DEFAULT_255_1_234
10
6.0117188
20
68.9876887
40
0.3344039
50
56.6229102
51
78.638727
0
ARC
8
DEFAULT_255_1_234
10
6.0332131
20
69.0252805
40
0.2912001
50
47.0253525
51
56.0854072
0
ARC
8
DEFAULT_255_1_234
10
6.0351911
20
69.0292223
40
0.2869704
50
10.9208013
51
46.7778124
0
ARC
8
DEFAULT_255_1_234
10
5.8987978
20
68.9976857
40
0.426899
50
359.6364486
51
11.6087304
0
ARC
8
DEFAULT_255_1_234
10
6.0822822
20
68.9961752
40
0.243409
50
332.3549906
51
359.7179418
0
ARC
8
DEFAULT_255_1_234
10
6.0172423
20
69.0270142
40
0.3153459
50
325.2333722
51
332.8745602
0
ARC
8
DEFAULT_255_1_234
10
6.0325047
20
69.0163828
40
0.2967456
50
292.9802137
51
325.2392345
0
ARC
8
DEFAULT_255_1_234
10
6.0050421
20
69.0697863
40
0.3566604
50
292.5402179
51
293.6924929
0
ARC
8
DEFAULT_255_1_234
10
6.0443017
20
68.4243091
40
0.3307468
50
57.6435486
51
72.8625112
0
ARC
8
DEFAULT_255_1_234
10
6.0797517
20
68.4817549
40
0.2632492
50
36.7248896
51
57.4697979
0
ARC
8
DEFAULT_255_1_234
10
6.0786149
20
68.483022
40
0.2634081
50
8.0545065
51
36.356114
0
ARC
8
DEFAULT_255_1_234
10
5.9923335
20
68.4675174
40
0.3510261
50
359.8320645
51
8.5869982
0
ARC
8
DEFAULT_255_1_234
10
5.9548111
20
68.4627101
40
0.3885653
50
343.9829931
51
0.5571613
0
ARC
8
DEFAULT_255_1_234
10
6.0434308
20
68.4384438
40
0.2966924
50
311.6359546
51
343.7651759
0
ARC
8
DEFAULT_255_1_234
10
6.0055877
20
68.4811102
40
0.3537231
50
279.7829875
51
311.6255694
0
ARC
8
DEFAULT_255_1_234
10
5.9754653
20
68.624828
40
0.5004971
50
269.7286406
51
280.3856417
0
ARC
8
DEFAULT_255_1_234
10
5.9692726
20
68.6206996
40
0.4963778
50
256.6828919
51
270.4412052
0
ARC
8
DEFAULT_255_1_234
10
5.9354022
20
68.4822394
40
0.3538406
50
229.4223008
51
256.8556159
0
ARC
8
DEFAULT_255_1_234
10
5.8939415
20
68.4355736
40
0.2914296
50
181.818294
51
229.6455059
0
ARC
8
DEFAULT_255_1_234
10
5.9979371
20
68.4486496
40
0.3959084
50
179.9755256
51
183.2323064
0
ARC
8
DEFAULT_255_1_234
10
5.9807117
20
68.4466037
40
0.2293034
50
179.4465117
51
196.2869258
0
ARC
8
DEFAULT_255_1_234
10
5.9319525
20
68.4332651
40
0.1787621
50
196.5661473
51
227.705904
0
ARC
8
DEFAULT_255_1_234
10
5.9483619
20
68.4516155
40
0.2033784
50
227.7652068
51
257.8762805
0
ARC
8
DEFAULT_255_1_234
10
5.970859
20
68.5459156
40
0.3003081
50
257.4584385
51
270.426602
0
ARC
8
DEFAULT_255_1_234
10
5.9754156
20
68.5748996
40
0.329292
50
269.5962073
51
280.8789248
0
ARC
8
DEFAULT_255_1_234
10
5.9983685
20
68.4602685
40
0.2123908
50
280.6346389
51
299.8595945
0
ARC
8
DEFAULT_255_1_234
10
6.0174591
20
68.4240212
40
0.171457
50
300.3576302
51
314.5517981
0
ARC
8
DEFAULT_255_1_234
10
6.0091651
20
68.4300919
40
0.1816095
50
315.0728369
51
345.0431014
0
ARC
8
DEFAULT_255_1_234
10
5.9168466
20
68.4569841
40
0.2777492
50
344.5986631
51
357.9269593
0
ARC
8
DEFAULT_255_1_234
10
5.8272792
20
68.4631276
40
0.3674917
50
357.4748886
51
0.0231117
0
ARC
8
DEFAULT_255_1_234
10
5.9295901
20
68.4655679
40
0.2651907
50
359.5047933
51
13.4239635
0
ARC
8
DEFAULT_255_1_234
10
6.0162545
20
68.4877478
40
0.1757509
50
12.9498199
51
48.7551375
0
ARC
8
DEFAULT_255_1_234
10
5.9980279
20
68.46284
40
0.2065134
50
49.5088623
51
72.1836453
0
ARC
8
DEFAULT_255_1_234
10
5.9622431
20
68.3566291
40
0.3185836
50
71.9010081
51
84.3554254
0
ARC
8
DEFAULT_255_1_234
10
5.9461063
20
68.2205326
40
0.4556151
50
84.0193428
51
89.333121
0
LINE
8
DEFAULT_255_1_234
10
4.4599154
20
76.0779
11
4.1362364
21
76.0779
0
LINE
8
DEFAULT_255_1_234
10
4.1362364
20
76.0779
11
4.1362364
21
77.2473211
0
LINE
8
DEFAULT_255_1_234
10
4.1362364
20
77.2473211
11
4.4663408
21
77.2473211
0
LINE
8
DEFAULT_255_1_234
10
4.9819784
20
76.7019661
11
4.9819784
21
76.6272709
0
LINE
8
DEFAULT_255_1_234
10
4.4703567
20
77.1204196
11
4.2904458
21
77.1204196
0
LINE
8
DEFAULT_255_1_234
10
4.2904458
20
77.1204196
11
4.2904458
21
76.2039983
0
LINE
8
DEFAULT_255_1_234
10
4.2904458
20
76.2039983
11
4.4526869
21
76.2039983
0
LINE
8
DEFAULT_255_1_234
10
4.8293754
20
76.6304836
11
4.8293754
21
76.6987534
0
ARC
8
DEFAULT_255_1_234
10
4.4702351
20
76.6607894
40
0.5865446
50
75.4101064
51
90.3804066
0
ARC
8
DEFAULT_255_1_234
10
4.4931864
20
76.7564492
40
0.4881916
50
60.145586
51
75.1888407
0
ARC
8
DEFAULT_255_1_234
10
4.509064
20
76.7841199
40
0.4562893
50
26.5253612
51
60.1450928
0
ARC
8
DEFAULT_255_1_234
10
4.3970389
20
76.7247158
40
0.5830602
50
7.4030428
51
26.8320788
0
ARC
8
DEFAULT_255_1_234
10
4.2376146
20
76.6998804
40
0.7443669
50
0.1605367
51
7.7176192
0
ARC
8
DEFAULT_255_1_234
10
4.254005
20
76.6234434
40
0.7279835
50
348.7289388
51
0.3012466
0
ARC
8
DEFAULT_255_1_234
10
4.4196481
20
76.5905386
40
0.559104
50
333.0706509
51
348.7181832
0
ARC
8
DEFAULT_255_1_234
10
4.5163238
20
76.5380319
40
0.4491417
50
299.2531685
51
333.4571258
0
ARC
8
DEFAULT_255_1_234
10
4.4802378
20
76.6065828
40
0.5265881
50
278.107187
51
299.0339503
0
ARC
8
DEFAULT_255_1_234
10
4.4546457
20
76.7573216
40
0.679442
50
270.4443897
51
278.4511052
0
ARC
8
DEFAULT_255_1_234
10
4.4567287
20
76.6644213
40
0.4604407
50
269.4970433
51
284.0205042
0
ARC
8
DEFAULT_255_1_234
10
4.4922588
20
76.5278978
40
0.3193797
50
283.7700273
51
318.1555492
0
ARC
8
DEFAULT_255_1_234
10
4.4585346
20
76.5531367
40
0.3613588
50
318.7415601
51
343.6873628
0
ARC
8
DEFAULT_255_1_234
10
4.2781369
20
76.6094832
40
0.5503313
50
343.3325091
51
355.8548958
0
ARC
8
DEFAULT_255_1_234
10
4.0683054
20
76.6294319
40
0.7610708
50
355.4988528
51
0.0791727
0
ARC
8
DEFAULT_255_1_234
10
4.1465676
20
76.702978
40
0.6828208
50
359.6455037
51
9.8607896
0
ARC
8
DEFAULT_255_1_234
10
4.3826374
20
76.7456099
40
0.4429406
50
9.6571907
51
26.1932807
0
ARC
8
DEFAULT_255_1_234
10
4.4754363
20
76.7887118
40
0.3406537
50
26.5777228
51
40.1532208
0
ARC
8
DEFAULT_255_1_234
10
4.5010089
20
76.8086619
40
0.308246
50
40.3840491
51
80.1431104
0
ARC
8
DEFAULT_255_1_234
10
4.4683207
20
76.6637333
40
0.4566909
50
79.2152159
51
89.7445637
0
LINE
8
DEFAULT_255_1_234
10
5.3803526
20
77.2473211
11
5.3803526
21
76.0779
0
LINE
8
DEFAULT_255_1_234
10
5.3803526
20
76.0779
11
5.2261433
21
76.0779
0
LINE
8
DEFAULT_255_1_234
10
5.2261433
20
76.0779
11
5.2261433
21
77.2473211
0
LINE
8
DEFAULT_255_1_234
10
5.2261433
20
77.2473211
11
5.3803526
21
77.2473211
0
LINE
8
DEFAULT_255_1_234
10
6.3899421
20
76.1991792
11
6.3899421
21
76.0779
0
LINE
8
DEFAULT_255_1_234
10
6.3899421
20
76.0779
11
5.6237143
21
76.0779
0
LINE
8
DEFAULT_255_1_234
10
5.6237143
20
76.0779
11
5.6237143
21
76.1847221
0
LINE
8
DEFAULT_255_1_234
10
5.6237143
20
76.1847221
11
6.0285139
21
76.6344995
0
LINE
8
DEFAULT_255_1_234
10
5.7498126
20
76.9027595
11
5.6012254
21
76.9027595
0
LINE
8
DEFAULT_255_1_234
10
6.1160599
20
76.5389218
11
5.8028221
21
76.1991792
0
LINE
8
DEFAULT_255_1_234
10
5.8028221
20
76.1991792
11
6.3899421
21
76.1991792
0
ARC
8
DEFAULT_255_1_234
10
4.6794972
20
77.8274527
40
1.8008286
50
318.5132453
51
320.7828378
0
ARC
8
DEFAULT_255_1_234
10
5.2081947
20
77.3971426
40
1.1191493
50
320.7372736
51
323.9737074
0
ARC
8
DEFAULT_255_1_234
10
5.6001803
20
77.1131361
40
0.6350923
50
323.8961724
51
328.6421089
0
ARC
8
DEFAULT_255_1_234
10
5.8048399
20
76.9869031
40
0.3946393
50
328.8299013
51
331.789948
0
ARC
8
DEFAULT_255_1_234
10
5.9045577
20
76.9354509
40
0.2824501
50
331.4255242
51
352.9364833
0
ARC
8
DEFAULT_255_1_234
10
5.9182078
20
76.9323976
40
0.2685315
50
353.2248685
51
0.0169286
0
ARC
8
DEFAULT_255_1_234
10
5.9391955
20
76.934695
40
0.2475536
50
359.4866256
51
15.9339782
0
ARC
8
DEFAULT_255_1_234
10
5.989894
20
76.9483286
40
0.1950618
50
16.1714718
51
43.5284424
0
ARC
8
DEFAULT_255_1_234
10
5.9976248
20
76.9560573
40
0.184134
50
43.4415429
51
83.1661404
0
ARC
8
DEFAULT_255_1_234
10
5.9842167
20
76.8823771
40
0.258926
50
82.160215
51
90.1505798
0
ARC
8
DEFAULT_255_1_234
10
5.9810594
20
76.8286865
40
0.3126255
50
89.5460705
51
102.5418777
0
ARC
8
DEFAULT_255_1_234
10
5.956768
20
76.9317665
40
0.2067346
50
102.1739365
51
129.2061916
0
ARC
8
DEFAULT_255_1_234
10
5.9488752
20
76.9442094
40
0.1921118
50
129.7279328
51
135.7542026
0
ARC
8
DEFAULT_255_1_234
10
5.9610279
20
76.9345045
40
0.2075944
50
136.175737
51
166.3674722
0
ARC
8
DEFAULT_255_1_234
10
6.0617199
20
76.9075182
40
0.3118201
50
165.9092917
51
178.8683903
0
ARC
8
DEFAULT_255_1_234
10
6.148206
20
76.9028179
40
0.3983935
50
178.438168
51
180.0083905
0
ARC
8
DEFAULT_255_1_234
10
6.0080662
20
76.9067231
40
0.4068601
50
163.2878735
51
180.5581814
0
ARC
8
DEFAULT_255_1_234
10
5.9278923
20
76.928784
40
0.3237344
50
133.454115
51
162.9470031
0
ARC
8
DEFAULT_255_1_234
10
5.9457465
20
76.9098
40
0.349795
50
100.7869394
51
133.4384016
0
ARC
8
DEFAULT_255_1_234
10
5.9805236
20
76.7549319
40
0.5084616
50
89.6605301
51
101.3704185
0
ARC
8
DEFAULT_255_1_234
10
5.9871575
20
76.7610496
40
0.502348
50
78.2171172
51
90.4130393
0
ARC
8
DEFAULT_255_1_234
10
6.0226653
20
76.9234637
40
0.3361092
50
55.9268222
51
78.4888551
0
ARC
8
DEFAULT_255_1_234
10
6.0423094
20
76.9573324
40
0.2970617
50
47.9292255
51
55.4054003
0
ARC
8
DEFAULT_255_1_234
10
6.0524654
20
76.9676502
40
0.2825983
50
4.3347696
51
48.0560701
0
ARC
8
DEFAULT_255_1_234
10
5.9429048
20
76.9506601
40
0.393225
50
359.925209
51
5.5967654
0
ARC
8
DEFAULT_255_1_234
10
5.985794
20
76.9562816
40
0.3503892
50
337.8914096
51
358.9967724
0
ARC
8
DEFAULT_255_1_234
10
5.7144352
20
77.0609706
40
0.6412172
50
326.9135351
51
338.3505194
0
ARC
8
DEFAULT_255_1_234
10
5.3158656
20
77.3164284
40
1.1146189
50
319.6472867
51
327.095818
0
ARC
8
DEFAULT_255_1_234
10
4.9325659
20
77.6326
40
1.6114559
50
317.2586784
51
319.9046139
0
LINE
8
DEFAULT_255_1_234
10
4.4508154
20
84.0154
11
4.1271364
21
84.0154
0
LINE
8
DEFAULT_255_1_234
10
4.1271364
20
84.0154
11
4.1271364
21
85.1848211
0
LINE
8
DEFAULT_255_1_234
10
4.1271364
20
85.1848211
11
4.4572408
21
85.1848211
0
LINE
8
DEFAULT_255_1_234
10
4.9728784
20
84.6394661
11
4.9728784
21
84.5647709
0
LINE
8
DEFAULT_255_1_234
10
4.4612567
20
85.0579196
11
4.2813458
21
85.0579196
0
LINE
8
DEFAULT_255_1_234
10
4.2813458
20
85.0579196
11
4.2813458
21
84.1414983
0
LINE
8
DEFAULT_255_1_234
10
4.2813458
20
84.1414983
11
4.4435869
21
84.1414983
0
LINE
8
DEFAULT_255_1_234
10
4.8202754
20
84.5679836
11
4.8202754
21
84.6362534
0
ARC
8
DEFAULT_255_1_234
10
4.4611351
20
84.5982894
40
0.5865446
50
75.4101064
51
90.3804066
0
ARC
8
DEFAULT_255_1_234
10
4.4840864
20
84.6939492
40
0.4881916
50
60.145586
51
75.1888407
0
ARC
8
DEFAULT_255_1_234
10
4.499964
20
84.7216199
40
0.4562893
50
26.5253612
51
60.1450928
0
ARC
8
DEFAULT_255_1_234
10
4.3879389
20
84.6622158
40
0.5830602
50
7.4030428
51
26.8320788
0
ARC
8
DEFAULT_255_1_234
10
4.2285146
20
84.6373804
40
0.7443669
50
0.1605367
51
7.7176192
0
ARC
8
DEFAULT_255_1_234
10
4.244905
20
84.5609434
40
0.7279835
50
348.7289388
51
0.3012466
0
ARC
8
DEFAULT_255_1_234
10
4.4105481
20
84.5280386
40
0.559104
50
333.0706509
51
348.7181832
0
ARC
8
DEFAULT_255_1_234
10
4.5072238
20
84.4755319
40
0.4491417
50
299.2531685
51
333.4571258
0
ARC
8
DEFAULT_255_1_234
10
4.4711378
20
84.5440828
40
0.5265881
50
278.107187
51
299.0339503
0
ARC
8
DEFAULT_255_1_234
10
4.4455457
20
84.6948216
40
0.679442
50
270.4443897
51
278.4511052
0
ARC
8
DEFAULT_255_1_234
10
4.4476287
20
84.6019213
40
0.4604407
50
269.4970433
51
284.0205042
0
ARC
8
DEFAULT_255_1_234
10
4.4831588
20
84.4653978
40
0.3193797
50
283.7700273
51
318.1555492
0
ARC
8
DEFAULT_255_1_234
10
4.4494346
20
84.4906367
40
0.3613588
50
318.7415601
51
343.6873628
0
ARC
8
DEFAULT_255_1_234
10
4.2690369
20
84.5469832
40
0.5503313
50
343.3325091
51
355.8548958
0
ARC
8
DEFAULT_255_1_234
10
4.0592054
20
84.5669319
40
0.7610708
50
355.4988528
51
0.0791727
0
ARC
8
DEFAULT_255_1_234
10
4.1374676
20
84.640478
40
0.6828208
50
359.6455037
51
9.8607896
0
ARC
8
DEFAULT_255_1_234
10
4.3735374
20
84.6831099
40
0.4429406
50
9.6571907
51
26.1932807
0
ARC
8
DEFAULT_255_1_234
10
4.4663363
20
84.7262118
40
0.3406537
50
26.5777228
51
40.1532208
0
ARC
8
DEFAULT_255_1_234
10
4.4919089
20
84.7461619
40
0.308246
50
40.3840491
51
80.1431104
0
ARC
8
DEFAULT_255_1_234
10
4.4592207
20
84.6012333
40
0.4566909
50
79.2152159
51
89.7445637
0
LINE
8
DEFAULT_255_1_234
10
5.3712526
20
85.1848211
11
5.3712526
21
84.0154
0
LINE
8
DEFAULT_255_1_234
10
5.3712526
20
84.0154
11
5.2170433
21
84.0154
0
LINE
8
DEFAULT_255_1_234
10
5.2170433
20
84.0154
11
5.2170433
21
85.1848211
0
LINE
8
DEFAULT_255_1_234
10
5.2170433
20
85.1848211
11
5.3712526
21
85.1848211
0
LINE
8
DEFAULT_255_1_234
10
6.102944
20
85.1904433
11
6.102944
21
84.0154
0
LINE
8
DEFAULT_255_1_234
10
6.102944
20
84.0154
11
5.9535537
21
84.0154
0
LINE
8
DEFAULT_255_1_234
10
5.9535537
20
84.0154
11
5.9535537
21
85.0057133
0
LINE
8
DEFAULT_255_1_234
10
5.9535537
20
85.0057133
11
5.6539698
21
84.8956785
0
LINE
8
DEFAULT_255_1_234
10
5.6539698
20
84.8956785
11
5.6539698
21
85.0306117
0
LINE
8
DEFAULT_255_1_234
10
5.6539698
20
85.0306117
11
6.079652
21
85.1904433
0
LINE
8
DEFAULT_255_1_234
10
6.079652
20
85.1904433
11
6.102944
21
85.1904433
0
LINE
8
DEFAULT_255_1_234
10
4.4599154
20
91.9529
11
4.1362364
21
91.9529
0
LINE
8
DEFAULT_255_1_234
10
4.1362364
20
91.9529
11
4.1362364
21
93.1223211
0
LINE
8
DEFAULT_255_1_234
10
4.1362364
20
93.1223211
11
4.4663408
21
93.1223211
0
LINE
8
DEFAULT_255_1_234
10
4.9819784
20
92.5769661
11
4.9819784
21
92.5022709
0
LINE
8
DEFAULT_255_1_234
10
4.4703567
20
92.9954196
11
4.2904458
21
92.9954196
0
LINE
8
DEFAULT_255_1_234
10
4.2904458
20
92.9954196
11
4.2904458
21
92.0789983
0
LINE
8
DEFAULT_255_1_234
10
4.2904458
20
92.0789983
11
4.4526869
21
92.0789983
0
LINE
8
DEFAULT_255_1_234
10
4.8293754
20
92.5054836
11
4.8293754
21
92.5737534
0
ARC
8
DEFAULT_255_1_234
10
4.4702351
20
92.5357894
40
0.5865446
50
75.4101064
51
90.3804066
0
ARC
8
DEFAULT_255_1_234
10
4.4931864
20
92.6314492
40
0.4881916
50
60.145586
51
75.1888407
0
ARC
8
DEFAULT_255_1_234
10
4.509064
20
92.6591199
40
0.4562893
50
26.5253612
51
60.1450928
0
ARC
8
DEFAULT_255_1_234
10
4.3970389
20
92.5997158
40
0.5830602
50
7.4030428
51
26.8320788
0
ARC
8
DEFAULT_255_1_234
10
4.2376146
20
92.5748804
40
0.7443669
50
0.1605367
51
7.7176192
0
ARC
8
DEFAULT_255_1_234
10
4.254005
20
92.4984434
40
0.7279835
50
348.7289388
51
0.3012466
0
ARC
8
DEFAULT_255_1_234
10
4.4196481
20
92.4655386
40
0.559104
50
333.0706509
51
348.7181832
0
ARC
8
DEFAULT_255_1_234
10
4.5163238
20
92.4130319
40
0.4491417
50
299.2531685
51
333.4571258
0
ARC
8
DEFAULT_255_1_234
10
4.4802378
20
92.4815828
40
0.5265881
50
278.107187
51
299.0339503
0
ARC
8
DEFAULT_255_1_234
10
4.4546457
20
92.6323216
40
0.679442
50
270.4443897
51
278.4511052
0
ARC
8
DEFAULT_255_1_234
10
4.4567287
20
92.5394213
40
0.4604407
50
269.4970433
51
284.0205042
0
ARC
8
DEFAULT_255_1_234
10
4.4922588
20
92.4028978
40
0.3193797
50
283.7700273
51
318.1555492
0
ARC
8
DEFAULT_255_1_234
10
4.4585346
20
92.4281367
40
0.3613588
50
318.7415601
51
343.6873628
0
ARC
8
DEFAULT_255_1_234
10
4.2781369
20
92.4844832
40
0.5503313
50
343.3325091
51
355.8548958
0
ARC
8
DEFAULT_255_1_234
10
4.0683054
20
92.5044319
40
0.7610708
50
355.4988528
51
0.0791727
0
ARC
8
DEFAULT_255_1_234
10
4.1465676
20
92.577978
40
0.6828208
50
359.6455037
51
9.8607896
0
ARC
8
DEFAULT_255_1_234
10
4.3826374
20
92.6206099
40
0.4429406
50
9.6571907
51
26.1932807
0
ARC
8
DEFAULT_255_1_234
10
4.4754363
20
92.6637118
40
0.3406537
50
26.5777228
51
40.1532208
0
ARC
8
DEFAULT_255_1_234
10
4.5010089
20
92.6836619
40
0.308246
50
40.3840491
51
80.1431104
0
ARC
8
DEFAULT_255_1_234
10
4.4683207
20
92.5387333
40
0.4566909
50
79.2152159
51
89.7445637
0
LINE
8
DEFAULT_255_1_234
10
5.3803526
20
93.1223211
11
5.3803526
21
91.9529
0
LINE
8
DEFAULT_255_1_234
10
5.3803526
20
91.9529
11
5.2261433
21
91.9529
0
LINE
8
DEFAULT_255_1_234
10
5.2261433
20
91.9529
11
5.2261433
21
93.1223211
0
LINE
8
DEFAULT_255_1_234
10
5.2261433
20
93.1223211
11
5.3803526
21
93.1223211
0
LINE
8
DEFAULT_255_1_234
10
6.357012
20
92.6444327
11
6.357012
21
92.4516709
0
LINE
8
DEFAULT_255_1_234
10
5.6188953
20
92.4315916
11
5.6188953
21
92.6299755
0
LINE
8
DEFAULT_255_1_234
10
6.2084249
20
92.4115123
11
6.2084249
21
92.6548739
0
LINE
8
DEFAULT_255_1_234
10
5.7674824
20
92.6661184
11
5.7674824
21
92.4283789
0
ARC
8
DEFAULT_255_1_234
10
5.132301
20
92.4467805
40
1.2247208
50
353.8441951
51
0.2287902
0
ARC
8
DEFAULT_255_1_234
10
5.5962513
20
92.3949806
40
0.7578929
50
344.4934747
51
353.9765454
0
ARC
8
DEFAULT_255_1_234
10
5.8955104
20
92.3098981
40
0.4467846
50
329.2803592
51
344.7472793
0
ARC
8
DEFAULT_255_1_234
10
5.9947928
20
92.2554018
40
0.3336173
50
324.9352394
51
328.6160465
0
ARC
8
DEFAULT_255_1_234
10
6.0325037
20
92.2290427
40
0.2876076
50
280.580143
51
324.9173126
0
ARC
8
DEFAULT_255_1_234
10
5.992383
20
92.3961099
40
0.4592847
50
269.5977311
51
281.6734359
0
ARC
8
DEFAULT_255_1_234
10
5.9851735
20
92.3841173
40
0.4472986
50
256.6228859
51
270.51044
0
ARC
8
DEFAULT_255_1_234
10
5.9449713
20
92.2292877
40
0.2873874
50
215.8618325
51
257.2788573
0
ARC
8
DEFAULT_255_1_234
10
6.0470745
20
92.2977977
40
0.4102928
50
197.9693508
51
215.2623606
0
ARC
8
DEFAULT_255_1_234
10
6.295586
20
92.3816709
40
0.6725652
50
187.8816417
51
198.2346507
0
ARC
8
DEFAULT_255_1_234
10
6.6914069
20
92.4388079
40
1.0724845
50
180.8976217
51
188.0055519
0
ARC
8
DEFAULT_255_1_234
10
6.9714257
20
92.4491777
40
1.3526448
50
180.7449369
51
181.1510016
0
ARC
8
DEFAULT_255_1_234
10
6.8136986
20
92.6348042
40
1.1948131
50
173.7675579
51
180.231553
0
ARC
8
DEFAULT_255_1_234
10
6.3619132
20
92.6858666
40
0.7401564
50
164.3058563
51
173.9002247
0
ARC
8
DEFAULT_255_1_234
10
6.0707201
20
92.7697656
40
0.4371288
50
148.7922025
51
164.568378
0
ARC
8
DEFAULT_255_1_234
10
5.9755653
20
92.8228929
40
0.3282386
50
144.5883898
51
148.1176286
0
ARC
8
DEFAULT_255_1_234
10
5.9412551
20
92.8468315
40
0.2864044
50
101.6440918
51
144.514236
0
ARC
8
DEFAULT_255_1_234
10
5.9837618
20
92.6779069
40
0.4604934
50
89.5284041
51
102.5819763
0
ARC
8
DEFAULT_255_1_234
10
5.9916706
20
92.6740018
40
0.464401
50
77.0437873
51
90.5081339
0
ARC
8
DEFAULT_255_1_234
10
6.0318708
20
92.8382615
40
0.2953195
50
48.2778575
51
77.4994676
0
ARC
8
DEFAULT_255_1_234
10
6.0391339
20
92.8511746
40
0.2808655
50
36.3142134
51
47.6305865
0
ARC
8
DEFAULT_255_1_234
10
5.9522646
20
92.7926515
40
0.3855453
50
18.2931786
51
35.6769206
0
ARC
8
DEFAULT_255_1_234
10
5.6979405
20
92.7053593
40
0.654423
50
8.024666
51
18.5605216
0
ARC
8
DEFAULT_255_1_234
10
5.2816325
20
92.6438792
40
1.0752407
50
1.1274072
51
8.1718305
0
ARC
8
DEFAULT_255_1_234
10
4.9580515
20
92.6311885
40
1.3990231
50
0.5424119
51
1.3863029
0
ARC
8
DEFAULT_255_1_234
10
5.1401893
20
92.6584342
40
1.0682415
50
359.8090433
51
4.9407866
0
ARC
8
DEFAULT_255_1_234
10
5.5611907
20
92.6960113
40
0.6455691
50
4.8362157
51
12.2904523
0
ARC
8
DEFAULT_255_1_234
10
5.8367022
20
92.7573965
40
0.3633074
50
12.0805627
51
23.8173984
0
ARC
8
DEFAULT_255_1_234
10
5.9540727
20
92.8070919
40
0.2358723
50
24.2871213
51
31.3935614
0
ARC
8
DEFAULT_255_1_234
10
6.0065424
20
92.8414233
40
0.1732111
50
30.7407893
51
82.4657128
0
ARC
8
DEFAULT_255_1_234
10
5.9885559
20
92.7530691
40
0.263235
50
81.1060089
51
90.2184952
0
ARC
8
DEFAULT_255_1_234
10
5.9849858
20
92.7788924
40
0.2374236
50
89.3806855
51
105.6762551
0
ARC
8
DEFAULT_255_1_234
10
5.9666488
20
92.8455567
40
0.1682847
50
105.7981136
51
149.7388061
0
ARC
8
DEFAULT_255_1_234
10
6.0730567
20
92.781595
40
0.2924306
50
149.4208916
51
163.6286378
0
ARC
8
DEFAULT_255_1_234
10
6.2821455
20
92.717825
40
0.5110213
50
163.3763315
51
172.1410975
0
ARC
8
DEFAULT_255_1_234
10
6.6122174
20
92.6705518
40
0.8444586
50
172.0259487
51
178.0703232
0
ARC
8
DEFAULT_255_1_234
10
6.9152263
20
92.6561906
40
1.1477868
50
177.8631668
51
179.5044149
0
ARC
8
DEFAULT_255_1_234
10
6.8079668
20
92.4247389
40
1.0404907
50
179.7995573
51
185.2460446
0
ARC
8
DEFAULT_255_1_234
10
6.4036707
20
92.3864513
40
0.6343885
50
185.1411642
51
193.0079639
0
ARC
8
DEFAULT_255_1_234
10
6.1393179
20
92.3239641
40
0.3627568
50
192.7897626
51
205.2507664
0
ARC
8
DEFAULT_255_1_234
10
6.0346726
20
92.2772415
40
0.2481908
50
205.8005384
51
211.2537509
0
ARC
8
DEFAULT_255_1_234
10
5.9823167
20
92.242158
40
0.1852521
50
210.3789793
51
238.4008143
0
ARC
8
DEFAULT_255_1_234
10
5.9803689
20
92.2468376
40
0.1882621
50
239.6520629
51
265.9793761
0
ARC
8
DEFAULT_255_1_234
10
5.9888889
20
92.3140427
40
0.2559272
50
265.1315437
51
270.060332
0
ARC
8
DEFAULT_255_1_234
10
5.9917668
20
92.2816534
40
0.2235528
50
269.3314664
51
287.2178029
0
ARC
8
DEFAULT_255_1_234
10
6.005552
20
92.2313279
40
0.1714108
50
287.7958004
51
329.080874
0
ARC
8
DEFAULT_255_1_234
10
5.9097977
20
92.291093
40
0.2842745
50
328.6634704
51
343.3325132
0
ARC
8
DEFAULT_255_1_234
10
5.6924997
20
92.3587863
40
0.5118644
50
343.0499468
51
351.9393422
0
ARC
8
DEFAULT_255_1_234
10
5.3458297
20
92.4098949
40
0.8622784
50
351.8069023
51
357.7959224
0
ARC
8
DEFAULT_255_1_234
10
5.0222853
20
92.4266721
40
1.1862365
50
357.5871873
51
359.2677531
0
LINE
8
DEFAULT_255_1_234
10
23.1649817
20
100.5819327
11
23.1649817
21
100.3891709
0
LINE
8
DEFAULT_255_1_234
10
22.426865
20
100.3690916
11
22.426865
21
100.5674755
0
LINE
8
DEFAULT_255_1_234
10
23.0163946
20
100.3490123
11
23.0163946
21
100.5923739
0
LINE
8
DEFAULT_255_1_234
10
22.5754521
20
100.6036184
11
22.5754521
21
100.3658789
0
ARC
8
DEFAULT_255_1_234
10
21.9402707
20
100.3842805
40
1.2247208
50
353.8441951
51
0.2287902
0
ARC
8
DEFAULT_255_1_234
10
22.4042211
20
100.3324806
40
0.7578929
50
344.4934747
51
353.9765454
0
ARC
8
DEFAULT_255_1_234
10
22.7034801
20
100.2473981
40
0.4467846
50
329.2803592
51
344.7472793
0
ARC
8
DEFAULT_255_1_234
10
22.8027626
20
100.1929018
40
0.3336173
50
324.9352394
51
328.6160465
0
ARC
8
DEFAULT_255_1_234
10
22.8404734
20
100.1665427
40
0.2876076
50
280.580143
51
324.9173126
0
ARC
8
DEFAULT_255_1_234
10
22.8003527
20
100.3336099
40
0.4592847
50
269.5977311
51
281.6734359
0
ARC
8
DEFAULT_255_1_234
10
22.7931433
20
100.3216173
40
0.4472986
50
256.6228859
51
270.51044
0
ARC
8
DEFAULT_255_1_234
10
22.752941
20
100.1667877
40
0.2873874
50
215.8618325
51
257.2788573
0
ARC
8
DEFAULT_255_1_234
10
22.8550442
20
100.2352977
40
0.4102928
50
197.9693508
51
215.2623606
0
ARC
8
DEFAULT_255_1_234
10
23.1035558
20
100.3191709
40
0.6725652
50
187.8816417
51
198.2346507
0
ARC
8
DEFAULT_255_1_234
10
23.4993766
20
100.3763079
40
1.0724845
50
180.8976217
51
188.0055519
0
ARC
8
DEFAULT_255_1_234
10
23.7793954
20
100.3866777
40
1.3526448
50
180.7449369
51
181.1510016
0
ARC
8
DEFAULT_255_1_234
10
23.6216683
20
100.5723042
40
1.1948131
50
173.7675579
51
180.231553
0
ARC
8
DEFAULT_255_1_234
10
23.169883
20
100.6233666
40
0.7401564
50
164.3058563
51
173.9002247
0
ARC
8
DEFAULT_255_1_234
10
22.8786899
20
100.7072656
40
0.4371288
50
148.7922025
51
164.568378
0
ARC
8
DEFAULT_255_1_234
10
22.7835351
20
100.7603929
40
0.3282386
50
144.5883898
51
148.1176286
0
ARC
8
DEFAULT_255_1_234
10
22.7492249
20
100.7843315
40
0.2864044
50
101.6440918
51
144.514236
0
ARC
8
DEFAULT_255_1_234
10
22.7917315
20
100.6154069
40
0.4604934
50
89.5284041
51
102.5819763
0
ARC
8
DEFAULT_255_1_234
10
22.7996403
20
100.6115018
40
0.464401
50
77.0437873
51
90.5081339
0
ARC
8
DEFAULT_255_1_234
10
22.8398405
20
100.7757615
40
0.2953195
50
48.2778575
51
77.4994676
0
ARC
8
DEFAULT_255_1_234
10
22.8471036
20
100.7886746
40
0.2808655
50
36.3142134
51
47.6305865
0
ARC
8
DEFAULT_255_1_234
10
22.7602343
20
100.7301515
40
0.3855453
50
18.2931786
51
35.6769206
0
ARC
8
DEFAULT_255_1_234
10
22.5059102
20
100.6428593
40
0.654423
50
8.024666
51
18.5605216
0
ARC
8
DEFAULT_255_1_234
10
22.0896022
20
100.5813792
40
1.0752407
50
1.1274072
51
8.1718305
0
ARC
8
DEFAULT_255_1_234
10
21.7660213
20
100.5686885
40
1.3990231
50
0.5424119
51
1.3863029
0
ARC
8
DEFAULT_255_1_234
10
21.948159
20
100.5959342
40
1.0682415
50
359.8090433
51
4.9407866
0
ARC
8
DEFAULT_255_1_234
10
22.3691604
20
100.6335113
40
0.6455691
50
4.8362157
51
12.2904523
0
ARC
8
DEFAULT_255_1_234
10
22.6446719
20
100.6948965
40
0.3633074
50
12.0805627
51
23.8173984
0
ARC
8
DEFAULT_255_1_234
10
22.7620425
20
100.7445919
40
0.2358723
50
24.2871213
51
31.3935614
0
ARC
8
DEFAULT_255_1_234
10
22.8145122
20
100.7789233
40
0.1732111
50
30.7407893
51
82.4657128
0
ARC
8
DEFAULT_255_1_234
10
22.7965256
20
100.6905691
40
0.263235
50
81.1060089
51
90.2184952
0
ARC
8
DEFAULT_255_1_234
10
22.7929555
20
100.7163924
40
0.2374236
50
89.3806855
51
105.6762551
0
ARC
8
DEFAULT_255_1_234
10
22.7746186
20
100.7830567
40
0.1682847
50
105.7981136
51
149.7388061
0
ARC
8
DEFAULT_255_1_234
10
22.8810264
20
100.719095
40
0.2924306
50
149.4208916
51
163.6286378
0
ARC
8
DEFAULT_255_1_234
10
23.0901152
20
100.655325
40
0.5110213
50
163.3763315
51
172.1410975
0
ARC
8
DEFAULT_255_1_234
10
23.4201871
20
100.6080518
40
0.8444586
50
172.0259487
51
178.0703232
0
ARC
8
DEFAULT_255_1_234
10
23.723196
20
100.5936906
40
1.1477868
50
177.8631668
51
179.5044149
0
ARC
8
DEFAULT_255_1_234
10
23.6159365
20
100.3622389
40
1.0404907
50
179.7995573
51
185.2460446
0
ARC
8
DEFAULT_255_1_234
10
23.2116404
20
100.3239513
40
0.6343885
50
185.1411642
51
193.0079639
0
ARC
8
DEFAULT_255_1_234
10
22.9472877
20
100.2614641
40
0.3627568
50
192.7897626
51
205.2507664
0
ARC
8
DEFAULT_255_1_234
10
22.8426424
20
100.2147415
40
0.2481908
50
205.8005384
51
211.2537509
0
ARC
8
DEFAULT_255_1_234
10
22.7902864
20
100.179658
40
0.1852521
50
210.3789793
51
238.4008143
0
ARC
8
DEFAULT_255_1_234
10
22.7883386
20
100.1843376
40
0.1882621
50
239.6520629
51
265.9793761
0
ARC
8
DEFAULT_255_1_234
10
22.7968586
20
100.2515427
40
0.2559272
50
265.1315437
51
270.060332
0
ARC
8
DEFAULT_255_1_234
10
22.7997365
20
100.2191534
40
0.2235528
50
269.3314664
51
287.2178029
0
ARC
8
DEFAULT_255_1_234
10
22.8135217
20
100.1688279
40
0.1714108
50
287.7958004
51
329.080874
0
ARC
8
DEFAULT_255_1_234
10
22.7177674
20
100.228593
40
0.2842745
50
328.6634704
51
343.3325132
0
ARC
8
DEFAULT_255_1_234
10
22.5004694
20
100.2962863
40
0.5118644
50
343.0499468
51
351.9393422
0
ARC
8
DEFAULT_255_1_234
10
22.1537994
20
100.3473949
40
0.8622784
50
351.8069023
51
357.7959224
0
ARC
8
DEFAULT_255_1_234
10
21.830255
20
100.3641721
40
1.1862365
50
357.5871873
51
359.2677531
0
LINE
8
DEFAULT_255_1_234
10
23.4485021
20
101.0598211
11
23.7810161
21
100.0952093
0
LINE
8
DEFAULT_255_1_234
10
23.7810161
20
100.0952093
11
24.1151364
21
101.0598211
0
LINE
8
DEFAULT_255_1_234
10
24.1151364
20
101.0598211
11
24.2838029
21
101.0598211
0
LINE
8
DEFAULT_255_1_234
10
24.2838029
20
101.0598211
11
23.850089
21
99.8904
0
LINE
8
DEFAULT_255_1_234
10
23.850089
20
99.8904
11
23.7135495
21
99.8904
0
LINE
8
DEFAULT_255_1_234
10
23.7135495
20
99.8904
11
23.2806388
21
101.0598211
0
LINE
8
DEFAULT_255_1_234
10
23.2806388
20
101.0598211
11
23.4485021
21
101.0598211
0
LINE
8
DEFAULT_255_1_234
10
21.9481293
20
20.5154
11
21.8364881
21
20.8206061
0
LINE
8
DEFAULT_255_1_234
10
21.8364881
20
20.8206061
11
21.3465521
21
20.8206061
0
LINE
8
DEFAULT_255_1_234
10
21.3465521
20
20.8206061
11
21.2365173
21
20.5154
0
LINE
8
DEFAULT_255_1_234
10
21.2365173
20
20.5154
11
21.0774889
21
20.5154
0
LINE
8
DEFAULT_255_1_234
10
21.0774889
20
20.5154
11
21.5240535
21
21.6848211
0
LINE
8
DEFAULT_255_1_234
10
21.5240535
20
21.6848211
11
21.6589867
21
21.6848211
0
LINE
8
DEFAULT_255_1_234
10
21.6589867
20
21.6848211
11
22.1063545
21
20.5154
0
LINE
8
DEFAULT_255_1_234
10
22.1063545
20
20.5154
11
21.9481293
21
20.5154
0
LINE
8
DEFAULT_255_1_234
10
21.5915201
20
21.4944689
11
21.3931362
21
20.9475075
0
LINE
8
DEFAULT_255_1_234
10
21.3931362
20
20.9475075
11
21.7907072
21
20.9475075
0
LINE
8
DEFAULT_255_1_234
10
21.7907072
20
20.9475075
11
21.5915201
21
21.4944689
0
LINE
8
DEFAULT_255_1_234
10
23.1544964
20
21.1362534
11
23.1544964
21
21.0623614
0
LINE
8
DEFAULT_255_1_234
10
22.2139798
20
21.0519201
11
22.2139798
21
21.1362534
0
LINE
8
DEFAULT_255_1_234
10
23.0010902
20
21.0511169
11
23.0010902
21
21.1378597
0
LINE
8
DEFAULT_255_1_234
10
22.367386
20
21.148301
11
22.367386
21
21.0623614
0
ARC
8
DEFAULT_255_1_234
10
22.290299
20
21.0584015
40
0.8642064
50
350.487711
51
0.2625388
0
ARC
8
DEFAULT_255_1_234
10
22.5196232
20
21.0189578
40
0.631518
50
336.0277639
51
350.5787438
0
ARC
8
DEFAULT_255_1_234
10
22.6541055
20
20.9581892
40
0.4839466
50
319.8877444
51
336.1328423
0
ARC
8
DEFAULT_255_1_234
10
22.7143696
20
20.909958
40
0.4067874
50
302.4806467
51
319.6143626
0
ARC
8
DEFAULT_255_1_234
10
22.7028706
20
20.9321202
40
0.4316636
50
275.8195682
51
302.1884709
0
ARC
8
DEFAULT_255_1_234
10
22.6862339
20
21.0463665
40
0.5470306
50
269.9171439
51
276.3397983
0
ARC
8
DEFAULT_255_1_234
10
22.6817549
20
20.9777681
40
0.4784458
50
252.5219675
51
270.4416499
0
ARC
8
DEFAULT_255_1_234
10
22.6673808
20
20.9238592
40
0.422716
50
237.5352116
51
252.1857531
0
ARC
8
DEFAULT_255_1_234
10
22.6763004
20
20.9352363
40
0.4371052
50
209.063312
51
237.3492538
0
ARC
8
DEFAULT_255_1_234
10
22.7632852
20
20.9898685
40
0.5397041
50
205.1183774
51
209.6470015
0
ARC
8
DEFAULT_255_1_234
10
22.8429889
20
21.023683
40
0.6262326
50
188.7215458
51
204.8240747
0
ARC
8
DEFAULT_255_1_234
10
23.0427417
20
21.0573067
40
0.8287794
50
180.3723947
51
188.9252049
0
ARC
8
DEFAULT_255_1_234
10
23.0400169
20
21.1402402
40
0.8260467
50
169.5253763
51
180.2765336
0
ARC
8
DEFAULT_255_1_234
10
22.8497618
20
21.1752309
40
0.6326007
50
155.8315255
51
169.5089989
0
ARC
8
DEFAULT_255_1_234
10
22.7217119
20
21.2346348
40
0.4914567
50
139.6258461
51
156.0379525
0
ARC
8
DEFAULT_255_1_234
10
22.6627452
20
21.2820799
40
0.4158054
50
122.6416387
51
139.3430715
0
ARC
8
DEFAULT_255_1_234
10
22.6728072
20
21.2637451
40
0.4366739
50
93.0223692
51
122.455762
0
ARC
8
DEFAULT_255_1_234
10
22.6836069
20
21.1672709
40
0.5336137
50
89.975342
51
93.6341897
0
ARC
8
DEFAULT_255_1_234
10
22.6874848
20
21.2071242
40
0.4937738
50
73.746375
51
90.4233405
0
ARC
8
DEFAULT_255_1_234
10
22.7050427
20
21.2751287
40
0.4235786
50
57.662753
51
73.4518111
0
ARC
8
DEFAULT_255_1_234
10
22.7042433
20
21.2772832
40
0.4221899
50
29.1440151
51
57.414694
0
ARC
8
DEFAULT_255_1_234
10
22.6107628
20
21.2189005
40
0.5322966
50
24.0982783
51
29.7323517
0
ARC
8
DEFAULT_255_1_234
10
22.5073903
20
21.1760399
40
0.6441673
50
8.6655297
51
23.8241346
0
ARC
8
DEFAULT_255_1_234
10
22.2839641
20
21.1395854
40
0.8705386
50
359.7806941
51
8.8218784
0
ARC
8
DEFAULT_255_1_234
10
22.1692639
20
21.1421345
40
0.8318373
50
359.7055579
51
8.036044
0
ARC
8
DEFAULT_255_1_234
10
22.4692645
20
21.1858239
40
0.5286768
50
7.8928306
51
20.2962107
0
ARC
8
DEFAULT_255_1_234
10
22.6320216
20
21.2458395
40
0.3552073
50
20.3231126
51
36.4992797
0
ARC
8
DEFAULT_255_1_234
10
22.7005762
20
21.2986402
40
0.2686974
50
36.1437156
51
85.6627023
0
ARC
8
DEFAULT_255_1_234
10
22.6843308
20
21.1946221
40
0.373739
50
84.3852322
51
90.0757696
0
ARC
8
DEFAULT_255_1_234
10
22.680098
20
21.2606839
40
0.3076997
50
89.3038458
51
109.9045693
0
ARC
8
DEFAULT_255_1_234
10
22.6708371
20
21.2989062
40
0.2686424
50
110.8228367
51
143.9179474
0
ARC
8
DEFAULT_255_1_234
10
22.7642031
20
21.2276236
40
0.3860887
50
143.5289163
51
163.2980757
0
ARC
8
DEFAULT_255_1_234
10
22.9549852
20
21.1676433
40
0.5860659
50
163.0418846
51
174.3140048
0
ARC
8
DEFAULT_255_1_234
10
23.1953964
20
21.1398854
40
0.8280531
50
174.0509143
51
179.4176892
0
ARC
8
DEFAULT_255_1_234
10
23.1449703
20
21.0581954
40
0.7775954
50
179.6930361
51
188.7906598
0
ARC
8
DEFAULT_255_1_234
10
22.8786182
20
21.0155935
40
0.5078633
50
188.6331305
51
202.5629587
0
ARC
8
DEFAULT_255_1_234
10
22.7531774
20
20.9651996
40
0.3726913
50
202.8081362
51
216.1193925
0
ARC
8
DEFAULT_255_1_234
10
22.6722344
20
20.9000676
40
0.2689577
50
215.0755913
51
264.6379694
0
ARC
8
DEFAULT_255_1_234
10
22.6849294
20
20.9831513
40
0.3528978
50
263.846392
51
270.0833719
0
ARC
8
DEFAULT_255_1_234
10
22.6890684
20
20.9573374
40
0.3271036
50
269.3649385
51
287.5152008
0
ARC
8
DEFAULT_255_1_234
10
22.7068842
20
20.8926238
40
0.2600406
50
288.0630309
51
323.8113348
0
ARC
8
DEFAULT_255_1_234
10
22.6197684
20
20.9576049
40
0.3687189
50
323.6547608
51
342.6590488
0
ARC
8
DEFAULT_255_1_234
10
22.4166299
20
21.0236952
40
0.5823286
50
342.4091907
51
353.6451149
0
ARC
8
DEFAULT_255_1_234
10
22.1334809
20
21.058919
40
0.8676442
50
353.4029884
51
359.4847795
0
LINE
8
DEFAULT_255_1_234
10
23.8355878
20
21.6904433
11
23.8355878
21
20.5154
0
LINE
8
DEFAULT_255_1_234
10
23.8355878
20
20.5154
11
23.6861975
21
20.5154
0
LINE
8
DEFAULT_255_1_234
10
23.6861975
20
20.5154
11
23.6861975
21
21.5057133
0
LINE
8
DEFAULT_255_1_234
10
23.6861975
20
21.5057133
11
23.3866136
21
21.3956785
0
LINE
8
DEFAULT_255_1_234
10
23.3866136
20
21.3956785
11
23.3866136
21
21.5306117
0
LINE
8
DEFAULT_255_1_234
10
23.3866136
20
21.5306117
11
23.8122958
21
21.6904433
0
LINE
8
DEFAULT_255_1_234
10
23.8122958
20
21.6904433
11
23.8355878
21
21.6904433
0
LINE
8
DEFAULT_255_1_234
10
21.9393293
20
28.4529
11
21.8276881
21
28.7581061
0
LINE
8
DEFAULT_255_1_234
10
21.8276881
20
28.7581061
11
21.3377521
21
28.7581061
0
LINE
8
DEFAULT_255_1_234
10
21.3377521
20
28.7581061
11
21.2277173
21
28.4529
0
LINE
8
DEFAULT_255_1_234
10
21.2277173
20
28.4529
11
21.0686889
21
28.4529
0
LINE
8
DEFAULT_255_1_234
10
21.0686889
20
28.4529
11
21.5152535
21
29.6223211
0
LINE
8
DEFAULT_255_1_234
10
21.5152535
20
29.6223211
11
21.6501867
21
29.6223211
0
LINE
8
DEFAULT_255_1_234
10
21.6501867
20
29.6223211
11
22.0975545
21
28.4529
0
LINE
8
DEFAULT_255_1_234
10
22.0975545
20
28.4529
11
21.9393293
21
28.4529
0
LINE
8
DEFAULT_255_1_234
10
21.5827201
20
29.4319689
11
21.3843362
21
28.8850075
0
LINE
8
DEFAULT_255_1_234
10
21.3843362
20
28.8850075
11
21.7819072
21
28.8850075
0
LINE
8
DEFAULT_255_1_234
10
21.7819072
20
28.8850075
11
21.5827201
21
29.4319689
0
LINE
8
DEFAULT_255_1_234
10
23.1456964
20
29.0737534
11
23.1456964
21
28.9998614
0
LINE
8
DEFAULT_255_1_234
10
22.2051798
20
28.9894201
11
22.2051798
21
29.0737534
0
LINE
8
DEFAULT_255_1_234
10
22.9922902
20
28.9886169
11
22.9922902
21
29.0753597
0
LINE
8
DEFAULT_255_1_234
10
22.358586
20
29.085801
11
22.358586
21
28.9998614
0
ARC
8
DEFAULT_255_1_234
10
22.281499
20
28.9959015
40
0.8642064
50
350.487711
51
0.2625388
0
ARC
8
DEFAULT_255_1_234
10
22.5108232
20
28.9564578
40
0.631518
50
336.0277639
51
350.5787438
0
ARC
8
DEFAULT_255_1_234
10
22.6453055
20
28.8956892
40
0.4839466
50
319.8877444
51
336.1328423
0
ARC
8
DEFAULT_255_1_234
10
22.7055696
20
28.847458
40
0.4067874
50
302.4806467
51
319.6143626
0
ARC
8
DEFAULT_255_1_234
10
22.6940706
20
28.8696202
40
0.4316636
50
275.8195682
51
302.1884709
0
ARC
8
DEFAULT_255_1_234
10
22.6774339
20
28.9838665
40
0.5470306
50
269.9171439
51
276.3397983
0
ARC
8
DEFAULT_255_1_234
10
22.6729549
20
28.9152681
40
0.4784458
50
252.5219675
51
270.4416499
0
ARC
8
DEFAULT_255_1_234
10
22.6585808
20
28.8613592
40
0.422716
50
237.5352116
51
252.1857531
0
ARC
8
DEFAULT_255_1_234
10
22.6675004
20
28.8727363
40
0.4371052
50
209.063312
51
237.3492538
0
ARC
8
DEFAULT_255_1_234
10
22.7544852
20
28.9273685
40
0.5397041
50
205.1183774
51
209.6470015
0
ARC
8
DEFAULT_255_1_234
10
22.8341889
20
28.961183
40
0.6262326
50
188.7215458
51
204.8240747
0
ARC
8
DEFAULT_255_1_234
10
23.0339417
20
28.9948067
40
0.8287794
50
180.3723947
51
188.9252049
0
ARC
8
DEFAULT_255_1_234
10
23.0312169
20
29.0777402
40
0.8260467
50
169.5253763
51
180.2765336
0
ARC
8
DEFAULT_255_1_234
10
22.8409618
20
29.1127309
40
0.6326007
50
155.8315255
51
169.5089989
0
ARC
8
DEFAULT_255_1_234
10
22.7129119
20
29.1721348
40
0.4914567
50
139.6258461
51
156.0379525
0
ARC
8
DEFAULT_255_1_234
10
22.6539452
20
29.2195799
40
0.4158054
50
122.6416387
51
139.3430715
0
ARC
8
DEFAULT_255_1_234
10
22.6640072
20
29.2012451
40
0.4366739
50
93.0223692
51
122.455762
0
ARC
8
DEFAULT_255_1_234
10
22.6748069
20
29.1047709
40
0.5336137
50
89.975342
51
93.6341897
0
ARC
8
DEFAULT_255_1_234
10
22.6786848
20
29.1446242
40
0.4937738
50
73.746375
51
90.4233405
0
ARC
8
DEFAULT_255_1_234
10
22.6962427
20
29.2126287
40
0.4235786
50
57.662753
51
73.4518111
0
ARC
8
DEFAULT_255_1_234
10
22.6954433
20
29.2147832
40
0.4221899
50
29.1440151
51
57.414694
0
ARC
8
DEFAULT_255_1_234
10
22.6019628
20
29.1564005
40
0.5322966
50
24.0982783
51
29.7323517
0
ARC
8
DEFAULT_255_1_234
10
22.4985903
20
29.1135399
40
0.6441673
50
8.6655297
51
23.8241346
0
ARC
8
DEFAULT_255_1_234
10
22.2751641
20
29.0770854
40
0.8705386
50
359.7806941
51
8.8218784
0
ARC
8
DEFAULT_255_1_234
10
22.1604639
20
29.0796345
40
0.8318373
50
359.7055579
51
8.036044
0
ARC
8
DEFAULT_255_1_234
10
22.4604645
20
29.1233239
40
0.5286768
50
7.8928306
51
20.2962107
0
ARC
8
DEFAULT_255_1_234
10
22.6232216
20
29.1833395
40
0.3552073
50
20.3231126
51
36.4992797
0
ARC
8
DEFAULT_255_1_234
10
22.6917762
20
29.2361402
40
0.2686974
50
36.1437156
51
85.6627023
0
ARC
8
DEFAULT_255_1_234
10
22.6755308
20
29.1321221
40
0.373739
50
84.3852322
51
90.0757696
0
ARC
8
DEFAULT_255_1_234
10
22.671298
20
29.1981839
40
0.3076997
50
89.3038458
51
109.9045693
0
ARC
8
DEFAULT_255_1_234
10
22.6620371
20
29.2364062
40
0.2686424
50
110.8228367
51
143.9179474
0
ARC
8
DEFAULT_255_1_234
10
22.7554031
20
29.1651236
40
0.3860887
50
143.5289163
51
163.2980757
0
ARC
8
DEFAULT_255_1_234
10
22.9461852
20
29.1051433
40
0.5860659
50
163.0418846
51
174.3140048
0
ARC
8
DEFAULT_255_1_234
10
23.1865964
20
29.0773854
40
0.8280531
50
174.0509143
51
179.4176892
0
ARC
8
DEFAULT_255_1_234
10
23.1361703
20
28.9956954
40
0.7775954
50
179.6930361
51
188.7906598
0
ARC
8
DEFAULT_255_1_234
10
22.8698182
20
28.9530935
40
0.5078633
50
188.6331305
51
202.5629587
0
ARC
8
DEFAULT_255_1_234
10
22.7443774
20
28.9026996
40
0.3726913
50
202.8081362
51
216.1193925
0
ARC
8
DEFAULT_255_1_234
10
22.6634344
20
28.8375676
40
0.2689577
50
215.0755913
51
264.6379694
0
ARC
8
DEFAULT_255_1_234
10
22.6761294
20
28.9206513
40
0.3528978
50
263.846392
51
270.0833719
0
ARC
8
DEFAULT_255_1_234
10
22.6802684
20
28.8948374
40
0.3271036
50
269.3649385
51
287.5152008
0
ARC
8
DEFAULT_255_1_234
10
22.6980842
20
28.8301238
40
0.2600406
50
288.0630309
51
323.8113348
0
ARC
8
DEFAULT_255_1_234
10
22.6109684
20
28.8951049
40
0.3687189
50
323.6547608
51
342.6590488
0
ARC
8
DEFAULT_255_1_234
10
22.4078299
20
28.9611952
40
0.5823286
50
342.4091907
51
353.6451149
0
ARC
8
DEFAULT_255_1_234
10
22.1246809
20
28.996419
40
0.8676442
50
353.4029884
51
359.4847795
0
LINE
8
DEFAULT_255_1_234
10
24.0717558
20
29.1444327
11
24.0717558
21
28.9516709
0
LINE
8
DEFAULT_255_1_234
10
23.3336391
20
28.9315916
11
23.3336391
21
29.1299755
0
LINE
8
DEFAULT_255_1_234
10
23.9231687
20
28.9115123
11
23.9231687
21
29.1548739
0
LINE
8
DEFAULT_255_1_234
10
23.4822262
20
29.1661184
11
23.4822262
21
28.9283789
0
ARC
8
DEFAULT_255_1_234
10
22.8470448
20
28.9467805
40
1.2247208
50
353.8441951
51
0.2287902
0
ARC
8
DEFAULT_255_1_234
10
23.3109951
20
28.8949806
40
0.7578929
50
344.4934747
51
353.9765454
0
ARC
8
DEFAULT_255_1_234
10
23.6102542
20
28.8098981
40
0.4467846
50
329.2803592
51
344.7472793
0
ARC
8
DEFAULT_255_1_234
10
23.7095366
20
28.7554018
40
0.3336173
50
324.9352394
51
328.6160465
0
ARC
8
DEFAULT_255_1_234
10
23.7472475
20
28.7290427
40
0.2876076
50
280.580143
51
324.9173126
0
ARC
8
DEFAULT_255_1_234
10
23.7071268
20
28.8961099
40
0.4592847
50
269.5977311
51
281.6734359
0
ARC
8
DEFAULT_255_1_234
10
23.6999173
20
28.8841173
40
0.4472986
50
256.6228859
51
270.51044
0
ARC
8
DEFAULT_255_1_234
10
23.6597151
20
28.7292877
40
0.2873874
50
215.8618325
51
257.2788573
0
ARC
8
DEFAULT_255_1_234
10
23.7618183
20
28.7977977
40
0.4102928
50
197.9693508
51
215.2623606
0
ARC
8
DEFAULT_255_1_234
10
24.0103298
20
28.8816709
40
0.6725652
50
187.8816417
51
198.2346507
0
ARC
8
DEFAULT_255_1_234
10
24.4061507
20
28.9388079
40
1.0724845
50
180.8976217
51
188.0055519
0
ARC
8
DEFAULT_255_1_234
10
24.6861695
20
28.9491777
40
1.3526448
50
180.7449369
51
181.1510016
0
ARC
8
DEFAULT_255_1_234
10
24.5284424
20
29.1348042
40
1.1948131
50
173.7675579
51
180.231553
0
ARC
8
DEFAULT_255_1_234
10
24.076657
20
29.1858666
40
0.7401564
50
164.3058563
51
173.9002247
0
ARC
8
DEFAULT_255_1_234
10
23.7854639
20
29.2697656
40
0.4371288
50
148.7922025
51
164.568378
0
ARC
8
DEFAULT_255_1_234
10
23.6903091
20
29.3228929
40
0.3282386
50
144.5883898
51
148.1176286
0
ARC
8
DEFAULT_255_1_234
10
23.6559989
20
29.3468315
40
0.2864044
50
101.6440918
51
144.514236
0
ARC
8
DEFAULT_255_1_234
10
23.6985056
20
29.1779069
40
0.4604934
50
89.5284041
51
102.5819763
0
ARC
8
DEFAULT_255_1_234
10
23.7064144
20
29.1740018
40
0.464401
50
77.0437873
51
90.5081339
0
ARC
8
DEFAULT_255_1_234
10
23.7466146
20
29.3382615
40
0.2953195
50
48.2778575
51
77.4994676
0
ARC
8
DEFAULT_255_1_234
10
23.7538777
20
29.3511746
40
0.2808655
50
36.3142134
51
47.6305865
0
ARC
8
DEFAULT_255_1_234
10
23.6670084
20
29.2926515
40
0.3855453
50
18.2931786
51
35.6769206
0
ARC
8
DEFAULT_255_1_234
10
23.4126843
20
29.2053593
40
0.654423
50
8.024666
51
18.5605216
0
ARC
8
DEFAULT_255_1_234
10
22.9963763
20
29.1438792
40
1.0752407
50
1.1274072
51
8.1718305
0
ARC
8
DEFAULT_255_1_234
10
22.6727953
20
29.1311885
40
1.3990231
50
0.5424119
51
1.3863029
0
ARC
8
DEFAULT_255_1_234
10
22.8549331
20
29.1584342
40
1.0682415
50
359.8090433
51
4.9407866
0
ARC
8
DEFAULT_255_1_234
10
23.2759345
20
29.1960113
40
0.6455691
50
4.8362157
51
12.2904523
0
ARC
8
DEFAULT_255_1_234
10
23.551446
20
29.2573965
40
0.3633074
50
12.0805627
51
23.8173984
0
ARC
8
DEFAULT_255_1_234
10
23.6688165
20
29.3070919
40
0.2358723
50
24.2871213
51
31.3935614
0
ARC
8
DEFAULT_255_1_234
10
23.7212862
20
29.3414233
40
0.1732111
50
30.7407893
51
82.4657128
0
ARC
8
DEFAULT_255_1_234
10
23.7032997
20
29.2530691
40
0.263235
50
81.1060089
51
90.2184952
0
ARC
8
DEFAULT_255_1_234
10
23.6997296
20
29.2788924
40
0.2374236
50
89.3806855
51
105.6762551
0
ARC
8
DEFAULT_255_1_234
10
23.6813926
20
29.3455567
40
0.1682847
50
105.7981136
51
149.7388061
0
ARC
8
DEFAULT_255_1_234
10
23.7878005
20
29.281595
40
0.2924306
50
149.4208916
51
163.6286378
0
ARC
8
DEFAULT_255_1_234
10
23.9968893
20
29.217825
40
0.5110213
50
163.3763315
51
172.1410975
0
ARC
8
DEFAULT_255_1_234
10
24.3269612
20
29.1705518
40
0.8444586
50
172.0259487
51
178.0703232
0
ARC
8
DEFAULT_255_1_234
10
24.6299701
20
29.1561906
40
1.1477868
50
177.8631668
51
179.5044149
0
ARC
8
DEFAULT_255_1_234
10
24.5227106
20
28.9247389
40
1.0404907
50
179.7995573
51
185.2460446
0
ARC
8
DEFAULT_255_1_234
10
24.1184145
20
28.8864513
40
0.6343885
50
185.1411642
51
193.0079639
0
ARC
8
DEFAULT_255_1_234
10
23.8540617
20
28.8239641
40
0.3627568
50
192.7897626
51
205.2507664
0
ARC
8
DEFAULT_255_1_234
10
23.7494164
20
28.7772415
40
0.2481908
50
205.8005384
51
211.2537509
0
ARC
8
DEFAULT_255_1_234
10
23.6970605
20
28.742158
40
0.1852521
50
210.3789793
51
238.4008143
0
ARC
8
DEFAULT_255_1_234
10
23.6951127
20
28.7468376
40
0.1882621
50
239.6520629
51
265.9793761
0
ARC
8
DEFAULT_255_1_234
10
23.7036327
20
28.8140427
40
0.2559272
50
265.1315437
51
270.060332
0
ARC
8
DEFAULT_255_1_234
10
23.7065106
20
28.7816534
40
0.2235528
50
269.3314664
51
287.2178029
0
ARC
8
DEFAULT_255_1_234
10
23.7202958
20
28.7313279
40
0.1714108
50
287.7958004
51
329.080874
0
ARC
8
DEFAULT_255_1_234
10
23.6245415
20
28.791093
40
0.2842745
50
328.6634704
51
343.3325132
0
ARC
8
DEFAULT_255_1_234
10
23.4072435
20
28.8587863
40
0.5118644
50
343.0499468
51
351.9393422
0
ARC
8
DEFAULT_255_1_234
10
23.0605735
20
28.9098949
40
0.8622784
50
351.8069023
51
357.7959224
0
ARC
8
DEFAULT_255_1_234
10
22.7370291
20
28.9266721
40
1.1862365
50
357.5871873
51
359.2677531
0
LINE
8
DEFAULT_255_1_234
10
21.5950154
20
36.3904
11
21.2713364
21
36.3904
0
LINE
8
DEFAULT_255_1_234
10
21.2713364
20
36.3904
11
21.2713364
21
37.5598211
0
LINE
8
DEFAULT_255_1_234
10
21.2713364
20
37.5598211
11
21.6014408
21
37.5598211
0
LINE
8
DEFAULT_255_1_234
10
22.1170784
20
37.0144661
11
22.1170784
21
36.9397709
0
LINE
8
DEFAULT_255_1_234
10
21.6054567
20
37.4329196
11
21.4255458
21
37.4329196
0
LINE
8
DEFAULT_255_1_234
10
21.4255458
20
37.4329196
11
21.4255458
21
36.5164983
0
LINE
8
DEFAULT_255_1_234
10
21.4255458
20
36.5164983
11
21.5877869
21
36.5164983
0
LINE
8
DEFAULT_255_1_234
10
21.9644754
20
36.9429836
11
21.9644754
21
37.0112534
0
ARC
8
DEFAULT_255_1_234
10
21.6053351
20
36.9732894
40
0.5865446
50
75.4101064
51
90.3804066
0
ARC
8
DEFAULT_255_1_234
10
21.6282864
20
37.0689492
40
0.4881916
50
60.145586
51
75.1888407
0
ARC
8
DEFAULT_255_1_234
10
21.644164
20
37.0966199
40
0.4562893
50
26.5253612
51
60.1450928
0
ARC
8
DEFAULT_255_1_234
10
21.5321389
20
37.0372158
40
0.5830602
50
7.4030428
51
26.8320788
0
ARC
8
DEFAULT_255_1_234
10
21.3727146
20
37.0123804
40
0.7443669
50
0.1605367
51
7.7176192
0
ARC
8
DEFAULT_255_1_234
10
21.389105
20
36.9359434
40
0.7279835
50
348.7289388
51
0.3012466
0
ARC
8
DEFAULT_255_1_234
10
21.5547481
20
36.9030386
40
0.559104
50
333.0706509
51
348.7181832
0
ARC
8
DEFAULT_255_1_234
10
21.6514238
20
36.8505319
40
0.4491417
50
299.2531685
51
333.4571258
0
ARC
8
DEFAULT_255_1_234
10
21.6153378
20
36.9190828
40
0.5265881
50
278.107187
51
299.0339503
0
ARC
8
DEFAULT_255_1_234
10
21.5897457
20
37.0698216
40
0.679442
50
270.4443897
51
278.4511052
0
ARC
8
DEFAULT_255_1_234
10
21.5918287
20
36.9769213
40
0.4604407
50
269.4970433
51
284.0205042
0
ARC
8
DEFAULT_255_1_234
10
21.6273588
20
36.8403978
40
0.3193797
50
283.7700273
51
318.1555492
0
ARC
8
DEFAULT_255_1_234
10
21.5936346
20
36.8656367
40
0.3613588
50
318.7415601
51
343.6873628
0
ARC
8
DEFAULT_255_1_234
10
21.4132369
20
36.9219832
40
0.5503313
50
343.3325091
51
355.8548958
0
ARC
8
DEFAULT_255_1_234
10
21.2034054
20
36.9419319
40
0.7610708
50
355.4988528
51
0.0791727
0
ARC
8
DEFAULT_255_1_234
10
21.2816676
20
37.015478
40
0.6828208
50
359.6455037
51
9.8607896
0
ARC
8
DEFAULT_255_1_234
10
21.5177374
20
37.0581099
40
0.4429406
50
9.6571907
51
26.1932807
0
ARC
8
DEFAULT_255_1_234
10
21.6105363
20
37.1012118
40
0.3406537
50
26.5777228
51
40.1532208
0
ARC
8
DEFAULT_255_1_234
10
21.6361089
20
37.1211619
40
0.308246
50
40.3840491
51
80.1431104
0
ARC
8
DEFAULT_255_1_234
10
21.6034207
20
36.9762333
40
0.4566909
50
79.2152159
51
89.7445637
0
LINE
8
DEFAULT_255_1_234
10
23.2495535
20
37.0112534
11
23.2495535
21
36.9373614
0
LINE
8
DEFAULT_255_1_234
10
22.309037
20
36.9269201
11
22.309037
21
37.0112534
0
LINE
8
DEFAULT_255_1_234
10
23.0961473
20
36.9261169
11
23.0961473
21
37.0128597
0
LINE
8
DEFAULT_255_1_234
10
22.4624432
20
37.023301
11
22.4624432
21
36.9373614
0
ARC
8
DEFAULT_255_1_234
10
22.3853562
20
36.9334015
40
0.8642064
50
350.487711
51
0.2625388
0
ARC
8
DEFAULT_255_1_234
10
22.6146803
20
36.8939578
40
0.631518
50
336.0277639
51
350.5787438
0
ARC
8
DEFAULT_255_1_234
10
22.7491626
20
36.8331892
40
0.4839466
50
319.8877444
51
336.1328423
0
ARC
8
DEFAULT_255_1_234
10
22.8094267
20
36.784958
40
0.4067874
50
302.4806467
51
319.6143626
0
ARC
8
DEFAULT_255_1_234
10
22.7979278
20
36.8071202
40
0.4316636
50
275.8195682
51
302.1884709
0
ARC
8
DEFAULT_255_1_234
10
22.7812911
20
36.9213665
40
0.5470306
50
269.9171439
51
276.3397983
0
ARC
8
DEFAULT_255_1_234
10
22.7768121
20
36.8527681
40
0.4784458
50
252.5219675
51
270.4416499
0
ARC
8
DEFAULT_255_1_234
10
22.762438
20
36.7988592
40
0.422716
50
237.5352116
51
252.1857531
0
ARC
8
DEFAULT_255_1_234
10
22.7713575
20
36.8102363
40
0.4371052
50
209.063312
51
237.3492538
0
ARC
8
DEFAULT_255_1_234
10
22.8583423
20
36.8648685
40
0.5397041
50
205.1183774
51
209.6470015
0
ARC
8
DEFAULT_255_1_234
10
22.938046
20
36.898683
40
0.6262326
50
188.7215458
51
204.8240747
0
ARC
8
DEFAULT_255_1_234
10
23.1377988
20
36.9323067
40
0.8287794
50
180.3723947
51
188.9252049
0
ARC
8
DEFAULT_255_1_234
10
23.135074
20
37.0152402
40
0.8260467
50
169.5253763
51
180.2765336
0
ARC
8
DEFAULT_255_1_234
10
22.9448189
20
37.0502309
40
0.6326007
50
155.8315255
51
169.5089989
0
ARC
8
DEFAULT_255_1_234
10
22.816769
20
37.1096348
40
0.4914567
50
139.6258461
51
156.0379525
0
ARC
8
DEFAULT_255_1_234
10
22.7578023
20
37.1570799
40
0.4158054
50
122.6416387
51
139.3430715
0
ARC
8
DEFAULT_255_1_234
10
22.7678643
20
37.1387451
40
0.4366739
50
93.0223692
51
122.455762
0
ARC
8
DEFAULT_255_1_234
10
22.778664
20
37.0422709
40
0.5336137
50
89.975342
51
93.6341897
0
ARC
8
DEFAULT_255_1_234
10
22.782542
20
37.0821242
40
0.4937738
50
73.746375
51
90.4233405
0
ARC
8
DEFAULT_255_1_234
10
22.8000998
20
37.1501287
40
0.4235786
50
57.662753
51
73.4518111
0
ARC
8
DEFAULT_255_1_234
10
22.7993004
20
37.1522832
40
0.4221899
50
29.1440151
51
57.414694
0
ARC
8
DEFAULT_255_1_234
10
22.7058199
20
37.0939005
40
0.5322966
50
24.0982783
51
29.7323517
0
ARC
8
DEFAULT_255_1_234
10
22.6024474
20
37.0510399
40
0.6441673
50
8.6655297
51
23.8241346
0
ARC
8
DEFAULT_255_1_234
10
22.3790212
20
37.0145854
40
0.8705386
50
359.7806941
51
8.8218784
0
ARC
8
DEFAULT_255_1_234
10
22.264321
20
37.0171345
40
0.8318373
50
359.7055579
51
8.036044
0
ARC
8
DEFAULT_255_1_234
10
22.5643216
20
37.0608239
40
0.5286768
50
7.8928306
51
20.2962107
0
ARC
8
DEFAULT_255_1_234
10
22.7270787
20
37.1208395
40
0.3552073
50
20.3231126
51
36.4992797
0
ARC
8
DEFAULT_255_1_234
10
22.7956333
20
37.1736402
40
0.2686974
50
36.1437156
51
85.6627023
0
ARC
8
DEFAULT_255_1_234
10
22.7793879
20
37.0696221
40
0.373739
50
84.3852322
51
90.0757696
0
ARC
8
DEFAULT_255_1_234
10
22.7751551
20
37.1356839
40
0.3076997
50
89.3038458
51
109.9045693
0
ARC
8
DEFAULT_255_1_234
10
22.7658942
20
37.1739062
40
0.2686424
50
110.8228367
51
143.9179474
0
ARC
8
DEFAULT_255_1_234
10
22.8592603
20
37.1026236
40
0.3860887
50
143.5289163
51
163.2980757
0
ARC
8
DEFAULT_255_1_234
10
23.0500423
20
37.0426433
40
0.5860659
50
163.0418846
51
174.3140048
0
ARC
8
DEFAULT_255_1_234
10
23.2904535
20
37.0148854
40
0.8280531
50
174.0509143
51
179.4176892
0
ARC
8
DEFAULT_255_1_234
10
23.2400274
20
36.9331954
40
0.7775954
50
179.6930361
51
188.7906598
0
ARC
8
DEFAULT_255_1_234
10
22.9736753
20
36.8905935
40
0.5078633
50
188.6331305
51
202.5629587
0
ARC
8
DEFAULT_255_1_234
10
22.8482345
20
36.8401996
40
0.3726913
50
202.8081362
51
216.1193925
0
ARC
8
DEFAULT_255_1_234
10
22.7672915
20
36.7750676
40
0.2689577
50
215.0755913
51
264.6379694
0
ARC
8
DEFAULT_255_1_234
10
22.7799865
20
36.8581513
40
0.3528978
50
263.846392
51
270.0833719
0
ARC
8
DEFAULT_255_1_234
10
22.7841255
20
36.8323374
40
0.3271036
50
269.3649385
51
287.5152008
0
ARC
8
DEFAULT_255_1_234
10
22.8019413
20
36.7676238
40
0.2600406
50
288.0630309
51
323.8113348
0
ARC
8
DEFAULT_255_1_234
10
22.7148255
20
36.8326049
40
0.3687189
50
323.6547608
51
342.6590488
0
ARC
8
DEFAULT_255_1_234
10
22.511687
20
36.8986952
40
0.5823286
50
342.4091907
51
353.6451149
0
ARC
8
DEFAULT_255_1_234
10
22.2285381
20
36.933919
40
0.8676442
50
353.4029884
51
359.4847795
0
LINE
8
DEFAULT_255_1_234
10
24.1972986
20
37.5598211
11
24.1972986
21
37.476291
0
LINE
8
DEFAULT_255_1_234
10
24.1972986
20
37.476291
11
23.7129848
21
36.3904
0
LINE
8
DEFAULT_255_1_234
10
23.7129848
20
36.3904
11
23.5571691
21
36.3904
0
LINE
8
DEFAULT_255_1_234
10
23.5571691
20
36.3904
11
24.0398766
21
37.4377387
0
LINE
8
DEFAULT_255_1_234
10
24.0398766
20
37.4377387
11
23.4069756
21
37.4377387
0
LINE
8
DEFAULT_255_1_234
10
23.4069756
20
37.4377387
11
23.4069756
21
37.5598211
0
LINE
8
DEFAULT_255_1_234
10
23.4069756
20
37.5598211
11
24.1972986
21
37.5598211
0
LINE
8
DEFAULT_255_1_234
10
21.5950154
20
44.3279
11
21.2713364
21
44.3279
0
LINE
8
DEFAULT_255_1_234
10
21.2713364
20
44.3279
11
21.2713364
21
45.4973211
0
LINE
8
DEFAULT_255_1_234
10
21.2713364
20
45.4973211
11
21.6014408
21
45.4973211
0
LINE
8
DEFAULT_255_1_234
10
22.1170784
20
44.9519661
11
22.1170784
21
44.8772709
0
LINE
8
DEFAULT_255_1_234
10
21.6054567
20
45.3704196
11
21.4255458
21
45.3704196
0
LINE
8
DEFAULT_255_1_234
10
21.4255458
20
45.3704196
11
21.4255458
21
44.4539983
0
LINE
8
DEFAULT_255_1_234
10
21.4255458
20
44.4539983
11
21.5877869
21
44.4539983
0
LINE
8
DEFAULT_255_1_234
10
21.9644754
20
44.8804836
11
21.9644754
21
44.9487534
0
ARC
8
DEFAULT_255_1_234
10
21.6053351
20
44.9107894
40
0.5865446
50
75.4101064
51
90.3804066
0
ARC
8
DEFAULT_255_1_234
10
21.6282864
20
45.0064492
40
0.4881916
50
60.145586
51
75.1888407
0
ARC
8
DEFAULT_255_1_234
10
21.644164
20
45.0341199
40
0.4562893
50
26.5253612
51
60.1450928
0
ARC
8
DEFAULT_255_1_234
10
21.5321389
20
44.9747158
40
0.5830602
50
7.4030428
51
26.8320788
0
ARC
8
DEFAULT_255_1_234
10
21.3727146
20
44.9498804
40
0.7443669
50
0.1605367
51
7.7176192
0
ARC
8
DEFAULT_255_1_234
10
21.389105
20
44.8734434
40
0.7279835
50
348.7289388
51
0.3012466
0
ARC
8
DEFAULT_255_1_234
10
21.5547481
20
44.8405386
40
0.559104
50
333.0706509
51
348.7181832
0
ARC
8
DEFAULT_255_1_234
10
21.6514238
20
44.7880319
40
0.4491417
50
299.2531685
51
333.4571258
0
ARC
8
DEFAULT_255_1_234
10
21.6153378
20
44.8565828
40
0.5265881
50
278.107187
51
299.0339503
0
ARC
8
DEFAULT_255_1_234
10
21.5897457
20
45.0073216
40
0.679442
50
270.4443897
51
278.4511052
0
ARC
8
DEFAULT_255_1_234
10
21.5918287
20
44.9144213
40
0.4604407
50
269.4970433
51
284.0205042
0
ARC
8
DEFAULT_255_1_234
10
21.6273588
20
44.7778978
40
0.3193797
50
283.7700273
51
318.1555492
0
ARC
8
DEFAULT_255_1_234
10
21.5936346
20
44.8031367
40
0.3613588
50
318.7415601
51
343.6873628
0
ARC
8
DEFAULT_255_1_234
10
21.4132369
20
44.8594832
40
0.5503313
50
343.3325091
51
355.8548958
0
ARC
8
DEFAULT_255_1_234
10
21.2034054
20
44.8794319
40
0.7610708
50
355.4988528
51
0.0791727
0
ARC
8
DEFAULT_255_1_234
10
21.2816676
20
44.952978
40
0.6828208
50
359.6455037
51
9.8607896
0
ARC
8
DEFAULT_255_1_234
10
21.5177374
20
44.9956099
40
0.4429406
50
9.6571907
51
26.1932807
0
ARC
8
DEFAULT_255_1_234
10
21.6105363
20
45.0387118
40
0.3406537
50
26.5777228
51
40.1532208
0
ARC
8
DEFAULT_255_1_234
10
21.6361089
20
45.0586619
40
0.308246
50
40.3840491
51
80.1431104
0
ARC
8
DEFAULT_255_1_234
10
21.6034207
20
44.9137333
40
0.4566909
50
79.2152159
51
89.7445637
0
LINE
8
DEFAULT_255_1_234
10
23.2495535
20
44.9487534
11
23.2495535
21
44.8748614
0
LINE
8
DEFAULT_255_1_234
10
22.309037
20
44.8644201
11
22.309037
21
44.9487534
0
LINE
8
DEFAULT_255_1_234
10
23.0961473
20
44.8636169
11
23.0961473
21
44.9503597
0
LINE
8
DEFAULT_255_1_234
10
22.4624432
20
44.960801
11
22.4624432
21
44.8748614
0
ARC
8
DEFAULT_255_1_234
10
22.3853562
20
44.8709015
40
0.8642064
50
350.487711
51
0.2625388
0
ARC
8
DEFAULT_255_1_234
10
22.6146803
20
44.8314578
40
0.631518
50
336.0277639
51
350.5787438
0
ARC
8
DEFAULT_255_1_234
10
22.7491626
20
44.7706892
40
0.4839466
50
319.8877444
51
336.1328423
0
ARC
8
DEFAULT_255_1_234
10
22.8094267
20
44.722458
40
0.4067874
50
302.4806467
51
319.6143626
0
ARC
8
DEFAULT_255_1_234
10
22.7979278
20
44.7446202
40
0.4316636
50
275.8195682
51
302.1884709
0
ARC
8
DEFAULT_255_1_234
10
22.7812911
20
44.8588665
40
0.5470306
50
269.9171439
51
276.3397983
0
ARC
8
DEFAULT_255_1_234
10
22.7768121
20
44.7902681
40
0.4784458
50
252.5219675
51
270.4416499
0
ARC
8
DEFAULT_255_1_234
10
22.762438
20
44.7363592
40
0.422716
50
237.5352116
51
252.1857531
0
ARC
8
DEFAULT_255_1_234
10
22.7713575
20
44.7477363
40
0.4371052
50
209.063312
51
237.3492538
0
ARC
8
DEFAULT_255_1_234
10
22.8583423
20
44.8023685
40
0.5397041
50
205.1183774
51
209.6470015
0
ARC
8
DEFAULT_255_1_234
10
22.938046
20
44.836183
40
0.6262326
50
188.7215458
51
204.8240747
0
ARC
8
DEFAULT_255_1_234
10
23.1377988
20
44.8698067
40
0.8287794
50
180.3723947
51
188.9252049
0
ARC
8
DEFAULT_255_1_234
10
23.135074
20
44.9527402
40
0.8260467
50
169.5253763
51
180.2765336
0
ARC
8
DEFAULT_255_1_234
10
22.9448189
20
44.9877309
40
0.6326007
50
155.8315255
51
169.5089989
0
ARC
8
DEFAULT_255_1_234
10
22.816769
20
45.0471348
40
0.4914567
50
139.6258461
51
156.0379525
0
ARC
8
DEFAULT_255_1_234
10
22.7578023
20
45.0945799
40
0.4158054
50
122.6416387
51
139.3430715
0
ARC
8
DEFAULT_255_1_234
10
22.7678643
20
45.0762451
40
0.4366739
50
93.0223692
51
122.455762
0
ARC
8
DEFAULT_255_1_234
10
22.778664
20
44.9797709
40
0.5336137
50
89.975342
51
93.6341897
0
ARC
8
DEFAULT_255_1_234
10
22.782542
20
45.0196242
40
0.4937738
50
73.746375
51
90.4233405
0
ARC
8
DEFAULT_255_1_234
10
22.8000998
20
45.0876287
40
0.4235786
50
57.662753
51
73.4518111
0
ARC
8
DEFAULT_255_1_234
10
22.7993004
20
45.0897832
40
0.4221899
50
29.1440151
51
57.414694
0
ARC
8
DEFAULT_255_1_234
10
22.7058199
20
45.0314005
40
0.5322966
50
24.0982783
51
29.7323517
0
ARC
8
DEFAULT_255_1_234
10
22.6024474
20
44.9885399
40
0.6441673
50
8.6655297
51
23.8241346
0
ARC
8
DEFAULT_255_1_234
10
22.3790212
20
44.9520854
40
0.8705386
50
359.7806941
51
8.8218784
0
ARC
8
DEFAULT_255_1_234
10
22.264321
20
44.9546345
40
0.8318373
50
359.7055579
51
8.036044
0
ARC
8
DEFAULT_255_1_234
10
22.5643216
20
44.9983239
40
0.5286768
50
7.8928306
51
20.2962107
0
ARC
8
DEFAULT_255_1_234
10
22.7270787
20
45.0583395
40
0.3552073
50
20.3231126
51
36.4992797
0
ARC
8
DEFAULT_255_1_234
10
22.7956333
20
45.1111402
40
0.2686974
50
36.1437156
51
85.6627023
0
ARC
8
DEFAULT_255_1_234
10
22.7793879
20
45.0071221
40
0.373739
50
84.3852322
51
90.0757696
0
ARC
8
DEFAULT_255_1_234
10
22.7751551
20
45.0731839
40
0.3076997
50
89.3038458
51
109.9045693
0
ARC
8
DEFAULT_255_1_234
10
22.7658942
20
45.1114062
40
0.2686424
50
110.8228367
51
143.9179474
0
ARC
8
DEFAULT_255_1_234
10
22.8592603
20
45.0401236
40
0.3860887
50
143.5289163
51
163.2980757
0
ARC
8
DEFAULT_255_1_234
10
23.0500423
20
44.9801433
40
0.5860659
50
163.0418846
51
174.3140048
0
ARC
8
DEFAULT_255_1_234
10
23.2904535
20
44.9523854
40
0.8280531
50
174.0509143
51
179.4176892
0
ARC
8
DEFAULT_255_1_234
10
23.2400274
20
44.8706954
40
0.7775954
50
179.6930361
51
188.7906598
0
ARC
8
DEFAULT_255_1_234
10
22.9736753
20
44.8280935
40
0.5078633
50
188.6331305
51
202.5629587
0
ARC
8
DEFAULT_255_1_234
10
22.8482345
20
44.7776996
40
0.3726913
50
202.8081362
51
216.1193925
0
ARC
8
DEFAULT_255_1_234
10
22.7672915
20
44.7125676
40
0.2689577
50
215.0755913
51
264.6379694
0
ARC
8
DEFAULT_255_1_234
10
22.7799865
20
44.7956513
40
0.3528978
50
263.846392
51
270.0833719
0
ARC
8
DEFAULT_255_1_234
10
22.7841255
20
44.7698374
40
0.3271036
50
269.3649385
51
287.5152008
0
ARC
8
DEFAULT_255_1_234
10
22.8019413
20
44.7051238
40
0.2600406
50
288.0630309
51
323.8113348
0
ARC
8
DEFAULT_255_1_234
10
22.7148255
20
44.7701049
40
0.3687189
50
323.6547608
51
342.6590488
0
ARC
8
DEFAULT_255_1_234
10
22.511687
20
44.8361952
40
0.5823286
50
342.4091907
51
353.6451149
0
ARC
8
DEFAULT_255_1_234
10
22.2285381
20
44.871419
40
0.8676442
50
353.4029884
51
359.4847795
0
LINE
8
DEFAULT_255_1_234
10
23.9989147
20
45.4981243
11
24.0254194
21
45.4981243
0
LINE
8
DEFAULT_255_1_234
10
24.0254194
20
45.4981243
11
24.0254194
21
45.372026
0
LINE
8
DEFAULT_255_1_234
10
24.0254194
20
45.372026
11
23.9981115
21
45.372026
0
LINE
8
DEFAULT_255_1_234
10
23.4511501
20
44.7728583
11
23.4511501
21
44.8298836
0
LINE
8
DEFAULT_255_1_234
10
23.6005405
20
44.8106075
11
23.6005405
21
44.7559917
0
ARC
8
DEFAULT_255_1_234
10
24.0033463
20
44.8722455
40
0.4998079
50
90.6001036
51
104.514704
0
ARC
8
DEFAULT_255_1_234
10
23.9644979
20
45.0167131
40
0.3502176
50
104.2855254
51
133.862935
0
ARC
8
DEFAULT_255_1_234
10
23.9808736
20
45.005883
40
0.3693984
50
134.5302688
51
161.6210873
0
ARC
8
DEFAULT_255_1_234
10
24.1461925
20
44.9475895
40
0.5446739
50
161.2849839
51
174.2076652
0
ARC
8
DEFAULT_255_1_234
10
24.2868862
20
44.9281787
40
0.6866274
50
173.7810589
51
174.9254635
0
ARC
8
DEFAULT_255_1_234
10
23.8318694
20
44.7898839
40
0.3033419
50
95.8330959
51
138.9954921
0
ARC
8
DEFAULT_255_1_234
10
23.854205
20
44.6620375
40
0.4328947
50
89.8753725
51
97.0544009
0
ARC
8
DEFAULT_255_1_234
10
23.8589516
20
44.7455748
40
0.3493769
50
71.6407809
51
90.6240094
0
ARC
8
DEFAULT_255_1_234
10
23.8740089
20
44.8010082
40
0.2920396
50
39.6367836
51
71.019018
0
ARC
8
DEFAULT_255_1_234
10
23.8103562
20
44.7459998
40
0.3761538
50
10.658731
51
39.9043955
0
ARC
8
DEFAULT_255_1_234
10
23.6555645
20
44.7123686
40
0.5345136
50
359.682601
51
11.132623
0
ARC
8
DEFAULT_255_1_234
10
23.6515776
20
44.705301
40
0.5385081
50
347.2486944
51
0.4369317
0
ARC
8
DEFAULT_255_1_234
10
23.8183253
20
44.6651807
40
0.3670249
50
318.1409698
51
347.6118597
0
ARC
8
DEFAULT_255_1_234
10
23.8508246
20
44.6384702
40
0.3250007
50
275.6342139
51
317.8248465
0
ARC
8
DEFAULT_255_1_234
10
23.8287357
20
44.7684219
40
0.4565864
50
269.8874292
51
276.7917694
0
ARC
8
DEFAULT_255_1_234
10
23.8232428
20
44.6658743
40
0.3540676
50
246.9140195
51
270.7437342
0
ARC
8
DEFAULT_255_1_234
10
23.8238818
20
44.6516384
40
0.3412781
50
218.1665114
51
245.878116
0
ARC
8
DEFAULT_255_1_234
10
23.9118279
20
44.7252279
40
0.455911
50
191.4115814
51
218.6077802
0
ARC
8
DEFAULT_255_1_234
10
24.1056368
20
44.7686833
40
0.6545001
50
179.6345085
51
191.7836486
0
ARC
8
DEFAULT_255_1_234
10
24.6638705
20
44.8365697
40
1.2127388
50
171.4525249
51
180.3158839
0
ARC
8
DEFAULT_255_1_234
10
24.2243581
20
44.9049608
40
0.7679464
50
157.9802646
51
171.6246686
0
ARC
8
DEFAULT_255_1_234
10
24.0029602
20
44.9932421
40
0.5296008
50
141.4298019
51
157.854097
0
ARC
8
DEFAULT_255_1_234
10
23.9387922
20
45.0386381
40
0.4511509
50
102.8715806
51
140.8564722
0
ARC
8
DEFAULT_255_1_234
10
24.0035538
20
44.7946552
40
0.7034845
50
90.3778349
51
103.5869322
0
ARC
8
DEFAULT_255_1_234
10
23.8297314
20
44.734173
40
0.2370698
50
89.8751008
51
126.2071704
0
ARC
8
DEFAULT_255_1_234
10
23.8343104
20
44.7187303
40
0.2522934
50
124.9745049
51
144.895901
0
ARC
8
DEFAULT_255_1_234
10
23.8167294
20
44.733056
40
0.2296779
50
145.2974905
51
160.2660252
0
ARC
8
DEFAULT_255_1_234
10
24.1239833
20
44.7528071
40
0.5234525
50
179.6514266
51
190.2855912
0
ARC
8
DEFAULT_255_1_234
10
23.954597
20
44.7208786
40
0.3510893
50
190.0945431
51
207.5098196
0
ARC
8
DEFAULT_255_1_234
10
23.898024
20
44.6939623
40
0.288489
50
207.9583163
51
216.3251085
0
ARC
8
DEFAULT_255_1_234
10
23.8640348
20
44.6660105
40
0.2445587
50
215.7661442
51
232.5456785
0
ARC
8
DEFAULT_255_1_234
10
23.8257331
20
44.6173482
40
0.1826382
50
232.8005391
51
270.6605633
0
ARC
8
DEFAULT_255_1_234
10
23.8303032
20
44.6537612
40
0.2190529
50
269.35537
51
288.4744281
0
ARC
8
DEFAULT_255_1_234
10
23.8395929
20
44.6188118
40
0.1829749
50
289.1833337
51
322.9683818
0
ARC
8
DEFAULT_255_1_234
10
23.7784451
20
44.6670391
40
0.2608399
50
322.6007884
51
346.5182367
0
ARC
8
DEFAULT_255_1_234
10
23.6627047
20
44.6965616
40
0.3802777
50
346.2582162
51
358.7741648
0
ARC
8
DEFAULT_255_1_234
10
23.5608716
20
44.7020965
40
0.4822176
50
358.3755224
51
0.0098023
0
ARC
8
DEFAULT_255_1_234
10
23.6364903
20
44.7048657
40
0.4066078
50
359.6214041
51
11.2839074
0
ARC
8
DEFAULT_255_1_234
10
23.764205
20
44.7315066
40
0.2761514
50
11.0482309
51
31.8146458
0
ARC
8
DEFAULT_255_1_234
10
23.7951093
20
44.7482584
40
0.2410679
50
32.3035391
51
38.082671
0
ARC
8
DEFAULT_255_1_234
10
23.8371753
20
44.7863662
40
0.1844966
50
36.825067
51
85.7415724
0
ARC
8
DEFAULT_255_1_234
10
23.8304586
20
44.7363301
40
0.2349122
50
85.0140713
51
90.0513278
0
LINE
8
DEFAULT_255_1_234
10
21.5950154
20
52.2654
11
21.2713364
21
52.2654
0
LINE
8
DEFAULT_255_1_234
10
21.2713364
20
52.2654
11
21.2713364
21
53.4348211
0
LINE
8
DEFAULT_255_1_234
10
21.2713364
20
53.4348211
11
21.6014408
21
53.4348211
0
LINE
8
DEFAULT_255_1_234
10
22.1170784
20
52.8894661
11
22.1170784
21
52.8147709
0
LINE
8
DEFAULT_255_1_234
10
21.6054567
20
53.3079196
11
21.4255458
21
53.3079196
0
LINE
8
DEFAULT_255_1_234
10
21.4255458
20
53.3079196
11
21.4255458
21
52.3914983
0
LINE
8
DEFAULT_255_1_234
10
21.4255458
20
52.3914983
11
21.5877869
21
52.3914983
0
LINE
8
DEFAULT_255_1_234
10
21.9644754
20
52.8179836
11
21.9644754
21
52.8862534
0
ARC
8
DEFAULT_255_1_234
10
21.6053351
20
52.8482894
40
0.5865446
50
75.4101064
51
90.3804066
0
ARC
8
DEFAULT_255_1_234
10
21.6282864
20
52.9439492
40
0.4881916
50
60.145586
51
75.1888407
0
ARC
8
DEFAULT_255_1_234
10
21.644164
20
52.9716199
40
0.4562893
50
26.5253612
51
60.1450928
0
ARC
8
DEFAULT_255_1_234
10
21.5321389
20
52.9122158
40
0.5830602
50
7.4030428
51
26.8320788
0
ARC
8
DEFAULT_255_1_234
10
21.3727146
20
52.8873804
40
0.7443669
50
0.1605367
51
7.7176192
0
ARC
8
DEFAULT_255_1_234
10
21.389105
20
52.8109434
40
0.7279835
50
348.7289388
51
0.3012466
0
ARC
8
DEFAULT_255_1_234
10
21.5547481
20
52.7780386
40
0.559104
50
333.0706509
51
348.7181832
0
ARC
8
DEFAULT_255_1_234
10
21.6514238
20
52.7255319
40
0.4491417
50
299.2531685
51
333.4571258
0
ARC
8
DEFAULT_255_1_234
10
21.6153378
20
52.7940828
40
0.5265881
50
278.107187
51
299.0339503
0
ARC
8
DEFAULT_255_1_234
10
21.5897457
20
52.9448216
40
0.679442
50
270.4443897
51
278.4511052
0
ARC
8
DEFAULT_255_1_234
10
21.5918287
20
52.8519213
40
0.4604407
50
269.4970433
51
284.0205042
0
ARC
8
DEFAULT_255_1_234
10
21.6273588
20
52.7153978
40
0.3193797
50
283.7700273
51
318.1555492
0
ARC
8
DEFAULT_255_1_234
10
21.5936346
20
52.7406367
40
0.3613588
50
318.7415601
51
343.6873628
0
ARC
8
DEFAULT_255_1_234
10
21.4132369
20
52.7969832
40
0.5503313
50
343.3325091
51
355.8548958
0
ARC
8
DEFAULT_255_1_234
10
21.2034054
20
52.8169319
40
0.7610708
50
355.4988528
51
0.0791727
0
ARC
8
DEFAULT_255_1_234
10
21.2816676
20
52.890478
40
0.6828208
50
359.6455037
51
9.8607896
0
ARC
8
DEFAULT_255_1_234
10
21.5177374
20
52.9331099
40
0.4429406
50
9.6571907
51
26.1932807
0
ARC
8
DEFAULT_255_1_234
10
21.6105363
20
52.9762118
40
0.3406537
50
26.5777228
51
40.1532208
0
ARC
8
DEFAULT_255_1_234
10
21.6361089
20
52.9961619
40
0.308246
50
40.3840491
51
80.1431104
0
ARC
8
DEFAULT_255_1_234
10
21.6034207
20
52.8512333
40
0.4566909
50
79.2152159
51
89.7445637
0
LINE
8
DEFAULT_255_1_234
10
23.2495535
20
52.8862534
11
23.2495535
21
52.8123614
0
LINE
8
DEFAULT_255_1_234
10
22.309037
20
52.8019201
11
22.309037
21
52.8862534
0
LINE
8
DEFAULT_255_1_234
10
23.0961473
20
52.8011169
11
23.0961473
21
52.8878597
0
LINE
8
DEFAULT_255_1_234
10
22.4624432
20
52.898301
11
22.4624432
21
52.8123614
0
ARC
8
DEFAULT_255_1_234
10
22.3853562
20
52.8084015
40
0.8642064
50
350.487711
51
0.2625388
0
ARC
8
DEFAULT_255_1_234
10
22.6146803
20
52.7689578
40
0.631518
50
336.0277639
51
350.5787438
0
ARC
8
DEFAULT_255_1_234
10
22.7491626
20
52.7081892
40
0.4839466
50
319.8877444
51
336.1328423
0
ARC
8
DEFAULT_255_1_234
10
22.8094267
20
52.659958
40
0.4067874
50
302.4806467
51
319.6143626
0
ARC
8
DEFAULT_255_1_234
10
22.7979278
20
52.6821202
40
0.4316636
50
275.8195682
51
302.1884709
0
ARC
8
DEFAULT_255_1_234
10
22.7812911
20
52.7963665
40
0.5470306
50
269.9171439
51
276.3397983
0
ARC
8
DEFAULT_255_1_234
10
22.7768121
20
52.7277681
40
0.4784458
50
252.5219675
51
270.4416499
0
ARC
8
DEFAULT_255_1_234
10
22.762438
20
52.6738592
40
0.422716
50
237.5352116
51
252.1857531
0
ARC
8
DEFAULT_255_1_234
10
22.7713575
20
52.6852363
40
0.4371052
50
209.063312
51
237.3492538
0
ARC
8
DEFAULT_255_1_234
10
22.8583423
20
52.7398685
40
0.5397041
50
205.1183774
51
209.6470015
0
ARC
8
DEFAULT_255_1_234
10
22.938046
20
52.773683
40
0.6262326
50
188.7215458
51
204.8240747
0
ARC
8
DEFAULT_255_1_234
10
23.1377988
20
52.8073067
40
0.8287794
50
180.3723947
51
188.9252049
0
ARC
8
DEFAULT_255_1_234
10
23.135074
20
52.8902402
40
0.8260467
50
169.5253763
51
180.2765336
0
ARC
8
DEFAULT_255_1_234
10
22.9448189
20
52.9252309
40
0.6326007
50
155.8315255
51
169.5089989
0
ARC
8
DEFAULT_255_1_234
10
22.816769
20
52.9846348
40
0.4914567
50
139.6258461
51
156.0379525
0
ARC
8
DEFAULT_255_1_234
10
22.7578023
20
53.0320799
40
0.4158054
50
122.6416387
51
139.3430715
0
ARC
8
DEFAULT_255_1_234
10
22.7678643
20
53.0137451
40
0.4366739
50
93.0223692
51
122.455762
0
ARC
8
DEFAULT_255_1_234
10
22.778664
20
52.9172709
40
0.5336137
50
89.975342
51
93.6341897
0
ARC
8
DEFAULT_255_1_234
10
22.782542
20
52.9571242
40
0.4937738
50
73.746375
51
90.4233405
0
ARC
8
DEFAULT_255_1_234
10
22.8000998
20
53.0251287
40
0.4235786
50
57.662753
51
73.4518111
0
ARC
8
DEFAULT_255_1_234
10
22.7993004
20
53.0272832
40
0.4221899
50
29.1440151
51
57.414694
0
ARC
8
DEFAULT_255_1_234
10
22.7058199
20
52.9689005
40
0.5322966
50
24.0982783
51
29.7323517
0
ARC
8
DEFAULT_255_1_234
10
22.6024474
20
52.9260399
40
0.6441673
50
8.6655297
51
23.8241346
0
ARC
8
DEFAULT_255_1_234
10
22.3790212
20
52.8895854
40
0.8705386
50
359.7806941
51
8.8218784
0
ARC
8
DEFAULT_255_1_234
10
22.264321
20
52.8921345
40
0.8318373
50
359.7055579
51
8.036044
0
ARC
8
DEFAULT_255_1_234
10
22.5643216
20
52.9358239
40
0.5286768
50
7.8928306
51
20.2962107
0
ARC
8
DEFAULT_255_1_234
10
22.7270787
20
52.9958395
40
0.3552073
50
20.3231126
51
36.4992797
0
ARC
8
DEFAULT_255_1_234
10
22.7956333
20
53.0486402
40
0.2686974
50
36.1437156
51
85.6627023
0
ARC
8
DEFAULT_255_1_234
10
22.7793879
20
52.9446221
40
0.373739
50
84.3852322
51
90.0757696
0
ARC
8
DEFAULT_255_1_234
10
22.7751551
20
53.0106839
40
0.3076997
50
89.3038458
51
109.9045693
0
ARC
8
DEFAULT_255_1_234
10
22.7658942
20
53.0489062
40
0.2686424
50
110.8228367
51
143.9179474
0
ARC
8
DEFAULT_255_1_234
10
22.8592603
20
52.9776236
40
0.3860887
50
143.5289163
51
163.2980757
0
ARC
8
DEFAULT_255_1_234
10
23.0500423
20
52.9176433
40
0.5860659
50
163.0418846
51
174.3140048
0
ARC
8
DEFAULT_255_1_234
10
23.2904535
20
52.8898854
40
0.8280531
50
174.0509143
51
179.4176892
0
ARC
8
DEFAULT_255_1_234
10
23.2400274
20
52.8081954
40
0.7775954
50
179.6930361
51
188.7906598
0
ARC
8
DEFAULT_255_1_234
10
22.9736753
20
52.7655935
40
0.5078633
50
188.6331305
51
202.5629587
0
ARC
8
DEFAULT_255_1_234
10
22.8482345
20
52.7151996
40
0.3726913
50
202.8081362
51
216.1193925
0
ARC
8
DEFAULT_255_1_234
10
22.7672915
20
52.6500676
40
0.2689577
50
215.0755913
51
264.6379694
0
ARC
8
DEFAULT_255_1_234
10
22.7799865
20
52.7331513
40
0.3528978
50
263.846392
51
270.0833719
0
ARC
8
DEFAULT_255_1_234
10
22.7841255
20
52.7073374
40
0.3271036
50
269.3649385
51
287.5152008
0
ARC
8
DEFAULT_255_1_234
10
22.8019413
20
52.6426238
40
0.2600406
50
288.0630309
51
323.8113348
0
ARC
8
DEFAULT_255_1_234
10
22.7148255
20
52.7076049
40
0.3687189
50
323.6547608
51
342.6590488
0
ARC
8
DEFAULT_255_1_234
10
22.511687
20
52.7736952
40
0.5823286
50
342.4091907
51
353.6451149
0
ARC
8
DEFAULT_255_1_234
10
22.2285381
20
52.808919
40
0.8676442
50
353.4029884
51
359.4847795
0
LINE
8
DEFAULT_255_1_234
10
23.6294547
20
52.8211963
11
23.510585
21
52.8517169
0
LINE
8
DEFAULT_255_1_234
10
23.510585
20
52.8517169
11
23.5700199
21
53.4348211
0
LINE
8
DEFAULT_255_1_234
10
23.5700199
20
53.4348211
11
24.1691875
21
53.4348211
0
LINE
8
DEFAULT_255_1_234
10
24.1691875
20
53.4348211
11
24.1691875
21
53.2974784
0
LINE
8
DEFAULT_255_1_234
10
24.1691875
20
53.2974784
11
23.6961182
21
53.2974784
0
LINE
8
DEFAULT_255_1_234
10
23.6961182
20
53.2974784
11
23.6607785
21
52.9786184
0
LINE
8
DEFAULT_255_1_234
10
23.46882
20
52.5730156
11
23.6093754
21
52.5730156
0
LINE
8
DEFAULT_255_1_234
10
23.6688103
20
52.8533232
11
23.6294547
21
52.8211963
0
ARC
8
DEFAULT_255_1_234
10
23.8462569
20
52.660623
40
0.3681349
50
93.7182161
51
120.2538958
0
ARC
8
DEFAULT_255_1_234
10
23.8556832
20
52.5798394
40
0.449379
50
89.9660152
51
94.2496022
0
ARC
8
DEFAULT_255_1_234
10
23.8597566
20
52.6387549
40
0.390482
50
73.8043271
51
90.5585896
0
ARC
8
DEFAULT_255_1_234
10
23.8832463
20
52.7245602
40
0.3015334
50
41.3071453
51
73.5430202
0
ARC
8
DEFAULT_255_1_234
10
23.841629
20
52.6887324
40
0.3564457
50
13.5075983
51
41.2174222
0
ARC
8
DEFAULT_255_1_234
10
23.6774494
20
52.6457486
40
0.5261351
50
1.1331335
51
13.8829381
0
ARC
8
DEFAULT_255_1_234
10
23.5362863
20
52.6381665
40
0.6674378
50
359.9919444
51
1.544251
0
ARC
8
DEFAULT_255_1_234
10
23.6639689
20
52.634028
40
0.5397702
50
347.8572367
51
0.4293338
0
ARC
8
DEFAULT_255_1_234
10
23.8390007
20
52.5943736
40
0.3603188
50
323.673004
51
348.1672506
0
ARC
8
DEFAULT_255_1_234
10
23.8684515
20
52.5764168
40
0.3259678
50
316.8171152
51
323.1492751
0
ARC
8
DEFAULT_255_1_234
10
23.8745704
20
52.572746
40
0.3189975
50
281.8396411
51
316.5457803
0
ARC
8
DEFAULT_255_1_234
10
23.8369968
20
52.7282762
40
0.4789527
50
269.5770101
51
282.4214771
0
ARC
8
DEFAULT_255_1_234
10
23.8298779
20
52.7069125
40
0.45759
50
256.2427136
51
270.4486331
0
ARC
8
DEFAULT_255_1_234
10
23.7999682
20
52.5869229
40
0.3339303
50
228.9023911
51
256.3314342
0
ARC
8
DEFAULT_255_1_234
10
23.7925914
20
52.5752746
40
0.32031
50
193.753695
51
228.5271154
0
ARC
8
DEFAULT_255_1_234
10
23.9163868
20
52.61158
40
0.4492253
50
184.924711
51
194.497588
0
ARC
8
DEFAULT_255_1_234
10
23.9356435
20
52.6151591
40
0.3289787
50
187.3600538
51
198.6732863
0
ARC
8
DEFAULT_255_1_234
10
23.8306729
20
52.5787674
40
0.217884
50
198.4451669
51
217.794479
0
ARC
8
DEFAULT_255_1_234
10
23.8010904
20
52.5578085
40
0.1816698
50
218.2887171
51
228.5612368
0
ARC
8
DEFAULT_255_1_234
10
23.8108691
20
52.5709963
40
0.1980329
50
228.9654866
51
258.1234728
0
ARC
8
DEFAULT_255_1_234
10
23.8314401
20
52.6590833
40
0.2884748
50
257.7258293
51
270.401361
0
ARC
8
DEFAULT_255_1_234
10
23.8359287
20
52.6145821
40
0.2439788
50
269.4204404
51
286.4209037
0
ARC
8
DEFAULT_255_1_234
10
23.8507775
20
52.5606657
40
0.1880666
50
286.7251356
51
320.600362
0
ARC
8
DEFAULT_255_1_234
10
23.81246
20
52.5917595
40
0.2374121
50
320.6712579
51
344.5441685
0
ARC
8
DEFAULT_255_1_234
10
23.6967926
20
52.6257045
40
0.3579479
50
344.2412205
51
356.7357071
0
ARC
8
DEFAULT_255_1_234
10
23.5719075
20
52.6360444
40
0.4832297
50
356.3548756
51
0.0500261
0
ARC
8
DEFAULT_255_1_234
10
23.7055584
20
52.639165
40
0.3495889
50
359.5576869
51
12.953486
0
ARC
8
DEFAULT_255_1_234
10
23.8110481
20
52.6647434
40
0.2410532
50
12.6490276
51
41.6081334
0
ARC
8
DEFAULT_255_1_234
10
23.8340852
20
52.6843321
40
0.2108218
50
41.7850273
51
85.9892764
0
ARC
8
DEFAULT_255_1_234
10
23.8217589
20
52.6030462
40
0.2928454
50
84.6957577
51
90.0676183
0
ARC
8
DEFAULT_255_1_234
10
23.8194073
20
52.5361716
40
0.3597255
50
89.6804936
51
99.1614436
0
ARC
8
DEFAULT_255_1_234
10
23.7988704
20
52.6589131
40
0.235281
50
98.9830931
51
113.8908934
0
ARC
8
DEFAULT_255_1_234
10
23.7759114
20
52.7130587
40
0.176479
50
114.1950727
51
127.3641004
0
LINE
8
DEFAULT_255_1_234
10
21.4892154
20
60.2029
11
21.1655364
21
60.2029
0
LINE
8
DEFAULT_255_1_234
10
21.1655364
20
60.2029
11
21.1655364
21
61.3723211
0
LINE
8
DEFAULT_255_1_234
10
21.1655364
20
61.3723211
11
21.4956408
21
61.3723211
0
LINE
8
DEFAULT_255_1_234
10
22.0112784
20
60.8269661
11
22.0112784
21
60.7522709
0
LINE
8
DEFAULT_255_1_234
10
21.4996567
20
61.2454196
11
21.3197458
21
61.2454196
0
LINE
8
DEFAULT_255_1_234
10
21.3197458
20
61.2454196
11
21.3197458
21
60.3289983
0
LINE
8
DEFAULT_255_1_234
10
21.3197458
20
60.3289983
11
21.4819869
21
60.3289983
0
LINE
8
DEFAULT_255_1_234
10
21.8586754
20
60.7554836
11
21.8586754
21
60.8237534
0
ARC
8
DEFAULT_255_1_234
10
21.4995351
20
60.7857894
40
0.5865446
50
75.4101064
51
90.3804066
0
ARC
8
DEFAULT_255_1_234
10
21.5224864
20
60.8814492
40
0.4881916
50
60.145586
51
75.1888407
0
ARC
8
DEFAULT_255_1_234
10
21.538364
20
60.9091199
40
0.4562893
50
26.5253612
51
60.1450928
0
ARC
8
DEFAULT_255_1_234
10
21.4263389
20
60.8497158
40
0.5830602
50
7.4030428
51
26.8320788
0
ARC
8
DEFAULT_255_1_234
10
21.2669146
20
60.8248804
40
0.7443669
50
0.1605367
51
7.7176192
0
ARC
8
DEFAULT_255_1_234
10
21.283305
20
60.7484434
40
0.7279835
50
348.7289388
51
0.3012466
0
ARC
8
DEFAULT_255_1_234
10
21.4489481
20
60.7155386
40
0.559104
50
333.0706509
51
348.7181832
0
ARC
8
DEFAULT_255_1_234
10
21.5456238
20
60.6630319
40
0.4491417
50
299.2531685
51
333.4571258
0
ARC
8
DEFAULT_255_1_234
10
21.5095378
20
60.7315828
40
0.5265881
50
278.107187
51
299.0339503
0
ARC
8
DEFAULT_255_1_234
10
21.4839457
20
60.8823216
40
0.679442
50
270.4443897
51
278.4511052
0
ARC
8
DEFAULT_255_1_234
10
21.4860287
20
60.7894213
40
0.4604407
50
269.4970433
51
284.0205042
0
ARC
8
DEFAULT_255_1_234
10
21.5215588
20
60.6528978
40
0.3193797
50
283.7700273
51
318.1555492
0
ARC
8
DEFAULT_255_1_234
10
21.4878346
20
60.6781367
40
0.3613588
50
318.7415601
51
343.6873628
0
ARC
8
DEFAULT_255_1_234
10
21.3074369
20
60.7344832
40
0.5503313
50
343.3325091
51
355.8548958
0
ARC
8
DEFAULT_255_1_234
10
21.0976054
20
60.7544319
40
0.7610708
50
355.4988528
51
0.0791727
0
ARC
8
DEFAULT_255_1_234
10
21.1758676
20
60.827978
40
0.6828208
50
359.6455037
51
9.8607896
0
ARC
8
DEFAULT_255_1_234
10
21.4119374
20
60.8706099
40
0.4429406
50
9.6571907
51
26.1932807
0
ARC
8
DEFAULT_255_1_234
10
21.5047363
20
60.9137118
40
0.3406537
50
26.5777228
51
40.1532208
0
ARC
8
DEFAULT_255_1_234
10
21.5303089
20
60.9336619
40
0.308246
50
40.3840491
51
80.1431104
0
ARC
8
DEFAULT_255_1_234
10
21.4976207
20
60.7887333
40
0.4566909
50
79.2152159
51
89.7445637
0
LINE
8
DEFAULT_255_1_234
10
23.1437535
20
60.8237534
11
23.1437535
21
60.7498614
0
LINE
8
DEFAULT_255_1_234
10
22.203237
20
60.7394201
11
22.203237
21
60.8237534
0
LINE
8
DEFAULT_255_1_234
10
22.9903473
20
60.7386169
11
22.9903473
21
60.8253597
0
LINE
8
DEFAULT_255_1_234
10
22.3566432
20
60.835801
11
22.3566432
21
60.7498614
0
ARC
8
DEFAULT_255_1_234
10
22.2795562
20
60.7459015
40
0.8642064
50
350.487711
51
0.2625388
0
ARC
8
DEFAULT_255_1_234
10
22.5088803
20
60.7064578
40
0.631518
50
336.0277639
51
350.5787438
0
ARC
8
DEFAULT_255_1_234
10
22.6433626
20
60.6456892
40
0.4839466
50
319.8877444
51
336.1328423
0
ARC
8
DEFAULT_255_1_234
10
22.7036267
20
60.597458
40
0.4067874
50
302.4806467
51
319.6143626
0
ARC
8
DEFAULT_255_1_234
10
22.6921278
20
60.6196202
40
0.4316636
50
275.8195682
51
302.1884709
0
ARC
8
DEFAULT_255_1_234
10
22.6754911
20
60.7338665
40
0.5470306
50
269.9171439
51
276.3397983
0
ARC
8
DEFAULT_255_1_234
10
22.6710121
20
60.6652681
40
0.4784458
50
252.5219675
51
270.4416499
0
ARC
8
DEFAULT_255_1_234
10
22.656638
20
60.6113592
40
0.422716
50
237.5352116
51
252.1857531
0
ARC
8
DEFAULT_255_1_234
10
22.6655575
20
60.6227363
40
0.4371052
50
209.063312
51
237.3492538
0
ARC
8
DEFAULT_255_1_234
10
22.7525423
20
60.6773685
40
0.5397041
50
205.1183774
51
209.6470015
0
ARC
8
DEFAULT_255_1_234
10
22.832246
20
60.711183
40
0.6262326
50
188.7215458
51
204.8240747
0
ARC
8
DEFAULT_255_1_234
10
23.0319988
20
60.7448067
40
0.8287794
50
180.3723947
51
188.9252049
0
ARC
8
DEFAULT_255_1_234
10
23.029274
20
60.8277402
40
0.8260467
50
169.5253763
51
180.2765336
0
ARC
8
DEFAULT_255_1_234
10
22.8390189
20
60.8627309
40
0.6326007
50
155.8315255
51
169.5089989
0
ARC
8
DEFAULT_255_1_234
10
22.710969
20
60.9221348
40
0.4914567
50
139.6258461
51
156.0379525
0
ARC
8
DEFAULT_255_1_234
10
22.6520023
20
60.9695799
40
0.4158054
50
122.6416387
51
139.3430715
0
ARC
8
DEFAULT_255_1_234
10
22.6620643
20
60.9512451
40
0.4366739
50
93.0223692
51
122.455762
0
ARC
8
DEFAULT_255_1_234
10
22.672864
20
60.8547709
40
0.5336137
50
89.975342
51
93.6341897
0
ARC
8
DEFAULT_255_1_234
10
22.676742
20
60.8946242
40
0.4937738
50
73.746375
51
90.4233405
0
ARC
8
DEFAULT_255_1_234
10
22.6942998
20
60.9626287
40
0.4235786
50
57.662753
51
73.4518111
0
ARC
8
DEFAULT_255_1_234
10
22.6935004
20
60.9647832
40
0.4221899
50
29.1440151
51
57.414694
0
ARC
8
DEFAULT_255_1_234
10
22.6000199
20
60.9064005
40
0.5322966
50
24.0982783
51
29.7323517
0
ARC
8
DEFAULT_255_1_234
10
22.4966474
20
60.8635399
40
0.6441673
50
8.6655297
51
23.8241346
0
ARC
8
DEFAULT_255_1_234
10
22.2732212
20
60.8270854
40
0.8705386
50
359.7806941
51
8.8218784
0
ARC
8
DEFAULT_255_1_234
10
22.158521
20
60.8296345
40
0.8318373
50
359.7055579
51
8.036044
0
ARC
8
DEFAULT_255_1_234
10
22.4585216
20
60.8733239
40
0.5286768
50
7.8928306
51
20.2962107
0
ARC
8
DEFAULT_255_1_234
10
22.6212787
20
60.9333395
40
0.3552073
50
20.3231126
51
36.4992797
0
ARC
8
DEFAULT_255_1_234
10
22.6898333
20
60.9861402
40
0.2686974
50
36.1437156
51
85.6627023
0
ARC
8
DEFAULT_255_1_234
10
22.6735879
20
60.8821221
40
0.373739
50
84.3852322
51
90.0757696
0
ARC
8
DEFAULT_255_1_234
10
22.6693551
20
60.9481839
40
0.3076997
50
89.3038458
51
109.9045693
0
ARC
8
DEFAULT_255_1_234
10
22.6600942
20
60.9864062
40
0.2686424
50
110.8228367
51
143.9179474
0
ARC
8
DEFAULT_255_1_234
10
22.7534603
20
60.9151236
40
0.3860887
50
143.5289163
51
163.2980757
0
ARC
8
DEFAULT_255_1_234
10
22.9442423
20
60.8551433
40
0.5860659
50
163.0418846
51
174.3140048
0
ARC
8
DEFAULT_255_1_234
10
23.1846535
20
60.8273854
40
0.8280531
50
174.0509143
51
179.4176892
0
ARC
8
DEFAULT_255_1_234
10
23.1342274
20
60.7456954
40
0.7775954
50
179.6930361
51
188.7906598
0
ARC
8
DEFAULT_255_1_234
10
22.8678753
20
60.7030935
40
0.5078633
50
188.6331305
51
202.5629587
0
ARC
8
DEFAULT_255_1_234
10
22.7424345
20
60.6526996
40
0.3726913
50
202.8081362
51
216.1193925
0
ARC
8
DEFAULT_255_1_234
10
22.6614915
20
60.5875676
40
0.2689577
50
215.0755913
51
264.6379694
0
ARC
8
DEFAULT_255_1_234
10
22.6741865
20
60.6706513
40
0.3528978
50
263.846392
51
270.0833719
0
ARC
8
DEFAULT_255_1_234
10
22.6783255
20
60.6448374
40
0.3271036
50
269.3649385
51
287.5152008
0
ARC
8
DEFAULT_255_1_234
10
22.6961413
20
60.5801238
40
0.2600406
50
288.0630309
51
323.8113348
0
ARC
8
DEFAULT_255_1_234
10
22.6090255
20
60.6451049
40
0.3687189
50
323.6547608
51
342.6590488
0
ARC
8
DEFAULT_255_1_234
10
22.405887
20
60.7111952
40
0.5823286
50
342.4091907
51
353.6451149
0
ARC
8
DEFAULT_255_1_234
10
22.1227381
20
60.746419
40
0.8676442
50
353.4029884
51
359.4847795
0
LINE
8
DEFAULT_255_1_234
10
23.963794
20
61.3723211
11
23.963794
21
60.595652
0
LINE
8
DEFAULT_255_1_234
10
23.963794
20
60.595652
11
24.1260351
21
60.595652
0
LINE
8
DEFAULT_255_1_234
10
24.1260351
20
60.595652
11
24.1260351
21
60.4743728
0
LINE
8
DEFAULT_255_1_234
10
24.1260351
20
60.4743728
11
23.963794
21
60.4743728
0
LINE
8
DEFAULT_255_1_234
10
23.963794
20
60.4743728
11
23.963794
21
60.2029
0
LINE
8
DEFAULT_255_1_234
10
23.963794
20
60.2029
11
23.8144037
21
60.2029
0
LINE
8
DEFAULT_255_1_234
10
23.8144037
20
60.2029
11
23.8144037
21
60.4743728
0
LINE
8
DEFAULT_255_1_234
10
23.8144037
20
60.4743728
11
23.2818994
21
60.4743728
0
LINE
8
DEFAULT_255_1_234
10
23.2818994
20
60.4743728
11
23.2818994
21
60.5619187
0
LINE
8
DEFAULT_255_1_234
10
23.2818994
20
60.5619187
11
23.8055688
21
61.3723211
0
LINE
8
DEFAULT_255_1_234
10
23.8055688
20
61.3723211
11
23.963794
21
61.3723211
0
LINE
8
DEFAULT_255_1_234
10
23.7967338
20
61.1369912
11
23.4505659
21
60.595652
0
LINE
8
DEFAULT_255_1_234
10
23.4505659
20
60.595652
11
23.8144037
21
60.595652
0
LINE
8
DEFAULT_255_1_234
10
23.8144037
20
60.595652
11
23.8144037
21
61.1691181
0
LINE
8
DEFAULT_255_1_234
10
23.8144037
20
61.1691181
11
23.7967338
21
61.1369912
0
LINE
8
DEFAULT_255_1_234
10
21.5950154
20
68.1404
11
21.2713364
21
68.1404
0
LINE
8
DEFAULT_255_1_234
10
21.2713364
20
68.1404
11
21.2713364
21
69.3098211
0
LINE
8
DEFAULT_255_1_234
10
21.2713364
20
69.3098211
11
21.6014408
21
69.3098211
0
LINE
8
DEFAULT_255_1_234
10
22.1170784
20
68.7644661
11
22.1170784
21
68.6897709
0
LINE
8
DEFAULT_255_1_234
10
21.6054567
20
69.1829196
11
21.4255458
21
69.1829196
0
LINE
8
DEFAULT_255_1_234
10
21.4255458
20
69.1829196
11
21.4255458
21
68.2664983
0
LINE
8
DEFAULT_255_1_234
10
21.4255458
20
68.2664983
11
21.5877869
21
68.2664983
0
LINE
8
DEFAULT_255_1_234
10
21.9644754
20
68.6929836
11
21.9644754
21
68.7612534
0
ARC
8
DEFAULT_255_1_234
10
21.6053351
20
68.7232894
40
0.5865446
50
75.4101064
51
90.3804066
0
ARC
8
DEFAULT_255_1_234
10
21.6282864
20
68.8189492
40
0.4881916
50
60.145586
51
75.1888407
0
ARC
8
DEFAULT_255_1_234
10
21.644164
20
68.8466199
40
0.4562893
50
26.5253612
51
60.1450928
0
ARC
8
DEFAULT_255_1_234
10
21.5321389
20
68.7872158
40
0.5830602
50
7.4030428
51
26.8320788
0
ARC
8
DEFAULT_255_1_234
10
21.3727146
20
68.7623804
40
0.7443669
50
0.1605367
51
7.7176192
0
ARC
8
DEFAULT_255_1_234
10
21.389105
20
68.6859434
40
0.7279835
50
348.7289388
51
0.3012466
0
ARC
8
DEFAULT_255_1_234
10
21.5547481
20
68.6530386
40
0.559104
50
333.0706509
51
348.7181832
0
ARC
8
DEFAULT_255_1_234
10
21.6514238
20
68.6005319
40
0.4491417
50
299.2531685
51
333.4571258
0
ARC
8
DEFAULT_255_1_234
10
21.6153378
20
68.6690828
40
0.5265881
50
278.107187
51
299.0339503
0
ARC
8
DEFAULT_255_1_234
10
21.5897457
20
68.8198216
40
0.679442
50
270.4443897
51
278.4511052
0
ARC
8
DEFAULT_255_1_234
10
21.5918287
20
68.7269213
40
0.4604407
50
269.4970433
51
284.0205042
0
ARC
8
DEFAULT_255_1_234
10
21.6273588
20
68.5903978
40
0.3193797
50
283.7700273
51
318.1555492
0
ARC
8
DEFAULT_255_1_234
10
21.5936346
20
68.6156367
40
0.3613588
50
318.7415601
51
343.6873628
0
ARC
8
DEFAULT_255_1_234
10
21.4132369
20
68.6719832
40
0.5503313
50
343.3325091
51
355.8548958
0
ARC
8
DEFAULT_255_1_234
10
21.2034054
20
68.6919319
40
0.7610708
50
355.4988528
51
0.0791727
0
ARC
8
DEFAULT_255_1_234
10
21.2816676
20
68.765478
40
0.6828208
50
359.6455037
51
9.8607896
0
ARC
8
DEFAULT_255_1_234
10
21.5177374
20
68.8081099
40
0.4429406
50
9.6571907
51
26.1932807
0
ARC
8
DEFAULT_255_1_234
10
21.6105363
20
68.8512118
40
0.3406537
50
26.5777228
51
40.1532208
0
ARC
8
DEFAULT_255_1_234
10
21.6361089
20
68.8711619
40
0.308246
50
40.3840491
51
80.1431104
0
ARC
8
DEFAULT_255_1_234
10
21.6034207
20
68.7262333
40
0.4566909
50
79.2152159
51
89.7445637
0
LINE
8
DEFAULT_255_1_234
10
23.2495535
20
68.7612534
11
23.2495535
21
68.6873614
0
LINE
8
DEFAULT_255_1_234
10
22.309037
20
68.6769201
11
22.309037
21
68.7612534
0
LINE
8
DEFAULT_255_1_234
10
23.0961473
20
68.6761169
11
23.0961473
21
68.7628597
0
LINE
8
DEFAULT_255_1_234
10
22.4624432
20
68.773301
11
22.4624432
21
68.6873614
0
ARC
8
DEFAULT_255_1_234
10
22.3853562
20
68.6834015
40
0.8642064
50
350.487711
51
0.2625388
0
ARC
8
DEFAULT_255_1_234
10
22.6146803
20
68.6439578
40
0.631518
50
336.0277639
51
350.5787438
0
ARC
8
DEFAULT_255_1_234
10
22.7491626
20
68.5831892
40
0.4839466
50
319.8877444
51
336.1328423
0
ARC
8
DEFAULT_255_1_234
10
22.8094267
20
68.534958
40
0.4067874
50
302.4806467
51
319.6143626
0
ARC
8
DEFAULT_255_1_234
10
22.7979278
20
68.5571202
40
0.4316636
50
275.8195682
51
302.1884709
0
ARC
8
DEFAULT_255_1_234
10
22.7812911
20
68.6713665
40
0.5470306
50
269.9171439
51
276.3397983
0
ARC
8
DEFAULT_255_1_234
10
22.7768121
20
68.6027681
40
0.4784458
50
252.5219675
51
270.4416499
0
ARC
8
DEFAULT_255_1_234
10
22.762438
20
68.5488592
40
0.422716
50
237.5352116
51
252.1857531
0
ARC
8
DEFAULT_255_1_234
10
22.7713575
20
68.5602363
40
0.4371052
50
209.063312
51
237.3492538
0
ARC
8
DEFAULT_255_1_234
10
22.8583423
20
68.6148685
40
0.5397041
50
205.1183774
51
209.6470015
0
ARC
8
DEFAULT_255_1_234
10
22.938046
20
68.648683
40
0.6262326
50
188.7215458
51
204.8240747
0
ARC
8
DEFAULT_255_1_234
10
23.1377988
20
68.6823067
40
0.8287794
50
180.3723947
51
188.9252049
0
ARC
8
DEFAULT_255_1_234
10
23.135074
20
68.7652402
40
0.8260467
50
169.5253763
51
180.2765336
0
ARC
8
DEFAULT_255_1_234
10
22.9448189
20
68.8002309
40
0.6326007
50
155.8315255
51
169.5089989
0
ARC
8
DEFAULT_255_1_234
10
22.816769
20
68.8596348
40
0.4914567
50
139.6258461
51
156.0379525
0
ARC
8
DEFAULT_255_1_234
10
22.7578023
20
68.9070799
40
0.4158054
50
122.6416387
51
139.3430715
0
ARC
8
DEFAULT_255_1_234
10
22.7678643
20
68.8887451
40
0.4366739
50
93.0223692
51
122.455762
0
ARC
8
DEFAULT_255_1_234
10
22.778664
20
68.7922709
40
0.5336137
50
89.975342
51
93.6341897
0
ARC
8
DEFAULT_255_1_234
10
22.782542
20
68.8321242
40
0.4937738
50
73.746375
51
90.4233405
0
ARC
8
DEFAULT_255_1_234
10
22.8000998
20
68.9001287
40
0.4235786
50
57.662753
51
73.4518111
0
ARC
8
DEFAULT_255_1_234
10
22.7993004
20
68.9022832
40
0.4221899
50
29.1440151
51
57.414694
0
ARC
8
DEFAULT_255_1_234
10
22.7058199
20
68.8439005
40
0.5322966
50
24.0982783
51
29.7323517
0
ARC
8
DEFAULT_255_1_234
10
22.6024474
20
68.8010399
40
0.6441673
50
8.6655297
51
23.8241346
0
ARC
8
DEFAULT_255_1_234
10
22.3790212
20
68.7645854
40
0.8705386
50
359.7806941
51
8.8218784
0
ARC
8
DEFAULT_255_1_234
10
22.264321
20
68.7671345
40
0.8318373
50
359.7055579
51
8.036044
0
ARC
8
DEFAULT_255_1_234
10
22.5643216
20
68.8108239
40
0.5286768
50
7.8928306
51
20.2962107
0
ARC
8
DEFAULT_255_1_234
10
22.7270787
20
68.8708395
40
0.3552073
50
20.3231126
51
36.4992797
0
ARC
8
DEFAULT_255_1_234
10
22.7956333
20
68.9236402
40
0.2686974
50
36.1437156
51
85.6627023
0
ARC
8
DEFAULT_255_1_234
10
22.7793879
20
68.8196221
40
0.373739
50
84.3852322
51
90.0757696
0
ARC
8
DEFAULT_255_1_234
10
22.7751551
20
68.8856839
40
0.3076997
50
89.3038458
51
109.9045693
0
ARC
8
DEFAULT_255_1_234
10
22.7658942
20
68.9239062
40
0.2686424
50
110.8228367
51
143.9179474
0
ARC
8
DEFAULT_255_1_234
10
22.8592603
20
68.8526236
40
0.3860887
50
143.5289163
51
163.2980757
0
ARC
8
DEFAULT_255_1_234
10
23.0500423
20
68.7926433
40
0.5860659
50
163.0418846
51
174.3140048
0
ARC
8
DEFAULT_255_1_234
10
23.2904535
20
68.7648854
40
0.8280531
50
174.0509143
51
179.4176892
0
ARC
8
DEFAULT_255_1_234
10
23.2400274
20
68.6831954
40
0.7775954
50
179.6930361
51
188.7906598
0
ARC
8
DEFAULT_255_1_234
10
22.9736753
20
68.6405935
40
0.5078633
50
188.6331305
51
202.5629587
0
ARC
8
DEFAULT_255_1_234
10
22.8482345
20
68.5901996
40
0.3726913
50
202.8081362
51
216.1193925
0
ARC
8
DEFAULT_255_1_234
10
22.7672915
20
68.5250676
40
0.2689577
50
215.0755913
51
264.6379694
0
ARC
8
DEFAULT_255_1_234
10
22.7799865
20
68.6081513
40
0.3528978
50
263.846392
51
270.0833719
0
ARC
8
DEFAULT_255_1_234
10
22.7841255
20
68.5823374
40
0.3271036
50
269.3649385
51
287.5152008
0
ARC
8
DEFAULT_255_1_234
10
22.8019413
20
68.5176238
40
0.2600406
50
288.0630309
51
323.8113348
0
ARC
8
DEFAULT_255_1_234
10
22.7148255
20
68.5826049
40
0.3687189
50
323.6547608
51
342.6590488
0
ARC
8
DEFAULT_255_1_234
10
22.511687
20
68.6486952
40
0.5823286
50
342.4091907
51
353.6451149
0
ARC
8
DEFAULT_255_1_234
10
22.2285381
20
68.683919
40
0.8676442
50
353.4029884
51
359.4847795
0
LINE
8
DEFAULT_255_1_234
10
23.658369
20
68.6761169
11
23.658369
21
68.7973962
0
LINE
8
DEFAULT_255_1_234
10
23.658369
20
68.7973962
11
23.7700102
21
68.7973962
0
LINE
8
DEFAULT_255_1_234
10
23.579658
20
69.0030087
11
23.4310708
21
69.0030087
0
LINE
8
DEFAULT_255_1_234
10
23.4206295
20
68.4488188
11
23.5700199
21
68.4488188
0
LINE
8
DEFAULT_255_1_234
10
23.7700102
20
68.6761169
11
23.658369
21
68.6761169
0
ARC
8
DEFAULT_255_1_234
10
23.7670968
20
69.1366713
40
0.3392876
50
270.4919872
51
281.8951556
0
ARC
8
DEFAULT_255_1_234
10
23.791223
20
69.0264702
40
0.2264817
50
281.6691735
51
301.2943132
0
ARC
8
DEFAULT_255_1_234
10
23.808244
20
68.9953304
40
0.1910381
50
301.7833094
51
311.7545298
0
ARC
8
DEFAULT_255_1_234
10
23.8174016
20
68.9851748
40
0.1773635
50
311.7323931
51
354.2802411
0
ARC
8
DEFAULT_255_1_234
10
23.7447641
20
68.9976722
40
0.2509385
50
353.0937916
51
0.1181479
0
ARC
8
DEFAULT_255_1_234
10
23.6986426
20
69.0024386
40
0.2970898
50
359.1805295
51
15.0453146
0
ARC
8
DEFAULT_255_1_234
10
23.8332263
20
69.0416992
40
0.1569564
50
13.9577229
51
77.6713066
0
ARC
8
DEFAULT_255_1_234
10
23.7945792
20
68.9031949
40
0.3006298
50
76.1116566
51
90.7026153
0
ARC
8
DEFAULT_255_1_234
10
23.788663
20
68.9305545
40
0.2732568
50
89.5324876
51
103.531937
0
ARC
8
DEFAULT_255_1_234
10
23.7686074
20
69.0104884
40
0.1908508
50
103.2931773
51
133.5619022
0
ARC
8
DEFAULT_255_1_234
10
23.7641563
20
69.0164375
40
0.1834746
50
133.8349307
51
173.5344437
0
ARC
8
DEFAULT_255_1_234
10
23.8364606
20
69.0036213
40
0.2568033
50
172.5096846
51
180.1366907
0
ARC
8
DEFAULT_255_1_234
10
23.74135
20
69.0070622
40
0.3103056
50
155.3484492
51
180.7484736
0
ARC
8
DEFAULT_255_1_234
10
23.7364589
20
69.0041846
40
0.3070957
50
131.5744599
51
154.4798489
0
ARC
8
DEFAULT_255_1_234
10
23.7677736
20
68.972531
40
0.3515643
50
96.9875458
51
131.9690667
0
ARC
8
DEFAULT_255_1_234
10
23.7897216
20
68.8479636
40
0.4779224
50
89.8596053
51
97.7825159
0
ARC
8
DEFAULT_255_1_234
10
23.7945279
20
68.8217616
40
0.5041361
50
78.3655447
51
90.4131539
0
ARC
8
DEFAULT_255_1_234
10
23.8303197
20
68.9876887
40
0.3344039
50
56.6229102
51
78.638727
0
ARC
8
DEFAULT_255_1_234
10
23.8518141
20
69.0252805
40
0.2912001
50
47.0253525
51
56.0854072
0
ARC
8
DEFAULT_255_1_234
10
23.8537921
20
69.0292223
40
0.2869704
50
10.9208013
51
46.7778124
0
ARC
8
DEFAULT_255_1_234
10
23.7173987
20
68.9976857
40
0.426899
50
359.6364486
51
11.6087304
0
ARC
8
DEFAULT_255_1_234
10
23.9008831
20
68.9961752
40
0.243409
50
332.3549906
51
359.7179418
0
ARC
8
DEFAULT_255_1_234
10
23.8358433
20
69.0270142
40
0.3153459
50
325.2333722
51
332.8745602
0
ARC
8
DEFAULT_255_1_234
10
23.8511056
20
69.0163828
40
0.2967456
50
292.9802137
51
325.2392345
0
ARC
8
DEFAULT_255_1_234
10
23.823643
20
69.0697863
40
0.3566604
50
292.5402179
51
293.6924929
0
ARC
8
DEFAULT_255_1_234
10
23.8629026
20
68.4243091
40
0.3307468
50
57.6435486
51
72.8625112
0
ARC
8
DEFAULT_255_1_234
10
23.8983526
20
68.4817549
40
0.2632492
50
36.7248896
51
57.4697979
0
ARC
8
DEFAULT_255_1_234
10
23.8972159
20
68.483022
40
0.2634081
50
8.0545065
51
36.356114
0
ARC
8
DEFAULT_255_1_234
10
23.8109344
20
68.4675174
40
0.3510261
50
359.8320645
51
8.5869982
0
ARC
8
DEFAULT_255_1_234
10
23.773412
20
68.4627101
40
0.3885653
50
343.9829931
51
0.5571613
0
ARC
8
DEFAULT_255_1_234
10
23.8620317
20
68.4384438
40
0.2966924
50
311.6359546
51
343.7651759
0
ARC
8
DEFAULT_255_1_234
10
23.8241886
20
68.4811102
40
0.3537231
50
279.7829875
51
311.6255694
0
ARC
8
DEFAULT_255_1_234
10
23.7940663
20
68.624828
40
0.5004971
50
269.7286406
51
280.3856417
0
ARC
8
DEFAULT_255_1_234
10
23.7878735
20
68.6206996
40
0.4963778
50
256.6828919
51
270.4412052
0
ARC
8
DEFAULT_255_1_234
10
23.7540031
20
68.4822394
40
0.3538406
50
229.4223008
51
256.8556159
0
ARC
8
DEFAULT_255_1_234
10
23.7125424
20
68.4355736
40
0.2914296
50
181.818294
51
229.6455059
0
ARC
8
DEFAULT_255_1_234
10
23.816538
20
68.4486496
40
0.3959084
50
179.9755256
51
183.2323064
0
ARC
8
DEFAULT_255_1_234
10
23.7993126
20
68.4466037
40
0.2293034
50
179.4465117
51
196.2869258
0
ARC
8
DEFAULT_255_1_234
10
23.7505534
20
68.4332651
40
0.1787621
50
196.5661473
51
227.705904
0
ARC
8
DEFAULT_255_1_234
10
23.7669629
20
68.4516155
40
0.2033784
50
227.7652068
51
257.8762805
0
ARC
8
DEFAULT_255_1_234
10
23.7894599
20
68.5459156
40
0.3003081
50
257.4584385
51
270.426602
0
ARC
8
DEFAULT_255_1_234
10
23.7940165
20
68.5748996
40
0.329292
50
269.5962073
51
280.8789248
0
ARC
8
DEFAULT_255_1_234
10
23.8169694
20
68.4602685
40
0.2123908
50
280.6346389
51
299.8595945
0
ARC
8
DEFAULT_255_1_234
10
23.8360601
20
68.4240212
40
0.171457
50
300.3576302
51
314.5517981
0
ARC
8
DEFAULT_255_1_234
10
23.8277661
20
68.4300919
40
0.1816095
50
315.0728369
51
345.0431014
0
ARC
8
DEFAULT_255_1_234
10
23.7354475
20
68.4569841
40
0.2777492
50
344.5986631
51
357.9269593
0
ARC
8
DEFAULT_255_1_234
10
23.6458802
20
68.4631276
40
0.3674917
50
357.4748886
51
0.0231117
0
ARC
8
DEFAULT_255_1_234
10
23.7481911
20
68.4655679
40
0.2651907
50
359.5047933
51
13.4239635
0
ARC
8
DEFAULT_255_1_234
10
23.8348554
20
68.4877478
40
0.1757509
50
12.9498199
51
48.7551375
0
ARC
8
DEFAULT_255_1_234
10
23.8166288
20
68.46284
40
0.2065134
50
49.5088623
51
72.1836453
0
ARC
8
DEFAULT_255_1_234
10
23.7808441
20
68.3566291
40
0.3185836
50
71.9010081
51
84.3554254
0
ARC
8
DEFAULT_255_1_234
10
23.7647073
20
68.2205326
40
0.4556151
50
84.0193428
51
89.333121
0
LINE
8
DEFAULT_255_1_234
10
21.5950154
20
76.0779
11
21.2713364
21
76.0779
0
LINE
8
DEFAULT_255_1_234
10
21.2713364
20
76.0779
11
21.2713364
21
77.2473211
0
LINE
8
DEFAULT_255_1_234
10
21.2713364
20
77.2473211
11
21.6014408
21
77.2473211
0
LINE
8
DEFAULT_255_1_234
10
22.1170784
20
76.7019661
11
22.1170784
21
76.6272709
0
LINE
8
DEFAULT_255_1_234
10
21.6054567
20
77.1204196
11
21.4255458
21
77.1204196
0
LINE
8
DEFAULT_255_1_234
10
21.4255458
20
77.1204196
11
21.4255458
21
76.2039983
0
LINE
8
DEFAULT_255_1_234
10
21.4255458
20
76.2039983
11
21.5877869
21
76.2039983
0
LINE
8
DEFAULT_255_1_234
10
21.9644754
20
76.6304836
11
21.9644754
21
76.6987534
0
ARC
8
DEFAULT_255_1_234
10
21.6053351
20
76.6607894
40
0.5865446
50
75.4101064
51
90.3804066
0
ARC
8
DEFAULT_255_1_234
10
21.6282864
20
76.7564492
40
0.4881916
50
60.145586
51
75.1888407
0
ARC
8
DEFAULT_255_1_234
10
21.644164
20
76.7841199
40
0.4562893
50
26.5253612
51
60.1450928
0
ARC
8
DEFAULT_255_1_234
10
21.5321389
20
76.7247158
40
0.5830602
50
7.4030428
51
26.8320788
0
ARC
8
DEFAULT_255_1_234
10
21.3727146
20
76.6998804
40
0.7443669
50
0.1605367
51
7.7176192
0
ARC
8
DEFAULT_255_1_234
10
21.389105
20
76.6234434
40
0.7279835
50
348.7289388
51
0.3012466
0
ARC
8
DEFAULT_255_1_234
10
21.5547481
20
76.5905386
40
0.559104
50
333.0706509
51
348.7181832
0
ARC
8
DEFAULT_255_1_234
10
21.6514238
20
76.5380319
40
0.4491417
50
299.2531685
51
333.4571258
0
ARC
8
DEFAULT_255_1_234
10
21.6153378
20
76.6065828
40
0.5265881
50
278.107187
51
299.0339503
0
ARC
8
DEFAULT_255_1_234
10
21.5897457
20
76.7573216
40
0.679442
50
270.4443897
51
278.4511052
0
ARC
8
DEFAULT_255_1_234
10
21.5918287
20
76.6644213
40
0.4604407
50
269.4970433
51
284.0205042
0
ARC
8
DEFAULT_255_1_234
10
21.6273588
20
76.5278978
40
0.3193797
50
283.7700273
51
318.1555492
0
ARC
8
DEFAULT_255_1_234
10
21.5936346
20
76.5531367
40
0.3613588
50
318.7415601
51
343.6873628
0
ARC
8
DEFAULT_255_1_234
10
21.4132369
20
76.6094832
40
0.5503313
50
343.3325091
51
355.8548958
0
ARC
8
DEFAULT_255_1_234
10
21.2034054
20
76.6294319
40
0.7610708
50
355.4988528
51
0.0791727
0
ARC
8
DEFAULT_255_1_234
10
21.2816676
20
76.702978
40
0.6828208
50
359.6455037
51
9.8607896
0
ARC
8
DEFAULT_255_1_234
10
21.5177374
20
76.7456099
40
0.4429406
50
9.6571907
51
26.1932807
0
ARC
8
DEFAULT_255_1_234
10
21.6105363
20
76.7887118
40
0.3406537
50
26.5777228
51
40.1532208
0
ARC
8
DEFAULT_255_1_234
10
21.6361089
20
76.8086619
40
0.308246
50
40.3840491
51
80.1431104
0
ARC
8
DEFAULT_255_1_234
10
21.6034207
20
76.6637333
40
0.4566909
50
79.2152159
51
89.7445637
0
LINE
8
DEFAULT_255_1_234
10
23.2495535
20
76.6987534
11
23.2495535
21
76.6248614
0
LINE
8
DEFAULT_255_1_234
10
22.309037
20
76.6144201
11
22.309037
21
76.6987534
0
LINE
8
DEFAULT_255_1_234
10
23.0961473
20
76.6136169
11
23.0961473
21
76.7003597
0
LINE
8
DEFAULT_255_1_234
10
22.4624432
20
76.710801
11
22.4624432
21
76.6248614
0
ARC
8
DEFAULT_255_1_234
10
22.3853562
20
76.6209015
40
0.8642064
50
350.487711
51
0.2625388
0
ARC
8
DEFAULT_255_1_234
10
22.6146803
20
76.5814578
40
0.631518
50
336.0277639
51
350.5787438
0
ARC
8
DEFAULT_255_1_234
10
22.7491626
20
76.5206892
40
0.4839466
50
319.8877444
51
336.1328423
0
ARC
8
DEFAULT_255_1_234
10
22.8094267
20
76.472458
40
0.4067874
50
302.4806467
51
319.6143626
0
ARC
8
DEFAULT_255_1_234
10
22.7979278
20
76.4946202
40
0.4316636
50
275.8195682
51
302.1884709
0
ARC
8
DEFAULT_255_1_234
10
22.7812911
20
76.6088665
40
0.5470306
50
269.9171439
51
276.3397983
0
ARC
8
DEFAULT_255_1_234
10
22.7768121
20
76.5402681
40
0.4784458
50
252.5219675
51
270.4416499
0
ARC
8
DEFAULT_255_1_234
10
22.762438
20
76.4863592
40
0.422716
50
237.5352116
51
252.1857531
0
ARC
8
DEFAULT_255_1_234
10
22.7713575
20
76.4977363
40
0.4371052
50
209.063312
51
237.3492538
0
ARC
8
DEFAULT_255_1_234
10
22.8583423
20
76.5523685
40
0.5397041
50
205.1183774
51
209.6470015
0
ARC
8
DEFAULT_255_1_234
10
22.938046
20
76.586183
40
0.6262326
50
188.7215458
51
204.8240747
0
ARC
8
DEFAULT_255_1_234
10
23.1377988
20
76.6198067
40
0.8287794
50
180.3723947
51
188.9252049
0
ARC
8
DEFAULT_255_1_234
10
23.135074
20
76.7027402
40
0.8260467
50
169.5253763
51
180.2765336
0
ARC
8
DEFAULT_255_1_234
10
22.9448189
20
76.7377309
40
0.6326007
50
155.8315255
51
169.5089989
0
ARC
8
DEFAULT_255_1_234
10
22.816769
20
76.7971348
40
0.4914567
50
139.6258461
51
156.0379525
0
ARC
8
DEFAULT_255_1_234
10
22.7578023
20
76.8445799
40
0.4158054
50
122.6416387
51
139.3430715
0
ARC
8
DEFAULT_255_1_234
10
22.7678643
20
76.8262451
40
0.4366739
50
93.0223692
51
122.455762
0
ARC
8
DEFAULT_255_1_234
10
22.778664
20
76.7297709
40
0.5336137
50
89.975342
51
93.6341897
0
ARC
8
DEFAULT_255_1_234
10
22.782542
20
76.7696242
40
0.4937738
50
73.746375
51
90.4233405
0
ARC
8
DEFAULT_255_1_234
10
22.8000998
20
76.8376287
40
0.4235786
50
57.662753
51
73.4518111
0
ARC
8
DEFAULT_255_1_234
10
22.7993004
20
76.8397832
40
0.4221899
50
29.1440151
51
57.414694
0
ARC
8
DEFAULT_255_1_234
10
22.7058199
20
76.7814005
40
0.5322966
50
24.0982783
51
29.7323517
0
ARC
8
DEFAULT_255_1_234
10
22.6024474
20
76.7385399
40
0.6441673
50
8.6655297
51
23.8241346
0
ARC
8
DEFAULT_255_1_234
10
22.3790212
20
76.7020854
40
0.8705386
50
359.7806941
51
8.8218784
0
ARC
8
DEFAULT_255_1_234
10
22.264321
20
76.7046345
40
0.8318373
50
359.7055579
51
8.036044
0
ARC
8
DEFAULT_255_1_234
10
22.5643216
20
76.7483239
40
0.5286768
50
7.8928306
51
20.2962107
0
ARC
8
DEFAULT_255_1_234
10
22.7270787
20
76.8083395
40
0.3552073
50
20.3231126
51
36.4992797
0
ARC
8
DEFAULT_255_1_234
10
22.7956333
20
76.8611402
40
0.2686974
50
36.1437156
51
85.6627023
0
ARC
8
DEFAULT_255_1_234
10
22.7793879
20
76.7571221
40
0.373739
50
84.3852322
51
90.0757696
0
ARC
8
DEFAULT_255_1_234
10
22.7751551
20
76.8231839
40
0.3076997
50
89.3038458
51
109.9045693
0
ARC
8
DEFAULT_255_1_234
10
22.7658942
20
76.8614062
40
0.2686424
50
110.8228367
51
143.9179474
0
ARC
8
DEFAULT_255_1_234
10
22.8592603
20
76.7901236
40
0.3860887
50
143.5289163
51
163.2980757
0
ARC
8
DEFAULT_255_1_234
10
23.0500423
20
76.7301433
40
0.5860659
50
163.0418846
51
174.3140048
0
ARC
8
DEFAULT_255_1_234
10
23.2904535
20
76.7023854
40
0.8280531
50
174.0509143
51
179.4176892
0
ARC
8
DEFAULT_255_1_234
10
23.2400274
20
76.6206954
40
0.7775954
50
179.6930361
51
188.7906598
0
ARC
8
DEFAULT_255_1_234
10
22.9736753
20
76.5780935
40
0.5078633
50
188.6331305
51
202.5629587
0
ARC
8
DEFAULT_255_1_234
10
22.8482345
20
76.5276996
40
0.3726913
50
202.8081362
51
216.1193925
0
ARC
8
DEFAULT_255_1_234
10
22.7672915
20
76.4625676
40
0.2689577
50
215.0755913
51
264.6379694
0
ARC
8
DEFAULT_255_1_234
10
22.7799865
20
76.5456513
40
0.3528978
50
263.846392
51
270.0833719
0
ARC
8
DEFAULT_255_1_234
10
22.7841255
20
76.5198374
40
0.3271036
50
269.3649385
51
287.5152008
0
ARC
8
DEFAULT_255_1_234
10
22.8019413
20
76.4551238
40
0.2600406
50
288.0630309
51
323.8113348
0
ARC
8
DEFAULT_255_1_234
10
22.7148255
20
76.5201049
40
0.3687189
50
323.6547608
51
342.6590488
0
ARC
8
DEFAULT_255_1_234
10
22.511687
20
76.5861952
40
0.5823286
50
342.4091907
51
353.6451149
0
ARC
8
DEFAULT_255_1_234
10
22.2285381
20
76.621419
40
0.8676442
50
353.4029884
51
359.4847795
0
LINE
8
DEFAULT_255_1_234
10
24.2085431
20
76.1991792
11
24.2085431
21
76.0779
0
LINE
8
DEFAULT_255_1_234
10
24.2085431
20
76.0779
11
23.4423152
21
76.0779
0
LINE
8
DEFAULT_255_1_234
10
23.4423152
20
76.0779
11
23.4423152
21
76.1847221
0
LINE
8
DEFAULT_255_1_234
10
23.4423152
20
76.1847221
11
23.8471148
21
76.6344995
0
LINE
8
DEFAULT_255_1_234
10
23.5684135
20
76.9027595
11
23.4198264
21
76.9027595
0
LINE
8
DEFAULT_255_1_234
10
23.9346608
20
76.5389218
11
23.621423
21
76.1991792
0
LINE
8
DEFAULT_255_1_234
10
23.621423
20
76.1991792
11
24.2085431
21
76.1991792
0
ARC
8
DEFAULT_255_1_234
10
22.4980982
20
77.8274527
40
1.8008286
50
318.5132453
51
320.7828378
0
ARC
8
DEFAULT_255_1_234
10
23.0267956
20
77.3971426
40
1.1191493
50
320.7372736
51
323.9737074
0
ARC
8
DEFAULT_255_1_234
10
23.4187813
20
77.1131361
40
0.6350923
50
323.8961724
51
328.6421089
0
ARC
8
DEFAULT_255_1_234
10
23.6234408
20
76.9869031
40
0.3946393
50
328.8299013
51
331.789948
0
ARC
8
DEFAULT_255_1_234
10
23.7231586
20
76.9354509
40
0.2824501
50
331.4255242
51
352.9364833
0
ARC
8
DEFAULT_255_1_234
10
23.7368087
20
76.9323976
40
0.2685315
50
353.2248685
51
0.0169286
0
ARC
8
DEFAULT_255_1_234
10
23.7577964
20
76.934695
40
0.2475536
50
359.4866256
51
15.9339782
0
ARC
8
DEFAULT_255_1_234
10
23.8084949
20
76.9483286
40
0.1950618
50
16.1714718
51
43.5284424
0
ARC
8
DEFAULT_255_1_234
10
23.8162258
20
76.9560573
40
0.184134
50
43.4415429
51
83.1661404
0
ARC
8
DEFAULT_255_1_234
10
23.8028176
20
76.8823771
40
0.258926
50
82.160215
51
90.1505798
0
ARC
8
DEFAULT_255_1_234
10
23.7996603
20
76.8286865
40
0.3126255
50
89.5460705
51
102.5418777
0
ARC
8
DEFAULT_255_1_234
10
23.7753689
20
76.9317665
40
0.2067346
50
102.1739365
51
129.2061916
0
ARC
8
DEFAULT_255_1_234
10
23.7674761
20
76.9442094
40
0.1921118
50
129.7279328
51
135.7542026
0
ARC
8
DEFAULT_255_1_234
10
23.7796289
20
76.9345045
40
0.2075944
50
136.175737
51
166.3674722
0
ARC
8
DEFAULT_255_1_234
10
23.8803208
20
76.9075182
40
0.3118201
50
165.9092917
51
178.8683903
0
ARC
8
DEFAULT_255_1_234
10
23.9668069
20
76.9028179
40
0.3983935
50
178.438168
51
180.0083905
0
ARC
8
DEFAULT_255_1_234
10
23.8266671
20
76.9067231
40
0.4068601
50
163.2878735
51
180.5581814
0
ARC
8
DEFAULT_255_1_234
10
23.7464933
20
76.928784
40
0.3237344
50
133.454115
51
162.9470031
0
ARC
8
DEFAULT_255_1_234
10
23.7643474
20
76.9098
40
0.349795
50
100.7869394
51
133.4384016
0
ARC
8
DEFAULT_255_1_234
10
23.7991246
20
76.7549319
40
0.5084616
50
89.6605301
51
101.3704185
0
ARC
8
DEFAULT_255_1_234
10
23.8057585
20
76.7610496
40
0.502348
50
78.2171172
51
90.4130393
0
ARC
8
DEFAULT_255_1_234
10
23.8412663
20
76.9234637
40
0.3361092
50
55.9268222
51
78.4888551
0
ARC
8
DEFAULT_255_1_234
10
23.8609103
20
76.9573324
40
0.2970617
50
47.9292255
51
55.4054003
0
ARC
8
DEFAULT_255_1_234
10
23.8710664
20
76.9676502
40
0.2825983
50
4.3347696
51
48.0560701
0
ARC
8
DEFAULT_255_1_234
10
23.7615057
20
76.9506601
40
0.393225
50
359.925209
51
5.5967654
0
ARC
8
DEFAULT_255_1_234
10
23.8043949
20
76.9562816
40
0.3503892
50
337.8914096
51
358.9967724
0
ARC
8
DEFAULT_255_1_234
10
23.5330361
20
77.0609706
40
0.6412172
50
326.9135351
51
338.3505194
0
ARC
8
DEFAULT_255_1_234
10
23.1344665
20
77.3164284
40
1.1146189
50
319.6472867
51
327.095818
0
ARC
8
DEFAULT_255_1_234
10
22.7511668
20
77.6326
40
1.6114559
50
317.2586784
51
319.9046139
0
LINE
8
DEFAULT_255_1_234
10
21.6037154
20
84.0154
11
21.2800364
21
84.0154
0
LINE
8
DEFAULT_255_1_234
10
21.2800364
20
84.0154
11
21.2800364
21
85.1848211
0
LINE
8
DEFAULT_255_1_234
10
21.2800364
20
85.1848211
11
21.6101408
21
85.1848211
0
LINE
8
DEFAULT_255_1_234
10
22.1257784
20
84.6394661
11
22.1257784
21
84.5647709
0
LINE
8
DEFAULT_255_1_234
10
21.6141567
20
85.0579196
11
21.4342458
21
85.0579196
0
LINE
8
DEFAULT_255_1_234
10
21.4342458
20
85.0579196
11
21.4342458
21
84.1414983
0
LINE
8
DEFAULT_255_1_234
10
21.4342458
20
84.1414983
11
21.5964869
21
84.1414983
0
LINE
8
DEFAULT_255_1_234
10
21.9731754
20
84.5679836
11
21.9731754
21
84.6362534
0
ARC
8
DEFAULT_255_1_234
10
21.6140351
20
84.5982894
40
0.5865446
50
75.4101064
51
90.3804066
0
ARC
8
DEFAULT_255_1_234
10
21.6369864
20
84.6939492
40
0.4881916
50
60.145586
51
75.1888407
0
ARC
8
DEFAULT_255_1_234
10
21.652864
20
84.7216199
40
0.4562893
50
26.5253612
51
60.1450928
0
ARC
8
DEFAULT_255_1_234
10
21.5408389
20
84.6622158
40
0.5830602
50
7.4030428
51
26.8320788
0
ARC
8
DEFAULT_255_1_234
10
21.3814146
20
84.6373804
40
0.7443669
50
0.1605367
51
7.7176192
0
ARC
8
DEFAULT_255_1_234
10
21.397805
20
84.5609434
40
0.7279835
50
348.7289388
51
0.3012466
0
ARC
8
DEFAULT_255_1_234
10
21.5634481
20
84.5280386
40
0.559104
50
333.0706509
51
348.7181832
0
ARC
8
DEFAULT_255_1_234
10
21.6601238
20
84.4755319
40
0.4491417
50
299.2531685
51
333.4571258
0
ARC
8
DEFAULT_255_1_234
10
21.6240378
20
84.5440828
40
0.5265881
50
278.107187
51
299.0339503
0
ARC
8
DEFAULT_255_1_234
10
21.5984457
20
84.6948216
40
0.679442
50
270.4443897
51
278.4511052
0
ARC
8
DEFAULT_255_1_234
10
21.6005287
20
84.6019213
40
0.4604407
50
269.4970433
51
284.0205042
0
ARC
8
DEFAULT_255_1_234
10
21.6360588
20
84.4653978
40
0.3193797
50
283.7700273
51
318.1555492
0
ARC
8
DEFAULT_255_1_234
10
21.6023346
20
84.4906367
40
0.3613588
50
318.7415601
51
343.6873628
0
ARC
8
DEFAULT_255_1_234
10
21.4219369
20
84.5469832
40
0.5503313
50
343.3325091
51
355.8548958
0
ARC
8
DEFAULT_255_1_234
10
21.2121054
20
84.5669319
40
0.7610708
50
355.4988528
51
0.0791727
0
ARC
8
DEFAULT_255_1_234
10
21.2903676
20
84.640478
40
0.6828208
50
359.6455037
51
9.8607896
0
ARC
8
DEFAULT_255_1_234
10
21.5264374
20
84.6831099
40
0.4429406
50
9.6571907
51
26.1932807
0
ARC
8
DEFAULT_255_1_234
10
21.6192363
20
84.7262118
40
0.3406537
50
26.5777228
51
40.1532208
0
ARC
8
DEFAULT_255_1_234
10
21.6448089
20
84.7461619
40
0.308246
50
40.3840491
51
80.1431104
0
ARC
8
DEFAULT_255_1_234
10
21.6121207
20
84.6012333
40
0.4566909
50
79.2152159
51
89.7445637
0
LINE
8
DEFAULT_255_1_234
10
23.2582535
20
84.6362534
11
23.2582535
21
84.5623614
0
LINE
8
DEFAULT_255_1_234
10
22.317737
20
84.5519201
11
22.317737
21
84.6362534
0
LINE
8
DEFAULT_255_1_234
10
23.1048473
20
84.5511169
11
23.1048473
21
84.6378597
0
LINE
8
DEFAULT_255_1_234
10
22.4711432
20
84.648301
11
22.4711432
21
84.5623614
0
ARC
8
DEFAULT_255_1_234
10
22.3940562
20
84.5584015
40
0.8642064
50
350.487711
51
0.2625388
0
ARC
8
DEFAULT_255_1_234
10
22.6233803
20
84.5189578
40
0.631518
50
336.0277639
51
350.5787438
0
ARC
8
DEFAULT_255_1_234
10
22.7578626
20
84.4581892
40
0.4839466
50
319.8877444
51
336.1328423
0
ARC
8
DEFAULT_255_1_234
10
22.8181267
20
84.409958
40
0.4067874
50
302.4806467
51
319.6143626
0
ARC
8
DEFAULT_255_1_234
10
22.8066278
20
84.4321202
40
0.4316636
50
275.8195682
51
302.1884709
0
ARC
8
DEFAULT_255_1_234
10
22.7899911
20
84.5463665
40
0.5470306
50
269.9171439
51
276.3397983
0
ARC
8
DEFAULT_255_1_234
10
22.7855121
20
84.4777681
40
0.4784458
50
252.5219675
51
270.4416499
0
ARC
8
DEFAULT_255_1_234
10
22.771138
20
84.4238592
40
0.422716
50
237.5352116
51
252.1857531
0
ARC
8
DEFAULT_255_1_234
10
22.7800575
20
84.4352363
40
0.4371052
50
209.063312
51
237.3492538
0
ARC
8
DEFAULT_255_1_234
10
22.8670423
20
84.4898685
40
0.5397041
50
205.1183774
51
209.6470015
0
ARC
8
DEFAULT_255_1_234
10
22.946746
20
84.523683
40
0.6262326
50
188.7215458
51
204.8240747
0
ARC
8
DEFAULT_255_1_234
10
23.1464988
20
84.5573067
40
0.8287794
50
180.3723947
51
188.9252049
0
ARC
8
DEFAULT_255_1_234
10
23.143774
20
84.6402402
40
0.8260467
50
169.5253763
51
180.2765336
0
ARC
8
DEFAULT_255_1_234
10
22.9535189
20
84.6752309
40
0.6326007
50
155.8315255
51
169.5089989
0
ARC
8
DEFAULT_255_1_234
10
22.825469
20
84.7346348
40
0.4914567
50
139.6258461
51
156.0379525
0
ARC
8
DEFAULT_255_1_234
10
22.7665023
20
84.7820799
40
0.4158054
50
122.6416387
51
139.3430715
0
ARC
8
DEFAULT_255_1_234
10
22.7765643
20
84.7637451
40
0.4366739
50
93.0223692
51
122.455762
0
ARC
8
DEFAULT_255_1_234
10
22.787364
20
84.6672709
40
0.5336137
50
89.975342
51
93.6341897
0
ARC
8
DEFAULT_255_1_234
10
22.791242
20
84.7071242
40
0.4937738
50
73.746375
51
90.4233405
0
ARC
8
DEFAULT_255_1_234
10
22.8087998
20
84.7751287
40
0.4235786
50
57.662753
51
73.4518111
0
ARC
8
DEFAULT_255_1_234
10
22.8080004
20
84.7772832
40
0.4221899
50
29.1440151
51
57.414694
0
ARC
8
DEFAULT_255_1_234
10
22.7145199
20
84.7189005
40
0.5322966
50
24.0982783
51
29.7323517
0
ARC
8
DEFAULT_255_1_234
10
22.6111474
20
84.6760399
40
0.6441673
50
8.6655297
51
23.8241346
0
ARC
8
DEFAULT_255_1_234
10
22.3877212
20
84.6395854
40
0.8705386
50
359.7806941
51
8.8218784
0
ARC
8
DEFAULT_255_1_234
10
22.273021
20
84.6421345
40
0.8318373
50
359.7055579
51
8.036044
0
ARC
8
DEFAULT_255_1_234
10
22.5730216
20
84.6858239
40
0.5286768
50
7.8928306
51
20.2962107
0
ARC
8
DEFAULT_255_1_234
10
22.7357787
20
84.7458395
40
0.3552073
50
20.3231126
51
36.4992797
0
ARC
8
DEFAULT_255_1_234
10
22.8043333
20
84.7986402
40
0.2686974
50
36.1437156
51
85.6627023
0
ARC
8
DEFAULT_255_1_234
10
22.7880879
20
84.6946221
40
0.373739
50
84.3852322
51
90.0757696
0
ARC
8
DEFAULT_255_1_234
10
22.7838551
20
84.7606839
40
0.3076997
50
89.3038458
51
109.9045693
0
ARC
8
DEFAULT_255_1_234
10
22.7745942
20
84.7989062
40
0.2686424
50
110.8228367
51
143.9179474
0
ARC
8
DEFAULT_255_1_234
10
22.8679603
20
84.7276236
40
0.3860887
50
143.5289163
51
163.2980757
0
ARC
8
DEFAULT_255_1_234
10
23.0587423
20
84.6676433
40
0.5860659
50
163.0418846
51
174.3140048
0
ARC
8
DEFAULT_255_1_234
10
23.2991535
20
84.6398854
40
0.8280531
50
174.0509143
51
179.4176892
0
ARC
8
DEFAULT_255_1_234
10
23.2487274
20
84.5581954
40
0.7775954
50
179.6930361
51
188.7906598
0
ARC
8
DEFAULT_255_1_234
10
22.9823753
20
84.5155935
40
0.5078633
50
188.6331305
51
202.5629587
0
ARC
8
DEFAULT_255_1_234
10
22.8569345
20
84.4651996
40
0.3726913
50
202.8081362
51
216.1193925
0
ARC
8
DEFAULT_255_1_234
10
22.7759915
20
84.4000676
40
0.2689577
50
215.0755913
51
264.6379694
0
ARC
8
DEFAULT_255_1_234
10
22.7886865
20
84.4831513
40
0.3528978
50
263.846392
51
270.0833719
0
ARC
8
DEFAULT_255_1_234
10
22.7928255
20
84.4573374
40
0.3271036
50
269.3649385
51
287.5152008
0
ARC
8
DEFAULT_255_1_234
10
22.8106413
20
84.3926238
40
0.2600406
50
288.0630309
51
323.8113348
0
ARC
8
DEFAULT_255_1_234
10
22.7235255
20
84.4576049
40
0.3687189
50
323.6547608
51
342.6590488
0
ARC
8
DEFAULT_255_1_234
10
22.520387
20
84.5236952
40
0.5823286
50
342.4091907
51
353.6451149
0
ARC
8
DEFAULT_255_1_234
10
22.2372381
20
84.558919
40
0.8676442
50
353.4029884
51
359.4847795
0
LINE
8
DEFAULT_255_1_234
10
23.9393449
20
85.1904433
11
23.9393449
21
84.0154
0
LINE
8
DEFAULT_255_1_234
10
23.9393449
20
84.0154
11
23.7899546
21
84.0154
0
LINE
8
DEFAULT_255_1_234
10
23.7899546
20
84.0154
11
23.7899546
21
85.0057133
0
LINE
8
DEFAULT_255_1_234
10
23.7899546
20
85.0057133
11
23.4903708
21
84.8956785
0
LINE
8
DEFAULT_255_1_234
10
23.4903708
20
84.8956785
11
23.4903708
21
85.0306117
0
LINE
8
DEFAULT_255_1_234
10
23.4903708
20
85.0306117
11
23.9160529
21
85.1904433
0
LINE
8
DEFAULT_255_1_234
10
23.9160529
20
85.1904433
11
23.9393449
21
85.1904433
0
LINE
8
DEFAULT_255_1_234
10
21.5950154
20
91.9529
11
21.2713364
21
91.9529
0
LINE
8
DEFAULT_255_1_234
10
21.2713364
20
91.9529
11
21.2713364
21
93.1223211
0
LINE
8
DEFAULT_255_1_234
10
21.2713364
20
93.1223211
11
21.6014408
21
93.1223211
0
LINE
8
DEFAULT_255_1_234
10
22.1170784
20
92.5769661
11
22.1170784
21
92.5022709
0
LINE
8
DEFAULT_255_1_234
10
21.6054567
20
92.9954196
11
21.4255458
21
92.9954196
0
LINE
8
DEFAULT_255_1_234
10
21.4255458
20
92.9954196
11
21.4255458
21
92.0789983
0
LINE
8
DEFAULT_255_1_234
10
21.4255458
20
92.0789983
11
21.5877869
21
92.0789983
0
LINE
8
DEFAULT_255_1_234
10
21.9644754
20
92.5054836
11
21.9644754
21
92.5737534
0
ARC
8
DEFAULT_255_1_234
10
21.6053351
20
92.5357894
40
0.5865446
50
75.4101064
51
90.3804066
0
ARC
8
DEFAULT_255_1_234
10
21.6282864
20
92.6314492
40
0.4881916
50
60.145586
51
75.1888407
0
ARC
8
DEFAULT_255_1_234
10
21.644164
20
92.6591199
40
0.4562893
50
26.5253612
51
60.1450928
0
ARC
8
DEFAULT_255_1_234
10
21.5321389
20
92.5997158
40
0.5830602
50
7.4030428
51
26.8320788
0
ARC
8
DEFAULT_255_1_234
10
21.3727146
20
92.5748804
40
0.7443669
50
0.1605367
51
7.7176192
0
ARC
8
DEFAULT_255_1_234
10
21.389105
20
92.4984434
40
0.7279835
50
348.7289388
51
0.3012466
0
ARC
8
DEFAULT_255_1_234
10
21.5547481
20
92.4655386
40
0.559104
50
333.0706509
51
348.7181832
0
ARC
8
DEFAULT_255_1_234
10
21.6514238
20
92.4130319
40
0.4491417
50
299.2531685
51
333.4571258
0
ARC
8
DEFAULT_255_1_234
10
21.6153378
20
92.4815828
40
0.5265881
50
278.107187
51
299.0339503
0
ARC
8
DEFAULT_255_1_234
10
21.5897457
20
92.6323216
40
0.679442
50
270.4443897
51
278.4511052
0
ARC
8
DEFAULT_255_1_234
10
21.5918287
20
92.5394213
40
0.4604407
50
269.4970433
51
284.0205042
0
ARC
8
DEFAULT_255_1_234
10
21.6273588
20
92.4028978
40
0.3193797
50
283.7700273
51
318.1555492
0
ARC
8
DEFAULT_255_1_234
10
21.5936346
20
92.4281367
40
0.3613588
50
318.7415601
51
343.6873628
0
ARC
8
DEFAULT_255_1_234
10
21.4132369
20
92.4844832
40
0.5503313
50
343.3325091
51
355.8548958
0
ARC
8
DEFAULT_255_1_234
10
21.2034054
20
92.5044319
40
0.7610708
50
355.4988528
51
0.0791727
0
ARC
8
DEFAULT_255_1_234
10
21.2816676
20
92.577978
40
0.6828208
50
359.6455037
51
9.8607896
0
ARC
8
DEFAULT_255_1_234
10
21.5177374
20
92.6206099
40
0.4429406
50
9.6571907
51
26.1932807
0
ARC
8
DEFAULT_255_1_234
10
21.6105363
20
92.6637118
40
0.3406537
50
26.5777228
51
40.1532208
0
ARC
8
DEFAULT_255_1_234
10
21.6361089
20
92.6836619
40
0.308246
50
40.3840491
51
80.1431104
0
ARC
8
DEFAULT_255_1_234
10
21.6034207
20
92.5387333
40
0.4566909
50
79.2152159
51
89.7445637
0
LINE
8
DEFAULT_255_1_234
10
23.2495535
20
92.5737534
11
23.2495535
21
92.4998614
0
LINE
8
DEFAULT_255_1_234
10
22.309037
20
92.4894201
11
22.309037
21
92.5737534
0
LINE
8
DEFAULT_255_1_234
10
23.0961473
20
92.4886169
11
23.0961473
21
92.5753597
0
LINE
8
DEFAULT_255_1_234
10
22.4624432
20
92.585801
11
22.4624432
21
92.4998614
0
ARC
8
DEFAULT_255_1_234
10
22.3853562
20
92.4959015
40
0.8642064
50
350.487711
51
0.2625388
0
ARC
8
DEFAULT_255_1_234
10
22.6146803
20
92.4564578
40
0.631518
50
336.0277639
51
350.5787438
0
ARC
8
DEFAULT_255_1_234
10
22.7491626
20
92.3956892
40
0.4839466
50
319.8877444
51
336.1328423
0
ARC
8
DEFAULT_255_1_234
10
22.8094267
20
92.347458
40
0.4067874
50
302.4806467
51
319.6143626
0
ARC
8
DEFAULT_255_1_234
10
22.7979278
20
92.3696202
40
0.4316636
50
275.8195682
51
302.1884709
0
ARC
8
DEFAULT_255_1_234
10
22.7812911
20
92.4838665
40
0.5470306
50
269.9171439
51
276.3397983
0
ARC
8
DEFAULT_255_1_234
10
22.7768121
20
92.4152681
40
0.4784458
50
252.5219675
51
270.4416499
0
ARC
8
DEFAULT_255_1_234
10
22.762438
20
92.3613592
40
0.422716
50
237.5352116
51
252.1857531
0
ARC
8
DEFAULT_255_1_234
10
22.7713575
20
92.3727363
40
0.4371052
50
209.063312
51
237.3492538
0
ARC
8
DEFAULT_255_1_234
10
22.8583423
20
92.4273685
40
0.5397041
50
205.1183774
51
209.6470015
0
ARC
8
DEFAULT_255_1_234
10
22.938046
20
92.461183
40
0.6262326
50
188.7215458
51
204.8240747
0
ARC
8
DEFAULT_255_1_234
10
23.1377988
20
92.4948067
40
0.8287794
50
180.3723947
51
188.9252049
0
ARC
8
DEFAULT_255_1_234
10
23.135074
20
92.5777402
40
0.8260467
50
169.5253763
51
180.2765336
0
ARC
8
DEFAULT_255_1_234
10
22.9448189
20
92.6127309
40
0.6326007
50
155.8315255
51
169.5089989
0
ARC
8
DEFAULT_255_1_234
10
22.816769
20
92.6721348
40
0.4914567
50
139.6258461
51
156.0379525
0
ARC
8
DEFAULT_255_1_234
10
22.7578023
20
92.7195799
40
0.4158054
50
122.6416387
51
139.3430715
0
ARC
8
DEFAULT_255_1_234
10
22.7678643
20
92.7012451
40
0.4366739
50
93.0223692
51
122.455762
0
ARC
8
DEFAULT_255_1_234
10
22.778664
20
92.6047709
40
0.5336137
50
89.975342
51
93.6341897
0
ARC
8
DEFAULT_255_1_234
10
22.782542
20
92.6446242
40
0.4937738
50
73.746375
51
90.4233405
0
ARC
8
DEFAULT_255_1_234
10
22.8000998
20
92.7126287
40
0.4235786
50
57.662753
51
73.4518111
0
ARC
8
DEFAULT_255_1_234
10
22.7993004
20
92.7147832
40
0.4221899
50
29.1440151
51
57.414694
0
ARC
8
DEFAULT_255_1_234
10
22.7058199
20
92.6564005
40
0.5322966
50
24.0982783
51
29.7323517
0
ARC
8
DEFAULT_255_1_234
10
22.6024474
20
92.6135399
40
0.6441673
50
8.6655297
51
23.8241346
0
ARC
8
DEFAULT_255_1_234
10
22.3790212
20
92.5770854
40
0.8705386
50
359.7806941
51
8.8218784
0
ARC
8
DEFAULT_255_1_234
10
22.264321
20
92.5796345
40
0.8318373
50
359.7055579
51
8.036044
0
ARC
8
DEFAULT_255_1_234
10
22.5643216
20
92.6233239
40
0.5286768
50
7.8928306
51
20.2962107
0
ARC
8
DEFAULT_255_1_234
10
22.7270787
20
92.6833395
40
0.3552073
50
20.3231126
51
36.4992797
0
ARC
8
DEFAULT_255_1_234
10
22.7956333
20
92.7361402
40
0.2686974
50
36.1437156
51
85.6627023
0
ARC
8
DEFAULT_255_1_234
10
22.7793879
20
92.6321221
40
0.373739
50
84.3852322
51
90.0757696
0
ARC
8
DEFAULT_255_1_234
10
22.7751551
20
92.6981839
40
0.3076997
50
89.3038458
51
109.9045693
0
ARC
8
DEFAULT_255_1_234
10
22.7658942
20
92.7364062
40
0.2686424
50
110.8228367
51
143.9179474
0
ARC
8
DEFAULT_255_1_234
10
22.8592603
20
92.6651236
40
0.3860887
50
143.5289163
51
163.2980757
0
ARC
8
DEFAULT_255_1_234
10
23.0500423
20
92.6051433
40
0.5860659
50
163.0418846
51
174.3140048
0
ARC
8
DEFAULT_255_1_234
10
23.2904535
20
92.5773854
40
0.8280531
50
174.0509143
51
179.4176892
0
ARC
8
DEFAULT_255_1_234
10
23.2400274
20
92.4956954
40
0.7775954
50
179.6930361
51
188.7906598
0
ARC
8
DEFAULT_255_1_234
10
22.9736753
20
92.4530935
40
0.5078633
50
188.6331305
51
202.5629587
0
ARC
8
DEFAULT_255_1_234
10
22.8482345
20
92.4026996
40
0.3726913
50
202.8081362
51
216.1193925
0
ARC
8
DEFAULT_255_1_234
10
22.7672915
20
92.3375676
40
0.2689577
50
215.0755913
51
264.6379694
0
ARC
8
DEFAULT_255_1_234
10
22.7799865
20
92.4206513
40
0.3528978
50
263.846392
51
270.0833719
0
ARC
8
DEFAULT_255_1_234
10
22.7841255
20
92.3948374
40
0.3271036
50
269.3649385
51
287.5152008
0
ARC
8
DEFAULT_255_1_234
10
22.8019413
20
92.3301238
40
0.2600406
50
288.0630309
51
323.8113348
0
ARC
8
DEFAULT_255_1_234
10
22.7148255
20
92.3951049
40
0.3687189
50
323.6547608
51
342.6590488
0
ARC
8
DEFAULT_255_1_234
10
22.511687
20
92.4611952
40
0.5823286
50
342.4091907
51
353.6451149
0
ARC
8
DEFAULT_255_1_234
10
22.2285381
20
92.496419
40
0.8676442
50
353.4029884
51
359.4847795
0
LINE
8
DEFAULT_255_1_234
10
24.1756129
20
92.6444327
11
24.1756129
21
92.4516709
0
LINE
8
DEFAULT_255_1_234
10
23.4374962
20
92.4315916
11
23.4374962
21
92.6299755
0
LINE
8
DEFAULT_255_1_234
10
24.0270258
20
92.4115123
11
24.0270258
21
92.6548739
0
LINE
8
DEFAULT_255_1_234
10
23.5860833
20
92.6661184
11
23.5860833
21
92.4283789
0
ARC
8
DEFAULT_255_1_234
10
22.9509019
20
92.4467805
40
1.2247208
50
353.8441951
51
0.2287902
0
ARC
8
DEFAULT_255_1_234
10
23.4148523
20
92.3949806
40
0.7578929
50
344.4934747
51
353.9765454
0
ARC
8
DEFAULT_255_1_234
10
23.7141113
20
92.3098981
40
0.4467846
50
329.2803592
51
344.7472793
0
ARC
8
DEFAULT_255_1_234
10
23.8133938
20
92.2554018
40
0.3336173
50
324.9352394
51
328.6160465
0
ARC
8
DEFAULT_255_1_234
10
23.8511046
20
92.2290427
40
0.2876076
50
280.580143
51
324.9173126
0
ARC
8
DEFAULT_255_1_234
10
23.8109839
20
92.3961099
40
0.4592847
50
269.5977311
51
281.6734359
0
ARC
8
DEFAULT_255_1_234
10
23.8037745
20
92.3841173
40
0.4472986
50
256.6228859
51
270.51044
0
ARC
8
DEFAULT_255_1_234
10
23.7635722
20
92.2292877
40
0.2873874
50
215.8618325
51
257.2788573
0
ARC
8
DEFAULT_255_1_234
10
23.8656754
20
92.2977977
40
0.4102928
50
197.9693508
51
215.2623606
0
ARC
8
DEFAULT_255_1_234
10
24.114187
20
92.3816709
40
0.6725652
50
187.8816417
51
198.2346507
0
ARC
8
DEFAULT_255_1_234
10
24.5100078
20
92.4388079
40
1.0724845
50
180.8976217
51
188.0055519
0
ARC
8
DEFAULT_255_1_234
10
24.7900266
20
92.4491777
40
1.3526448
50
180.7449369
51
181.1510016
0
ARC
8
DEFAULT_255_1_234
10
24.6322995
20
92.6348042
40
1.1948131
50
173.7675579
51
180.231553
0
ARC
8
DEFAULT_255_1_234
10
24.1805142
20
92.6858666
40
0.7401564
50
164.3058563
51
173.9002247
0
ARC
8
DEFAULT_255_1_234
10
23.8893211
20
92.7697656
40
0.4371288
50
148.7922025
51
164.568378
0
ARC
8
DEFAULT_255_1_234
10
23.7941663
20
92.8228929
40
0.3282386
50
144.5883898
51
148.1176286
0
ARC
8
DEFAULT_255_1_234
10
23.7598561
20
92.8468315
40
0.2864044
50
101.6440918
51
144.514236
0
ARC
8
DEFAULT_255_1_234
10
23.8023627
20
92.6779069
40
0.4604934
50
89.5284041
51
102.5819763
0
ARC
8
DEFAULT_255_1_234
10
23.8102715
20
92.6740018
40
0.464401
50
77.0437873
51
90.5081339
0
ARC
8
DEFAULT_255_1_234
10
23.8504717
20
92.8382615
40
0.2953195
50
48.2778575
51
77.4994676
0
ARC
8
DEFAULT_255_1_234
10
23.8577348
20
92.8511746
40
0.2808655
50
36.3142134
51
47.6305865
0
ARC
8
DEFAULT_255_1_234
10
23.7708655
20
92.7926515
40
0.3855453
50
18.2931786
51
35.6769206
0
ARC
8
DEFAULT_255_1_234
10
23.5165414
20
92.7053593
40
0.654423
50
8.024666
51
18.5605216
0
ARC
8
DEFAULT_255_1_234
10
23.1002334
20
92.6438792
40
1.0752407
50
1.1274072
51
8.1718305
0
ARC
8
DEFAULT_255_1_234
10
22.7766525
20
92.6311885
40
1.3990231
50
0.5424119
51
1.3863029
0
ARC
8
DEFAULT_255_1_234
10
22.9587902
20
92.6584342
40
1.0682415
50
359.8090433
51
4.9407866
0
ARC
8
DEFAULT_255_1_234
10
23.3797916
20
92.6960113
40
0.6455691
50
4.8362157
51
12.2904523
0
ARC
8
DEFAULT_255_1_234
10
23.6553031
20
92.7573965
40
0.3633074
50
12.0805627
51
23.8173984
0
ARC
8
DEFAULT_255_1_234
10
23.7726737
20
92.8070919
40
0.2358723
50
24.2871213
51
31.3935614
0
ARC
8
DEFAULT_255_1_234
10
23.8251434
20
92.8414233
40
0.1732111
50
30.7407893
51
82.4657128
0
ARC
8
DEFAULT_255_1_234
10
23.8071568
20
92.7530691
40
0.263235
50
81.1060089
51
90.2184952
0
ARC
8
DEFAULT_255_1_234
10
23.8035867
20
92.7788924
40
0.2374236
50
89.3806855
51
105.6762551
0
ARC
8
DEFAULT_255_1_234
10
23.7852498
20
92.8455567
40
0.1682847
50
105.7981136
51
149.7388061
0
ARC
8
DEFAULT_255_1_234
10
23.8916576
20
92.781595
40
0.2924306
50
149.4208916
51
163.6286378
0
ARC
8
DEFAULT_255_1_234
10
24.1007464
20
92.717825
40
0.5110213
50
163.3763315
51
172.1410975
0
ARC
8
DEFAULT_255_1_234
10
24.4308183
20
92.6705518
40
0.8444586
50
172.0259487
51
178.0703232
0
ARC
8
DEFAULT_255_1_234
10
24.7338272
20
92.6561906
40
1.1477868
50
177.8631668
51
179.5044149
0
ARC
8
DEFAULT_255_1_234
10
24.6265677
20
92.4247389
40
1.0404907
50
179.7995573
51
185.2460446
0
ARC
8
DEFAULT_255_1_234
10
24.2222716
20
92.3864513
40
0.6343885
50
185.1411642
51
193.0079639
0
ARC
8
DEFAULT_255_1_234
10
23.9579189
20
92.3239641
40
0.3627568
50
192.7897626
51
205.2507664
0
ARC
8
DEFAULT_255_1_234
10
23.8532736
20
92.2772415
40
0.2481908
50
205.8005384
51
211.2537509
0
ARC
8
DEFAULT_255_1_234
10
23.8009176
20
92.242158
40
0.1852521
50
210.3789793
51
238.4008143
0
ARC
8
DEFAULT_255_1_234
10
23.7989698
20
92.2468376
40
0.1882621
50
239.6520629
51
265.9793761
0
ARC
8
DEFAULT_255_1_234
10
23.8074898
20
92.3140427
40
0.2559272
50
265.1315437
51
270.060332
0
ARC
8
DEFAULT_255_1_234
10
23.8103677
20
92.2816534
40
0.2235528
50
269.3314664
51
287.2178029
0
ARC
8
DEFAULT_255_1_234
10
23.8241529
20
92.2313279
40
0.1714108
50
287.7958004
51
329.080874
0
ARC
8
DEFAULT_255_1_234
10
23.7283986
20
92.291093
40
0.2842745
50
328.6634704
51
343.3325132
0
ARC
8
DEFAULT_255_1_234
10
23.5111006
20
92.3587863
40
0.5118644
50
343.0499468
51
351.9393422
0
ARC
8
DEFAULT_255_1_234
10
23.1644306
20
92.4098949
40
0.8622784
50
351.8069023
51
357.7959224
0
ARC
8
DEFAULT_255_1_234
10
22.8408862
20
92.4266721
40
1.1862365
50
357.5871873
51
359.2677531
0
ENDSEC
0
EOF