0
SECTION
2
HEADER
9
$MEASUREMENT
70
1
0
ENDSEC
0
SECTION
2
TABLES
0
TABLE
2
LTYPE
0
LTYPE
72
65
70
64
2
CONTINUOUS
3
______
73
0
40
0
0
ENDTAB
0
TABLE
2
LAYER
0
LAYER
2
DEFAULT_255_2_778
70
0
62
255
6
CONTINUOUS
0
LAYER
2
DEFAULT_255_1_234
70
0
62
255
6
CONTINUOUS
0
ENDTAB
0
ENDSEC
0
SECTION
2
ENTITIES
0
ARC
8
DEFAULT_255_2_778
10
3.5700693
20
28.1802037
40
0.7914215
50
129.1312896
51
180.1450914
0
ARC
8
DEFAULT_255_2_778
10
3.5703345
20
28.1806908
40
0.7912112
50
89.854026
51
129.1684493
0
ARC
8
DEFAULT_255_2_778
10
25.7993937
20
28.1803773
40
0.7915249
50
39.4792447
51
90.147911
0
ARC
8
DEFAULT_255_2_778
10
25.7999935
20
28.180224
40
0.7911595
50
359.8533901
51
39.5154338
0
ARC
8
DEFAULT_255_2_778
10
25.7996693
20
-1.9863486
40
0.7914836
50
309.4761667
51
0.1482649
0
ARC
8
DEFAULT_255_2_778
10
25.799398
20
-1.9867797
40
0.7913235
50
269.8517415
51
309.511178
0
ARC
8
DEFAULT_255_2_778
10
3.570342
20
-1.9867215
40
0.7913815
50
219.1282118
51
270.1454017
0
ARC
8
DEFAULT_255_2_778
10
3.5700247
20
-1.986339
40
0.7913769
50
179.8524075
51
219.1641908
0
LINE
8
DEFAULT_255_2_778
10
3.5723503
20
28.9718996
11
25.7973503
21
28.9718996
0
LINE
8
DEFAULT_255_2_778
10
26.5911503
20
28.1781996
11
26.5911503
21
-1.9843004
0
LINE
8
DEFAULT_255_2_778
10
25.7973503
20
-2.7781004
11
3.5723503
21
-2.7781004
0
LINE
8
DEFAULT_255_2_778
10
2.7786503
20
-1.9843004
11
2.7786503
21
28.1781996
0
LINE
8
DEFAULT_255_1_234
10
8.280623
20
-0.2802337
11
8.4356355
21
-0.2802337
0
LINE
8
DEFAULT_255_1_234
10
7.5352777
20
-0.1212053
11
7.5352777
21
-0.0087609
0
LINE
8
DEFAULT_255_1_234
10
8.4356355
20
0.1422357
11
8.280623
21
0.1422357
0
LINE
8
DEFAULT_255_1_234
10
7.6902902
20
-0.0127768
11
7.6902902
21
-0.1260243
0
ARC
8
DEFAULT_255_1_234
10
7.8875742
20
-0.2205154
40
0.5513052
50
340.1774281
51
353.7814284
0
ARC
8
DEFAULT_255_1_234
10
8.0447095
20
-0.2790418
40
0.3836379
50
311.4558989
51
340.4421614
0
ARC
8
DEFAULT_255_1_234
10
8.0413763
20
-0.2679472
40
0.3941894
50
282.4333181
51
310.7513653
0
ARC
8
DEFAULT_255_1_234
10
7.9974502
20
-0.0864321
40
0.5809175
50
269.9358511
51
282.809604
0
ARC
8
DEFAULT_255_1_234
10
7.9922568
20
0.0593212
40
0.7266847
50
270.0021091
51
270.3581957
0
ARC
8
DEFAULT_255_1_234
10
7.9869985
20
-0.2007415
40
0.4666519
50
250.7884749
51
270.6489167
0
ARC
8
DEFAULT_255_1_234
10
7.970182
20
-0.2644681
40
0.4009729
50
219.3627325
51
250.0611886
0
ARC
8
DEFAULT_255_1_234
10
8.0531031
20
-0.1939958
40
0.5097822
50
193.5479632
51
219.5756669
0
ARC
8
DEFAULT_255_1_234
10
8.2902652
20
-0.1324081
40
0.7547848
50
181.1218675
51
193.87563
0
ARC
8
DEFAULT_255_1_234
10
8.4972833
20
-0.121342
40
0.9620055
50
179.9918545
51
181.5394234
0
ARC
8
DEFAULT_255_1_234
10
8.3121935
20
-0.0050212
40
0.7769248
50
169.5837241
51
180.2757934
0
ARC
8
DEFAULT_255_1_234
10
8.1284873
20
0.0289229
40
0.590109
50
155.0365899
51
169.6003176
0
ARC
8
DEFAULT_255_1_234
10
8.0149337
20
0.0836677
40
0.4640625
50
136.783148
51
155.2472683
0
ARC
8
DEFAULT_255_1_234
10
7.9759814
20
0.1167562
40
0.4130255
50
121.7633186
51
136.428115
0
ARC
8
DEFAULT_255_1_234
10
7.9894776
20
0.0918227
40
0.4413323
50
95.6459699
51
121.5490577
0
ARC
8
DEFAULT_255_1_234
10
8.0052058
20
-0.0190051
40
0.55319
50
89.924208
51
96.1377933
0
ARC
8
DEFAULT_255_1_234
10
8.0102491
20
-0.0071458
40
0.5413475
50
76.6779277
51
90.4563316
0
ARC
8
DEFAULT_255_1_234
10
8.0496114
20
0.1519114
40
0.3775041
50
47.485847
51
76.9287264
0
ARC
8
DEFAULT_255_1_234
10
8.0349087
20
0.1419159
40
0.3948286
50
16.5424086
51
46.8933463
0
ARC
8
DEFAULT_255_1_234
10
7.8741244
20
0.0890861
40
0.564021
50
5.4072051
51
17.0365086
0
ARC
8
DEFAULT_255_1_234
10
7.7302261
20
0.0659679
40
0.5556559
50
7.8891745
51
15.9239216
0
ARC
8
DEFAULT_255_1_234
10
7.9289274
20
0.1236631
40
0.3487515
50
15.7653144
51
27.9410532
0
ARC
8
DEFAULT_255_1_234
10
8.0393492
20
0.182779
40
0.2235026
50
27.8166557
51
46.4008329
0
ARC
8
DEFAULT_255_1_234
10
8.0443135
20
0.1822082
40
0.2205286
50
47.4371857
51
75.0698205
0
ARC
8
DEFAULT_255_1_234
10
8.0134529
20
0.0747765
40
0.3322915
50
74.7008593
51
87.8124495
0
ARC
8
DEFAULT_255_1_234
10
8.0061217
20
-0.0308156
40
0.4380987
50
87.3814673
51
90.0240855
0
ARC
8
DEFAULT_255_1_234
10
8.002276
20
0.0869291
40
0.3203749
50
89.3451631
51
108.5745436
0
ARC
8
DEFAULT_255_1_234
10
7.9885865
20
0.1382908
40
0.2673494
50
109.2998449
51
143.3037509
0
ARC
8
DEFAULT_255_1_234
10
8.0647938
20
0.0796881
40
0.3634757
50
143.0753173
51
163.1916937
0
ARC
8
DEFAULT_255_1_234
10
8.2599666
20
0.0180967
40
0.5681262
50
162.9373603
51
174.6208611
0
ARC
8
DEFAULT_255_1_234
10
8.5225708
20
-0.010699
40
0.8322832
50
174.3419979
51
180.1430411
0
ARC
8
DEFAULT_255_1_234
10
8.4294864
20
-0.1301302
40
0.7392076
50
179.6817502
51
189.150529
0
ARC
8
DEFAULT_255_1_234
10
8.1794112
20
-0.171781
40
0.4856932
50
188.9910863
51
203.5773039
0
ARC
8
DEFAULT_255_1_234
10
8.0714445
20
-0.2165789
40
0.3688271
50
203.9077269
51
215.1312379
0
ARC
8
DEFAULT_255_1_234
10
7.9791539
20
-0.2881059
40
0.2522457
50
213.9071664
51
263.8849284
0
ARC
8
DEFAULT_255_1_234
10
7.9916868
20
-0.2096482
40
0.3316174
50
263.1758525
51
270.1031083
0
ARC
8
DEFAULT_255_1_234
10
7.994896
20
-0.0849635
40
0.4563091
50
269.6719807
51
279.0609165
0
ARC
8
DEFAULT_255_1_234
10
8.0215728
20
-0.2462093
40
0.2928759
50
278.8750225
51
293.6346586
0
ARC
8
DEFAULT_255_1_234
10
8.0535936
20
-0.32141
40
0.2111472
50
293.8553404
51
310.0518804
0
ARC
8
DEFAULT_255_1_234
10
8.054079
20
-0.3276484
40
0.2060917
50
311.0646779
51
332.0108348
0
ARC
8
DEFAULT_255_1_234
10
7.9348517
20
-0.2619022
40
0.3422352
50
331.6588543
51
343.2878891
0
ARC
8
DEFAULT_255_1_234
10
7.7286032
20
-0.1985202
40
0.5580003
50
343.1446044
51
351.010618
0
ARC
8
DEFAULT_255_1_234
10
7.5744678
20
-0.1704129
40
0.7146438
50
350.7157277
51
351.1602153
0
LINE
8
DEFAULT_255_1_234
10
8.6460671
20
0.5181211
11
8.8452542
21
0.5181211
0
LINE
8
DEFAULT_255_1_234
10
8.8452542
20
0.5181211
11
9.2275649
21
-0.4360494
0
LINE
8
DEFAULT_255_1_234
10
9.2275649
20
-0.4360494
11
9.6098757
21
0.5181211
0
LINE
8
DEFAULT_255_1_234
10
9.6098757
20
0.5181211
11
9.809866
21
0.5181211
0
LINE
8
DEFAULT_255_1_234
10
9.809866
20
0.5181211
11
9.809866
21
-0.6513
0
LINE
8
DEFAULT_255_1_234
10
9.809866
20
-0.6513
11
9.6556566
21
-0.6513
0
LINE
8
DEFAULT_255_1_234
10
9.6556566
20
-0.6513
11
9.6556566
21
-0.1959004
0
LINE
8
DEFAULT_255_1_234
10
9.6556566
20
-0.1959004
11
9.6701137
21
0.2956419
0
LINE
8
DEFAULT_255_1_234
10
9.6701137
20
0.2956419
11
9.2861966
21
-0.6513
0
LINE
8
DEFAULT_255_1_234
10
9.2861966
20
-0.6513
11
9.1681301
21
-0.6513
0
LINE
8
DEFAULT_255_1_234
10
9.1681301
20
-0.6513
11
8.7850162
21
0.2932324
0
LINE
8
DEFAULT_255_1_234
10
8.7850162
20
0.2932324
11
8.8002765
21
-0.1959004
0
LINE
8
DEFAULT_255_1_234
10
8.8002765
20
-0.1959004
11
8.8002765
21
-0.6513
0
LINE
8
DEFAULT_255_1_234
10
8.8002765
20
-0.6513
11
8.6460671
21
-0.6513
0
LINE
8
DEFAULT_255_1_234
10
8.6460671
20
-0.6513
11
8.6460671
21
0.5181211
0
LINE
8
DEFAULT_255_1_234
10
10.2307291
20
-0.0955037
11
10.1118593
21
-0.0649831
0
LINE
8
DEFAULT_255_1_234
10
10.1118593
20
-0.0649831
11
10.1712942
21
0.5181211
0
LINE
8
DEFAULT_255_1_234
10
10.1712942
20
0.5181211
11
10.7704619
21
0.5181211
0
LINE
8
DEFAULT_255_1_234
10
10.7704619
20
0.5181211
11
10.7704619
21
0.3807784
0
LINE
8
DEFAULT_255_1_234
10
10.7704619
20
0.3807784
11
10.2973925
21
0.3807784
0
LINE
8
DEFAULT_255_1_234
10
10.2973925
20
0.3807784
11
10.2620528
21
0.0619184
0
LINE
8
DEFAULT_255_1_234
10
10.0700943
20
-0.3436844
11
10.2106497
21
-0.3436844
0
LINE
8
DEFAULT_255_1_234
10
10.2700846
20
-0.0633768
11
10.2307291
21
-0.0955037
0
ARC
8
DEFAULT_255_1_234
10
10.4475312
20
-0.256077
40
0.3681349
50
93.7182161
51
120.2538958
0
ARC
8
DEFAULT_255_1_234
10
10.4569575
20
-0.3368606
40
0.449379
50
89.9660152
51
94.2496022
0
ARC
8
DEFAULT_255_1_234
10
10.4610309
20
-0.2779451
40
0.390482
50
73.8043271
51
90.5585896
0
ARC
8
DEFAULT_255_1_234
10
10.4845206
20
-0.1921398
40
0.3015334
50
41.3071453
51
73.5430202
0
ARC
8
DEFAULT_255_1_234
10
10.4429034
20
-0.2279676
40
0.3564457
50
13.5075983
51
41.2174222
0
ARC
8
DEFAULT_255_1_234
10
10.2787237
20
-0.2709514
40
0.5261351
50
1.1331335
51
13.8829381
0
ARC
8
DEFAULT_255_1_234
10
10.1375606
20
-0.2785335
40
0.6674378
50
359.9919444
51
1.544251
0
ARC
8
DEFAULT_255_1_234
10
10.2652432
20
-0.282672
40
0.5397702
50
347.8572367
51
0.4293338
0
ARC
8
DEFAULT_255_1_234
10
10.440275
20
-0.3223264
40
0.3603188
50
323.673004
51
348.1672506
0
ARC
8
DEFAULT_255_1_234
10
10.4697258
20
-0.3402832
40
0.3259678
50
316.8171152
51
323.1492751
0
ARC
8
DEFAULT_255_1_234
10
10.4758447
20
-0.343954
40
0.3189975
50
281.8396411
51
316.5457803
0
ARC
8
DEFAULT_255_1_234
10
10.4382711
20
-0.1884238
40
0.4789527
50
269.5770101
51
282.4214771
0
ARC
8
DEFAULT_255_1_234
10
10.4311523
20
-0.2097875
40
0.45759
50
256.2427136
51
270.4486331
0
ARC
8
DEFAULT_255_1_234
10
10.4012425
20
-0.3297771
40
0.3339303
50
228.9023911
51
256.3314342
0
ARC
8
DEFAULT_255_1_234
10
10.3938657
20
-0.3414254
40
0.32031
50
193.753695
51
228.5271154
0
ARC
8
DEFAULT_255_1_234
10
10.5176611
20
-0.30512
40
0.4492253
50
184.924711
51
194.497588
0
ARC
8
DEFAULT_255_1_234
10
10.5369178
20
-0.3015409
40
0.3289787
50
187.3600538
51
198.6732863
0
ARC
8
DEFAULT_255_1_234
10
10.4319472
20
-0.3379326
40
0.217884
50
198.4451669
51
217.794479
0
ARC
8
DEFAULT_255_1_234
10
10.4023647
20
-0.3588915
40
0.1816698
50
218.2887171
51
228.5612368
0
ARC
8
DEFAULT_255_1_234
10
10.4121434
20
-0.3457037
40
0.1980329
50
228.9654866
51
258.1234728
0
ARC
8
DEFAULT_255_1_234
10
10.4327144
20
-0.2576167
40
0.2884748
50
257.7258293
51
270.401361
0
ARC
8
DEFAULT_255_1_234
10
10.4372031
20
-0.3021179
40
0.2439788
50
269.4204404
51
286.4209037
0
ARC
8
DEFAULT_255_1_234
10
10.4520518
20
-0.3560343
40
0.1880666
50
286.7251356
51
320.600362
0
ARC
8
DEFAULT_255_1_234
10
10.4137343
20
-0.3249405
40
0.2374121
50
320.6712579
51
344.5441685
0
ARC
8
DEFAULT_255_1_234
10
10.2980669
20
-0.2909955
40
0.3579479
50
344.2412205
51
356.7357071
0
ARC
8
DEFAULT_255_1_234
10
10.1731818
20
-0.2806556
40
0.4832297
50
356.3548756
51
0.0500261
0
ARC
8
DEFAULT_255_1_234
10
10.3068327
20
-0.277535
40
0.3495889
50
359.5576869
51
12.953486
0
ARC
8
DEFAULT_255_1_234
10
10.4123224
20
-0.2519566
40
0.2410532
50
12.6490276
51
41.6081334
0
ARC
8
DEFAULT_255_1_234
10
10.4353595
20
-0.2323679
40
0.2108218
50
41.7850273
51
85.9892764
0
ARC
8
DEFAULT_255_1_234
10
10.4230332
20
-0.3136538
40
0.2928454
50
84.6957577
51
90.0676183
0
ARC
8
DEFAULT_255_1_234
10
10.4206816
20
-0.3805284
40
0.3597255
50
89.6804936
51
99.1614436
0
ARC
8
DEFAULT_255_1_234
10
10.4001447
20
-0.2577869
40
0.235281
50
98.9830931
51
113.8908934
0
ARC
8
DEFAULT_255_1_234
10
10.3771857
20
-0.2036413
40
0.176479
50
114.1950727
51
127.3641004
0
ARC
8
DEFAULT_255_1_234
10
11.3942178
20
0.2103703
40
0.2822356
50
338.8763615
51
0.5166041
0
ARC
8
DEFAULT_255_1_234
10
11.4110833
20
0.2058208
40
0.2648703
50
325.8412414
51
338.4795939
0
ARC
8
DEFAULT_255_1_234
10
11.37202
20
0.2329042
40
0.3124019
50
296.7586019
51
325.753654
0
ARC
8
DEFAULT_255_1_234
10
11.3432309
20
0.2813789
40
0.368668
50
296.0902311
51
297.3618122
0
ARC
8
DEFAULT_255_1_234
10
11.3689766
20
-0.3740959
40
0.3518806
50
47.9009248
51
67.1946869
0
ARC
8
DEFAULT_255_1_234
10
11.3886008
20
-0.3494605
40
0.320451
50
35.236241
51
47.551371
0
ARC
8
DEFAULT_255_1_234
10
11.4147626
20
-0.3320007
40
0.2890103
50
359.2759738
51
35.4014081
0
ARC
8
DEFAULT_255_1_234
10
11.3402657
20
-0.3393174
40
0.3635026
50
343.1294516
51
0.5776525
0
ARC
8
DEFAULT_255_1_234
10
11.4127202
20
-0.359267
40
0.2883832
50
310.8497458
51
342.744803
0
ARC
8
DEFAULT_255_1_234
10
11.3709315
20
-0.3115706
40
0.3517954
50
281.5473923
51
310.9169905
0
ARC
8
DEFAULT_255_1_234
10
11.3352765
20
-0.1562916
40
0.5110832
50
269.6192722
51
281.9789957
0
ARC
8
DEFAULT_255_1_234
10
11.3280554
20
-0.1562172
40
0.5111606
50
257.4584469
51
270.4287458
0
ARC
8
DEFAULT_255_1_234
10
11.2899697
20
-0.3165656
40
0.3463762
50
228.7553743
51
257.8484423
0
ARC
8
DEFAULT_255_1_234
10
11.2589895
20
-0.3538558
40
0.297916
50
184.0104442
51
228.5071787
0
ARC
8
DEFAULT_255_1_234
10
11.3752839
20
-0.3361488
40
0.4152734
50
179.9315461
51
185.3254504
0
ARC
8
DEFAULT_255_1_234
10
11.2576485
20
-0.3324008
40
0.2976554
50
145.6795913
51
180.6259649
0
ARC
8
DEFAULT_255_1_234
10
11.2739834
20
-0.3438071
40
0.3175776
50
115.5537925
51
145.6416199
0
ARC
8
DEFAULT_255_1_234
10
11.3080765
20
-0.4048972
40
0.3874232
50
113.2437915
51
116.2054627
0
ARC
8
DEFAULT_255_1_234
10
11.2927977
20
0.234958
40
0.3154751
50
222.9548379
51
244.1372485
0
ARC
8
DEFAULT_255_1_234
10
11.2806052
20
0.2212834
40
0.2972382
50
213.3439227
51
222.6271327
0
ARC
8
DEFAULT_255_1_234
10
11.2613987
20
0.2082308
40
0.274019
50
180.4316517
51
213.2713999
0
ARC
8
DEFAULT_255_1_234
10
11.3188988
20
0.212911
40
0.33158
50
179.9992944
51
181.1655061
0
ARC
8
DEFAULT_255_1_234
10
11.3598405
20
0.2163561
40
0.3725376
50
164.6186108
51
180.5292368
0
ARC
8
DEFAULT_255_1_234
10
11.2700268
20
0.2405101
40
0.2795349
50
132.2454369
51
164.5092287
0
ARC
8
DEFAULT_255_1_234
10
11.2987372
20
0.2080028
40
0.3229019
50
100.7052766
51
132.1387266
0
ARC
8
DEFAULT_255_1_234
10
11.3292344
20
0.0702086
40
0.4639835
50
89.6732617
51
101.2449487
0
ARC
8
DEFAULT_255_1_234
10
11.3354542
20
0.087699
40
0.4464999
50
76.2876631
51
90.4586123
0
ARC
8
DEFAULT_255_1_234
10
11.3660774
20
0.209922
40
0.3205023
50
47.8240157
51
76.4266918
0
ARC
8
DEFAULT_255_1_234
10
11.3883324
20
0.235959
40
0.2862661
50
6.9168658
51
47.6261438
0
ARC
8
DEFAULT_255_1_234
10
11.2696727
20
0.214037
40
0.4067708
50
359.8419705
51
7.9694496
0
ARC
8
DEFAULT_255_1_234
10
11.3038624
20
-0.3300075
40
0.2513121
50
359.4454068
51
16.9256425
0
ARC
8
DEFAULT_255_1_234
10
11.3507435
20
-0.3170967
40
0.2027071
50
17.292259
51
45.462717
0
ARC
8
DEFAULT_255_1_234
10
11.3453371
20
-0.3217566
40
0.2098212
50
45.3028762
51
83.1921472
0
ARC
8
DEFAULT_255_1_234
10
11.3310055
20
-0.4019105
40
0.2911472
50
82.2614531
51
90.143954
0
ARC
8
DEFAULT_255_1_234
10
11.3279175
20
-0.378605
40
0.2678513
50
89.4959189
51
104.8579811
0
ARC
8
DEFAULT_255_1_234
10
11.3102434
20
-0.311611
40
0.1985654
50
104.8855873
51
135.2448349
0
ARC
8
DEFAULT_255_1_234
10
11.3152207
20
-0.3160664
40
0.2052373
50
135.3398955
51
172.104394
0
ARC
8
DEFAULT_255_1_234
10
11.3959265
20
-0.3315075
40
0.2873299
50
171.2651929
51
180.1859362
0
ARC
8
DEFAULT_255_1_234
10
11.3789966
20
-0.3347267
40
0.2704083
50
179.515471
51
193.6466734
0
ARC
8
DEFAULT_255_1_234
10
11.2973735
20
-0.3555223
40
0.1861855
50
193.3540587
51
225.8256931
0
ARC
8
DEFAULT_255_1_234
10
11.3014493
20
-0.3484476
40
0.1941102
50
226.418029
51
255.8553723
0
ARC
8
DEFAULT_255_1_234
10
11.3270925
20
-0.2548002
40
0.2911917
50
255.4655572
51
268.7985967
0
ARC
8
DEFAULT_255_1_234
10
11.3318117
20
-0.1709509
40
0.3751331
50
268.3464808
51
270.0104874
0
ARC
8
DEFAULT_255_1_234
10
11.3341505
20
-0.2393862
40
0.3067064
50
269.575914
51
282.0823146
0
ARC
8
DEFAULT_255_1_234
10
11.3566414
20
-0.3388197
40
0.2047712
50
281.7522535
51
306.6056425
0
ARC
8
DEFAULT_255_1_234
10
11.366484
20
-0.3549513
40
0.1859604
50
307.1350025
51
314.0277951
0
ARC
8
DEFAULT_255_1_234
10
11.3628925
20
-0.3523234
40
0.1903475
50
314.2553419
51
350.169324
0
ARC
8
DEFAULT_255_1_234
10
11.2777393
20
-0.3338591
40
0.2774269
50
349.4145679
51
0.2930737
0
ARC
8
DEFAULT_255_1_234
10
11.3297826
20
0.1820353
40
0.2300764
50
89.477591
51
105.729794
0
ARC
8
DEFAULT_255_1_234
10
11.316174
20
0.2325637
40
0.1777519
50
105.922966
51
135.1662921
0
ARC
8
DEFAULT_255_1_234
10
11.3182242
20
0.2311419
40
0.1802087
50
135.3053131
51
168.9882338
0
ARC
8
DEFAULT_255_1_234
10
11.4009815
20
0.2121721
40
0.2650806
50
168.3802067
51
180.3602358
0
ARC
8
DEFAULT_255_1_234
10
11.3781394
20
0.2084041
40
0.2422425
50
179.5029707
51
194.9126783
0
ARC
8
DEFAULT_255_1_234
10
11.3196055
20
0.193011
40
0.1817188
50
194.9722181
51
224.1943972
0
ARC
8
DEFAULT_255_1_234
10
11.3167922
20
0.1907169
40
0.1781027
50
224.2961434
51
262.0157375
0
ARC
8
DEFAULT_255_1_234
10
11.3310165
20
0.2638661
40
0.2525492
50
261.1250369
51
270.1959853
0
ARC
8
DEFAULT_255_1_234
10
11.333992
20
0.2451339
40
0.233825
50
269.4825617
51
285.0988277
0
ARC
8
DEFAULT_255_1_234
10
11.3494079
20
0.187299
40
0.1739712
50
285.1585659
51
315.9484648
0
ARC
8
DEFAULT_255_1_234
10
11.3405091
20
0.1954886
40
0.1860616
50
316.0412958
51
351.9162715
0
ARC
8
DEFAULT_255_1_234
10
11.2672046
20
0.2096245
40
0.2606517
50
351.1056823
51
0.1936567
0
ARC
8
DEFAULT_255_1_234
10
11.2934875
20
0.2126369
40
0.234377
50
359.4789506
51
16.0679113
0
ARC
8
DEFAULT_255_1_234
10
11.3410834
20
0.225481
40
0.1850875
50
16.3251951
51
44.791304
0
ARC
8
DEFAULT_255_1_234
10
11.3393115
20
0.2255339
40
0.186312
50
44.3958661
51
88.2498933
0
ARC
8
DEFAULT_255_1_234
10
11.3319669
20
0.1644154
40
0.2476868
50
86.9833827
51
90.0200148
0
LINE
8
DEFAULT_255_1_234
10
12.6097299
20
0.0506739
11
12.6097299
21
0.0073025
0
LINE
8
DEFAULT_255_1_234
10
12.0675876
20
-0.6521032
11
12.0386733
21
-0.6521032
0
LINE
8
DEFAULT_255_1_234
10
12.0386733
20
-0.6521032
11
12.0386733
21
-0.5268081
0
LINE
8
DEFAULT_255_1_234
10
12.0386733
20
-0.5268081
11
12.0699971
21
-0.5268081
0
LINE
8
DEFAULT_255_1_234
10
12.4611428
20
0.0217597
11
12.4611428
21
0.0811945
0
ARC
8
DEFAULT_255_1_234
10
12.1817697
20
0.0963403
40
0.3635579
50
297.4037347
51
320.016758
0
ARC
8
DEFAULT_255_1_234
10
12.2107646
20
0.040624
40
0.3007486
50
270.2633101
51
297.3851877
0
ARC
8
DEFAULT_255_1_234
10
12.2073602
20
0.0869904
40
0.3471448
50
269.9966443
51
270.7900392
0
ARC
8
DEFAULT_255_1_234
10
12.2048083
20
0.0868143
40
0.3469779
50
254.5999133
51
270.4180344
0
ARC
8
DEFAULT_255_1_234
10
12.1905443
20
0.0303647
40
0.2887697
50
236.4717942
51
254.3541279
0
ARC
8
DEFAULT_255_1_234
10
12.206166
20
0.0513711
40
0.3149125
50
208.4727207
51
236.2134933
0
ARC
8
DEFAULT_255_1_234
10
12.2700435
20
0.0904455
40
0.3897115
50
204.3447514
51
209.0453999
0
ARC
8
DEFAULT_255_1_234
10
12.3380011
20
0.1192656
40
0.4635101
50
183.9375985
51
204.1276318
0
ARC
8
DEFAULT_255_1_234
10
12.4288263
20
0.1290482
40
0.5548037
50
179.9652252
51
184.3013875
0
ARC
8
DEFAULT_255_1_234
10
12.4048309
20
0.1323507
40
0.5308164
50
166.7585989
51
180.3201225
0
ARC
8
DEFAULT_255_1_234
10
12.3201922
20
0.1507488
40
0.4442163
50
154.6955053
51
166.5679793
0
ARC
8
DEFAULT_255_1_234
10
12.2348792
20
0.193721
40
0.3487299
50
136.3324195
51
155.0871442
0
ARC
8
DEFAULT_255_1_234
10
12.2067865
20
0.2177954
40
0.3117924
50
121.236733
51
135.9680508
0
ARC
8
DEFAULT_255_1_234
10
12.2208363
20
0.1917743
40
0.3413302
50
96.845628
51
120.9881519
0
ARC
8
DEFAULT_255_1_234
10
12.2353945
20
0.0982515
40
0.4359341
50
89.8870174
51
97.2802754
0
ARC
8
DEFAULT_255_1_234
10
12.2406383
20
0.1620095
40
0.3722009
50
70.6505584
51
90.6749113
0
ARC
8
DEFAULT_255_1_234
10
12.2537662
20
0.2133361
40
0.3194571
50
36.7492984
51
69.8219918
0
ARC
8
DEFAULT_255_1_234
10
12.1538827
20
0.1354993
40
0.4460685
50
15.39587
51
37.0840084
0
ARC
8
DEFAULT_255_1_234
10
11.940926
20
0.0734242
40
0.6678714
50
3.9488873
51
15.6798563
0
ARC
8
DEFAULT_255_1_234
10
11.7007888
20
0.0517964
40
0.9089418
50
359.929245
51
4.2665314
0
ARC
8
DEFAULT_255_1_234
10
11.2402325
20
0.0006513
40
1.3695135
50
352.8366322
51
0.2782669
0
ARC
8
DEFAULT_255_1_234
10
11.7690004
20
-0.0680371
40
0.8363105
50
341.8359505
51
352.9884176
0
ARC
8
DEFAULT_255_1_234
10
12.0908723
20
-0.17653
40
0.4966642
50
322.8578092
51
342.1527901
0
ARC
8
DEFAULT_255_1_234
10
12.1772679
20
-0.2354616
40
0.3922466
50
319.334325
51
322.0998941
0
ARC
8
DEFAULT_255_1_234
10
12.1463016
20
-0.2043791
40
0.4360033
50
285.9541367
51
318.8878087
0
ARC
8
DEFAULT_255_1_234
10
12.0736277
20
0.02666
40
0.678149
50
272.9281676
51
286.4922826
0
ARC
8
DEFAULT_255_1_234
10
12.0546395
20
0.2517587
40
0.9039547
50
270.8207226
51
273.4012994
0
ARC
8
DEFAULT_255_1_234
10
12.0635246
20
0.0698666
40
0.5967098
50
270.6214993
51
281.4062806
0
ARC
8
DEFAULT_255_1_234
10
12.1065227
20
-0.1357167
40
0.3866861
50
281.1852553
51
299.0621114
0
ARC
8
DEFAULT_255_1_234
10
12.1438798
20
-0.2078202
40
0.3055236
50
299.5067782
51
313.1200873
0
ARC
8
DEFAULT_255_1_234
10
12.1460765
20
-0.2157446
40
0.2982623
50
313.8526205
51
338.5989322
0
ARC
8
DEFAULT_255_1_234
10
11.9836839
20
-0.1490219
40
0.4738131
50
338.2523585
51
351.2430902
0
ARC
8
DEFAULT_255_1_234
10
11.7426135
20
-0.1080553
40
0.7183203
50
350.9409515
51
357.6691871
0
ARC
8
DEFAULT_255_1_234
10
12.2316565
20
0.0921764
40
0.2294452
50
269.9447023
51
306.8248917
0
ARC
8
DEFAULT_255_1_234
10
12.207948
20
0.1344898
40
0.2775994
50
305.5072438
51
327.0773448
0
ARC
8
DEFAULT_255_1_234
10
12.2197921
20
0.1250025
40
0.2625056
50
327.4104943
51
336.840169
0
ARC
8
DEFAULT_255_1_234
10
11.9103986
20
0.0844302
40
0.5507537
50
359.6633817
51
10.117533
0
ARC
8
DEFAULT_255_1_234
10
12.0857784
20
0.1168777
40
0.372403
50
9.9430141
51
26.7700076
0
ARC
8
DEFAULT_255_1_234
10
12.1454997
20
0.1444187
40
0.3066865
50
27.2015464
51
34.6829435
0
ARC
8
DEFAULT_255_1_234
10
12.1944477
20
0.1811977
40
0.245519
50
34.1250343
51
50.3070065
0
ARC
8
DEFAULT_255_1_234
10
12.2391156
20
0.2346385
40
0.1758693
50
50.3851167
51
90.6705993
0
ARC
8
DEFAULT_255_1_234
10
12.2344389
20
0.2041799
40
0.2063326
50
89.272901
51
111.9140407
0
ARC
8
DEFAULT_255_1_234
10
12.2324917
20
0.218244
40
0.1925887
50
112.9382311
51
142.5320782
0
ARC
8
DEFAULT_255_1_234
10
12.2871097
20
0.1738969
40
0.2629232
50
142.1021256
51
166.3835592
0
ARC
8
DEFAULT_255_1_234
10
12.4052402
20
0.1433915
40
0.3849193
50
166.1100289
51
178.665427
0
ARC
8
DEFAULT_255_1_234
10
12.5099992
20
0.1375117
40
0.4897989
50
178.2632126
51
180.0111093
0
ARC
8
DEFAULT_255_1_234
10
12.4298112
20
0.1346728
40
0.40962
50
179.6161962
51
191.8787166
0
ARC
8
DEFAULT_255_1_234
10
12.3077951
20
0.1076896
40
0.2846655
50
191.6191692
51
215.2972286
0
ARC
8
DEFAULT_255_1_234
10
12.2881142
20
0.0961918
40
0.2619665
50
215.7320102
51
216.5355409
0
ARC
8
DEFAULT_255_1_234
10
12.2342229
20
0.0529647
40
0.1929497
50
215.7486685
51
239.9727502
0
ARC
8
DEFAULT_255_1_234
10
12.2272144
20
0.0478894
40
0.1850822
50
241.0650169
51
269.2810483
0
ARC
8
DEFAULT_255_1_234
10
12.2314059
20
0.0969371
40
0.2342059
50
268.4062526
51
270.0071348
0
LINE
8
DEFAULT_255_1_234
10
13.1390215
20
-0.0938974
11
13.1390215
21
-0.2151766
0
LINE
8
DEFAULT_255_1_234
10
13.1390215
20
-0.2151766
11
12.7470727
21
-0.2151766
0
LINE
8
DEFAULT_255_1_234
10
12.7470727
20
-0.2151766
11
12.7470727
21
-0.0938974
0
LINE
8
DEFAULT_255_1_234
10
12.7470727
20
-0.0938974
11
13.1390215
21
-0.0938974
0
LINE
8
DEFAULT_255_1_234
10
13.7365828
20
-0.1934909
11
13.4610942
21
-0.1934909
0
LINE
8
DEFAULT_255_1_234
10
13.4610942
20
-0.1934909
11
13.4610942
21
-0.6513
0
LINE
8
DEFAULT_255_1_234
10
13.4610942
20
-0.6513
11
13.3068848
21
-0.6513
0
LINE
8
DEFAULT_255_1_234
10
13.3068848
20
-0.6513
11
13.3068848
21
0.5181211
0
LINE
8
DEFAULT_255_1_234
10
13.3068848
20
0.5181211
11
13.7381892
21
0.5181211
0
LINE
8
DEFAULT_255_1_234
10
13.4610942
20
0.3912196
11
13.4610942
21
-0.0673926
0
LINE
8
DEFAULT_255_1_234
10
13.4610942
20
-0.0673926
11
13.7381892
21
-0.0673926
0
LINE
8
DEFAULT_255_1_234
10
13.7470241
20
0.3912196
11
13.4610942
21
0.3912196
0
ARC
8
DEFAULT_255_1_234
10
13.7424018
20
-0.0877805
40
0.6059162
50
78.8378113
51
90.3983573
0
ARC
8
DEFAULT_255_1_234
10
13.7840032
20
0.1142879
40
0.3996205
50
58.9632738
51
79.0810598
0
ARC
8
DEFAULT_255_1_234
10
13.8141574
20
0.1702721
40
0.3361177
50
48.0197965
51
58.447194
0
ARC
8
DEFAULT_255_1_234
10
13.8230435
20
0.1788225
40
0.3238191
50
3.3375044
51
48.1766626
0
ARC
8
DEFAULT_255_1_234
10
13.7000275
20
0.1611171
40
0.4477806
50
359.9477528
51
4.6829065
0
ARC
8
DEFAULT_255_1_234
10
13.7123592
20
0.1568628
40
0.4354656
50
346.1877825
51
0.5060252
0
ARC
8
DEFAULT_255_1_234
10
13.8482459
20
0.1215731
40
0.295089
50
310.8831995
51
346.5426355
0
ARC
8
DEFAULT_255_1_234
10
13.8173879
20
0.1632695
40
0.3468331
50
286.6925341
51
310.2288297
0
ARC
8
DEFAULT_255_1_234
10
13.760471
20
0.3422882
40
0.5346654
50
274.6850312
51
287.0245141
0
ARC
8
DEFAULT_255_1_234
10
13.7379433
20
0.5631932
40
0.7566852
50
269.8969846
51
275.018904
0
ARC
8
DEFAULT_255_1_234
10
13.7407024
20
0.3552707
40
0.4226708
50
269.6593078
51
279.4153575
0
ARC
8
DEFAULT_255_1_234
10
13.76643
20
0.2062133
40
0.2714146
50
279.2049762
51
294.9900808
0
ARC
8
DEFAULT_255_1_234
10
13.7954625
20
0.1414508
40
0.2004525
50
295.2888114
51
311.2911209
0
ARC
8
DEFAULT_255_1_234
10
13.802552
20
0.130922
40
0.1878703
50
311.7854996
51
347.2861051
0
ARC
8
DEFAULT_255_1_234
10
13.7041678
20
0.1562092
40
0.2894234
50
346.6893224
51
0.1059443
0
ARC
8
DEFAULT_255_1_234
10
13.6286573
20
0.1590685
40
0.3649409
50
359.6350983
51
0.0053152
0
ARC
8
DEFAULT_255_1_234
10
13.7256902
20
0.1615937
40
0.2679199
50
359.4672059
51
15.5933957
0
ARC
8
DEFAULT_255_1_234
10
13.788179
20
0.1784779
40
0.2031932
50
15.7442113
51
46.6203375
0
ARC
8
DEFAULT_255_1_234
10
13.7734011
20
0.1614484
40
0.2257226
50
46.8628658
51
75.6676503
0
ARC
8
DEFAULT_255_1_234
10
13.7439832
20
0.0555718
40
0.3355939
50
75.276167
51
88.2915297
0
ARC
8
DEFAULT_255_1_234
10
13.7381538
20
-0.0322476
40
0.4235602
50
87.8575022
51
88.8000139
0
LINE
8
DEFAULT_255_1_234
10
15.2433369
20
0.5181211
11
15.2433369
21
-0.6513
0
LINE
8
DEFAULT_255_1_234
10
15.2433369
20
-0.6513
11
15.0883244
21
-0.6513
0
LINE
8
DEFAULT_255_1_234
10
15.0883244
20
-0.6513
11
14.4995979
21
0.249861
0
LINE
8
DEFAULT_255_1_234
10
14.4995979
20
0.249861
11
14.4995979
21
-0.6513
0
LINE
8
DEFAULT_255_1_234
10
14.4995979
20
-0.6513
11
14.3445854
21
-0.6513
0
LINE
8
DEFAULT_255_1_234
10
14.3445854
20
-0.6513
11
14.3445854
21
0.5181211
0
LINE
8
DEFAULT_255_1_234
10
14.3445854
20
0.5181211
11
14.4995979
21
0.5181211
0
LINE
8
DEFAULT_255_1_234
10
14.4995979
20
0.5181211
11
15.0899307
21
-0.3870558
0
LINE
8
DEFAULT_255_1_234
10
15.0899307
20
-0.3870558
11
15.0899307
21
0.5181211
0
LINE
8
DEFAULT_255_1_234
10
15.0899307
20
0.5181211
11
15.2433369
21
0.5181211
0
LINE
8
DEFAULT_255_1_234
10
15.682673
20
0.5181211
11
15.682673
21
-0.6513
0
LINE
8
DEFAULT_255_1_234
10
15.682673
20
-0.6513
11
15.5284636
21
-0.6513
0
LINE
8
DEFAULT_255_1_234
10
15.5284636
20
-0.6513
11
15.5284636
21
0.5181211
0
LINE
8
DEFAULT_255_1_234
10
15.5284636
20
0.5181211
11
15.682673
21
0.5181211
0
LINE
8
DEFAULT_255_1_234
10
16.8641417
20
-0.0304466
11
16.8641417
21
-0.1043386
0
LINE
8
DEFAULT_255_1_234
10
15.9236251
20
-0.1147799
11
15.9236251
21
-0.0304466
0
LINE
8
DEFAULT_255_1_234
10
16.7107355
20
-0.1155831
11
16.7107355
21
-0.0288403
0
LINE
8
DEFAULT_255_1_234
10
16.0770313
20
-0.018399
11
16.0770313
21
-0.1043386
0
ARC
8
DEFAULT_255_1_234
10
15.9999444
20
-0.1082985
40
0.8642064
50
350.487711
51
0.2625388
0
ARC
8
DEFAULT_255_1_234
10
16.2292685
20
-0.1477422
40
0.631518
50
336.0277639
51
350.5787438
0
ARC
8
DEFAULT_255_1_234
10
16.3637508
20
-0.2085108
40
0.4839466
50
319.8877444
51
336.1328423
0
ARC
8
DEFAULT_255_1_234
10
16.4240149
20
-0.256742
40
0.4067874
50
302.4806467
51
319.6143626
0
ARC
8
DEFAULT_255_1_234
10
16.4125159
20
-0.2345798
40
0.4316636
50
275.8195682
51
302.1884709
0
ARC
8
DEFAULT_255_1_234
10
16.3958793
20
-0.1203335
40
0.5470306
50
269.9171439
51
276.3397983
0
ARC
8
DEFAULT_255_1_234
10
16.3914002
20
-0.1889319
40
0.4784458
50
252.5219675
51
270.4416499
0
ARC
8
DEFAULT_255_1_234
10
16.3770261
20
-0.2428408
40
0.422716
50
237.5352116
51
252.1857531
0
ARC
8
DEFAULT_255_1_234
10
16.3859457
20
-0.2314637
40
0.4371052
50
209.063312
51
237.3492538
0
ARC
8
DEFAULT_255_1_234
10
16.4729305
20
-0.1768315
40
0.5397041
50
205.1183774
51
209.6470015
0
ARC
8
DEFAULT_255_1_234
10
16.5526342
20
-0.143017
40
0.6262326
50
188.7215458
51
204.8240747
0
ARC
8
DEFAULT_255_1_234
10
16.752387
20
-0.1093933
40
0.8287794
50
180.3723947
51
188.9252049
0
ARC
8
DEFAULT_255_1_234
10
16.7496622
20
-0.0264598
40
0.8260467
50
169.5253763
51
180.2765336
0
ARC
8
DEFAULT_255_1_234
10
16.5594071
20
0.0085309
40
0.6326007
50
155.8315255
51
169.5089989
0
ARC
8
DEFAULT_255_1_234
10
16.4313572
20
0.0679348
40
0.4914567
50
139.6258461
51
156.0379525
0
ARC
8
DEFAULT_255_1_234
10
16.3723905
20
0.1153799
40
0.4158054
50
122.6416387
51
139.3430715
0
ARC
8
DEFAULT_255_1_234
10
16.3824525
20
0.0970451
40
0.4366739
50
93.0223692
51
122.455762
0
ARC
8
DEFAULT_255_1_234
10
16.3932522
20
0.0005709
40
0.5336137
50
89.975342
51
93.6341897
0
ARC
8
DEFAULT_255_1_234
10
16.3971301
20
0.0404242
40
0.4937738
50
73.746375
51
90.4233405
0
ARC
8
DEFAULT_255_1_234
10
16.414688
20
0.1084287
40
0.4235786
50
57.662753
51
73.4518111
0
ARC
8
DEFAULT_255_1_234
10
16.4138886
20
0.1105832
40
0.4221899
50
29.1440151
51
57.414694
0
ARC
8
DEFAULT_255_1_234
10
16.3204081
20
0.0522005
40
0.5322966
50
24.0982783
51
29.7323517
0
ARC
8
DEFAULT_255_1_234
10
16.2170356
20
0.0093399
40
0.6441673
50
8.6655297
51
23.8241346
0
ARC
8
DEFAULT_255_1_234
10
15.9936094
20
-0.0271146
40
0.8705386
50
359.7806941
51
8.8218784
0
ARC
8
DEFAULT_255_1_234
10
15.8789092
20
-0.0245655
40
0.8318373
50
359.7055579
51
8.036044
0
ARC
8
DEFAULT_255_1_234
10
16.1789098
20
0.0191239
40
0.5286768
50
7.8928306
51
20.2962107
0
ARC
8
DEFAULT_255_1_234
10
16.3416669
20
0.0791395
40
0.3552073
50
20.3231126
51
36.4992797
0
ARC
8
DEFAULT_255_1_234
10
16.4102215
20
0.1319402
40
0.2686974
50
36.1437156
51
85.6627023
0
ARC
8
DEFAULT_255_1_234
10
16.3939761
20
0.0279221
40
0.373739
50
84.3852322
51
90.0757696
0
ARC
8
DEFAULT_255_1_234
10
16.3897433
20
0.0939839
40
0.3076997
50
89.3038458
51
109.9045693
0
ARC
8
DEFAULT_255_1_234
10
16.3804824
20
0.1322062
40
0.2686424
50
110.8228367
51
143.9179474
0
ARC
8
DEFAULT_255_1_234
10
16.4738484
20
0.0609236
40
0.3860887
50
143.5289163
51
163.2980757
0
ARC
8
DEFAULT_255_1_234
10
16.6646305
20
0.0009433
40
0.5860659
50
163.0418846
51
174.3140048
0
ARC
8
DEFAULT_255_1_234
10
16.9050417
20
-0.0268146
40
0.8280531
50
174.0509143
51
179.4176892
0
ARC
8
DEFAULT_255_1_234
10
16.8546156
20
-0.1085046
40
0.7775954
50
179.6930361
51
188.7906598
0
ARC
8
DEFAULT_255_1_234
10
16.5882635
20
-0.1511065
40
0.5078633
50
188.6331305
51
202.5629587
0
ARC
8
DEFAULT_255_1_234
10
16.4628227
20
-0.2015004
40
0.3726913
50
202.8081362
51
216.1193925
0
ARC
8
DEFAULT_255_1_234
10
16.3818797
20
-0.2666324
40
0.2689577
50
215.0755913
51
264.6379694
0
ARC
8
DEFAULT_255_1_234
10
16.3945747
20
-0.1835487
40
0.3528978
50
263.846392
51
270.0833719
0
ARC
8
DEFAULT_255_1_234
10
16.3987137
20
-0.2093626
40
0.3271036
50
269.3649385
51
287.5152008
0
ARC
8
DEFAULT_255_1_234
10
16.4165295
20
-0.2740762
40
0.2600406
50
288.0630309
51
323.8113348
0
ARC
8
DEFAULT_255_1_234
10
16.3294137
20
-0.2090951
40
0.3687189
50
323.6547608
51
342.6590488
0
ARC
8
DEFAULT_255_1_234
10
16.1262752
20
-0.1430048
40
0.5823286
50
342.4091907
51
353.6451149
0
ARC
8
DEFAULT_255_1_234
10
15.8431263
20
-0.107781
40
0.8676442
50
353.4029884
51
359.4847795
0
LINE
8
DEFAULT_255_1_234
10
17.3813856
20
-0.0938974
11
17.3813856
21
-0.2151766
0
LINE
8
DEFAULT_255_1_234
10
17.3813856
20
-0.2151766
11
16.9894368
21
-0.2151766
0
LINE
8
DEFAULT_255_1_234
10
16.9894368
20
-0.2151766
11
16.9894368
21
-0.0938974
0
LINE
8
DEFAULT_255_1_234
10
16.9894368
20
-0.0938974
11
17.3813856
21
-0.0938974
0
LINE
8
DEFAULT_255_1_234
10
18.1379754
20
0.5181211
11
18.1379754
21
-0.258548
0
LINE
8
DEFAULT_255_1_234
10
18.1379754
20
-0.258548
11
18.3002165
21
-0.258548
0
LINE
8
DEFAULT_255_1_234
10
18.3002165
20
-0.258548
11
18.3002165
21
-0.3798272
0
LINE
8
DEFAULT_255_1_234
10
18.3002165
20
-0.3798272
11
18.1379754
21
-0.3798272
0
LINE
8
DEFAULT_255_1_234
10
18.1379754
20
-0.3798272
11
18.1379754
21
-0.6513
0
LINE
8
DEFAULT_255_1_234
10
18.1379754
20
-0.6513
11
17.9885851
21
-0.6513
0
LINE
8
DEFAULT_255_1_234
10
17.9885851
20
-0.6513
11
17.9885851
21
-0.3798272
0
LINE
8
DEFAULT_255_1_234
10
17.9885851
20
-0.3798272
11
17.4560808
21
-0.3798272
0
LINE
8
DEFAULT_255_1_234
10
17.4560808
20
-0.3798272
11
17.4560808
21
-0.2922813
0
LINE
8
DEFAULT_255_1_234
10
17.4560808
20
-0.2922813
11
17.9797501
21
0.5181211
0
LINE
8
DEFAULT_255_1_234
10
17.9797501
20
0.5181211
11
18.1379754
21
0.5181211
0
LINE
8
DEFAULT_255_1_234
10
17.9709152
20
0.2827912
11
17.6247473
21
-0.258548
0
LINE
8
DEFAULT_255_1_234
10
17.6247473
20
-0.258548
11
17.9885851
21
-0.258548
0
LINE
8
DEFAULT_255_1_234
10
17.9885851
20
-0.258548
11
17.9885851
21
0.3149181
0
LINE
8
DEFAULT_255_1_234
10
17.9885851
20
0.3149181
11
17.9709152
21
0.2827912
0
LINE
8
DEFAULT_255_1_234
10
18.7588288
20
-0.0938974
11
18.7588288
21
-0.2151766
0
LINE
8
DEFAULT_255_1_234
10
18.7588288
20
-0.2151766
11
18.3668799
21
-0.2151766
0
LINE
8
DEFAULT_255_1_234
10
18.3668799
20
-0.2151766
11
18.3668799
21
-0.0938974
0
LINE
8
DEFAULT_255_1_234
10
18.3668799
20
-0.0938974
11
18.7588288
21
-0.0938974
0
LINE
8
DEFAULT_255_1_234
10
19.0262856
20
0.5181211
11
19.3081997
21
0.0699501
0
LINE
8
DEFAULT_255_1_234
10
19.3081997
20
0.0699501
11
19.5885073
21
0.5181211
0
LINE
8
DEFAULT_255_1_234
10
19.5885073
20
0.5181211
11
19.7700246
21
0.5181211
0
LINE
8
DEFAULT_255_1_234
10
19.7700246
20
0.5181211
11
19.4005646
21
-0.0617704
0
LINE
8
DEFAULT_255_1_234
10
19.4005646
20
-0.0617704
11
19.7788595
21
-0.6513
0
LINE
8
DEFAULT_255_1_234
10
19.7788595
20
-0.6513
11
19.5957359
21
-0.6513
0
LINE
8
DEFAULT_255_1_234
10
19.5957359
20
-0.6513
11
19.3081997
21
-0.1950973
0
LINE
8
DEFAULT_255_1_234
10
19.3081997
20
-0.1950973
11
19.0190571
21
-0.6513
0
LINE
8
DEFAULT_255_1_234
10
19.0190571
20
-0.6513
11
18.8367366
21
-0.6513
0
LINE
8
DEFAULT_255_1_234
10
18.8367366
20
-0.6513
11
19.2158347
21
-0.0617704
0
LINE
8
DEFAULT_255_1_234
10
19.2158347
20
-0.0617704
11
18.8455715
21
0.5181211
0
LINE
8
DEFAULT_255_1_234
10
18.8455715
20
0.5181211
11
19.0262856
21
0.5181211
0
LINE
8
DEFAULT_255_1_234
10
20.6430746
20
-0.2802337
11
20.7980871
21
-0.2802337
0
LINE
8
DEFAULT_255_1_234
10
19.8977292
20
-0.1212053
11
19.8977292
21
-0.0087609
0
LINE
8
DEFAULT_255_1_234
10
20.7980871
20
0.1422357
11
20.6430746
21
0.1422357
0
LINE
8
DEFAULT_255_1_234
10
20.0527418
20
-0.0127768
11
20.0527418
21
-0.1260243
0
ARC
8
DEFAULT_255_1_234
10
20.2500258
20
-0.2205154
40
0.5513052
50
340.1774281
51
353.7814284
0
ARC
8
DEFAULT_255_1_234
10
20.407161
20
-0.2790418
40
0.3836379
50
311.4558989
51
340.4421614
0
ARC
8
DEFAULT_255_1_234
10
20.4038279
20
-0.2679472
40
0.3941894
50
282.4333181
51
310.7513653
0
ARC
8
DEFAULT_255_1_234
10
20.3599018
20
-0.0864321
40
0.5809175
50
269.9358511
51
282.809604
0
ARC
8
DEFAULT_255_1_234
10
20.3547084
20
0.0593212
40
0.7266847
50
270.0021091
51
270.3581957
0
ARC
8
DEFAULT_255_1_234
10
20.3494501
20
-0.2007415
40
0.4666519
50
250.7884749
51
270.6489167
0
ARC
8
DEFAULT_255_1_234
10
20.3326335
20
-0.2644681
40
0.4009729
50
219.3627325
51
250.0611886
0
ARC
8
DEFAULT_255_1_234
10
20.4155547
20
-0.1939958
40
0.5097822
50
193.5479632
51
219.5756669
0
ARC
8
DEFAULT_255_1_234
10
20.6527167
20
-0.1324081
40
0.7547848
50
181.1218675
51
193.87563
0
ARC
8
DEFAULT_255_1_234
10
20.8597348
20
-0.121342
40
0.9620055
50
179.9918545
51
181.5394234
0
ARC
8
DEFAULT_255_1_234
10
20.674645
20
-0.0050212
40
0.7769248
50
169.5837241
51
180.2757934
0
ARC
8
DEFAULT_255_1_234
10
20.4909389
20
0.0289229
40
0.590109
50
155.0365899
51
169.6003176
0
ARC
8
DEFAULT_255_1_234
10
20.3773853
20
0.0836677
40
0.4640625
50
136.783148
51
155.2472683
0
ARC
8
DEFAULT_255_1_234
10
20.3384329
20
0.1167562
40
0.4130255
50
121.7633186
51
136.428115
0
ARC
8
DEFAULT_255_1_234
10
20.3519292
20
0.0918227
40
0.4413323
50
95.6459699
51
121.5490577
0
ARC
8
DEFAULT_255_1_234
10
20.3676573
20
-0.0190051
40
0.55319
50
89.924208
51
96.1377933
0
ARC
8
DEFAULT_255_1_234
10
20.3727006
20
-0.0071458
40
0.5413475
50
76.6779277
51
90.4563316
0
ARC
8
DEFAULT_255_1_234
10
20.412063
20
0.1519114
40
0.3775041
50
47.485847
51
76.9287264
0
ARC
8
DEFAULT_255_1_234
10
20.3973602
20
0.1419159
40
0.3948286
50
16.5424086
51
46.8933463
0
ARC
8
DEFAULT_255_1_234
10
20.2365759
20
0.0890861
40
0.564021
50
5.4072051
51
17.0365086
0
ARC
8
DEFAULT_255_1_234
10
20.0926777
20
0.0659679
40
0.5556559
50
7.8891745
51
15.9239216
0
ARC
8
DEFAULT_255_1_234
10
20.291379
20
0.1236631
40
0.3487515
50
15.7653144
51
27.9410532
0
ARC
8
DEFAULT_255_1_234
10
20.4018008
20
0.182779
40
0.2235026
50
27.8166557
51
46.4008329
0
ARC
8
DEFAULT_255_1_234
10
20.4067651
20
0.1822082
40
0.2205286
50
47.4371857
51
75.0698205
0
ARC
8
DEFAULT_255_1_234
10
20.3759045
20
0.0747765
40
0.3322915
50
74.7008593
51
87.8124495
0
ARC
8
DEFAULT_255_1_234
10
20.3685733
20
-0.0308156
40
0.4380987
50
87.3814673
51
90.0240855
0
ARC
8
DEFAULT_255_1_234
10
20.3647276
20
0.0869291
40
0.3203749
50
89.3451631
51
108.5745436
0
ARC
8
DEFAULT_255_1_234
10
20.3510381
20
0.1382908
40
0.2673494
50
109.2998449
51
143.3037509
0
ARC
8
DEFAULT_255_1_234
10
20.4272454
20
0.0796881
40
0.3634757
50
143.0753173
51
163.1916937
0
ARC
8
DEFAULT_255_1_234
10
20.6224181
20
0.0180967
40
0.5681262
50
162.9373603
51
174.6208611
0
ARC
8
DEFAULT_255_1_234
10
20.8850224
20
-0.010699
40
0.8322832
50
174.3419979
51
180.1430411
0
ARC
8
DEFAULT_255_1_234
10
20.791938
20
-0.1301302
40
0.7392076
50
179.6817502
51
189.150529
0
ARC
8
DEFAULT_255_1_234
10
20.5418628
20
-0.171781
40
0.4856932
50
188.9910863
51
203.5773039
0
ARC
8
DEFAULT_255_1_234
10
20.4338961
20
-0.2165789
40
0.3688271
50
203.9077269
51
215.1312379
0
ARC
8
DEFAULT_255_1_234
10
20.3416054
20
-0.2881059
40
0.2522457
50
213.9071664
51
263.8849284
0
ARC
8
DEFAULT_255_1_234
10
20.3541384
20
-0.2096482
40
0.3316174
50
263.1758525
51
270.1031083
0
ARC
8
DEFAULT_255_1_234
10
20.3573475
20
-0.0849635
40
0.4563091
50
269.6719807
51
279.0609165
0
ARC
8
DEFAULT_255_1_234
10
20.3840243
20
-0.2462093
40
0.2928759
50
278.8750225
51
293.6346586
0
ARC
8
DEFAULT_255_1_234
10
20.4160452
20
-0.32141
40
0.2111472
50
293.8553404
51
310.0518804
0
ARC
8
DEFAULT_255_1_234
10
20.4165305
20
-0.3276484
40
0.2060917
50
311.0646779
51
332.0108348
0
ARC
8
DEFAULT_255_1_234
10
20.2973032
20
-0.2619022
40
0.3422352
50
331.6588543
51
343.2878891
0
ARC
8
DEFAULT_255_1_234
10
20.0910547
20
-0.1985202
40
0.5580003
50
343.1446044
51
351.010618
0
ARC
8
DEFAULT_255_1_234
10
19.9369194
20
-0.1704129
40
0.7146438
50
350.7157277
51
351.1602153
0
ARC
8
DEFAULT_255_2_778
10
17.2795513
20
25.8265655
40
0.9032652
50
36.6636783
51
62.8800292
0
ARC
8
DEFAULT_255_2_778
10
17.362048
20
27.0955795
40
0.5698185
50
305.2984654
51
359.1896208
0
ARC
8
DEFAULT_255_2_778
10
17.3634372
20
27.0909256
40
0.5683825
50
359.6567283
51
359.9965559
0
ARC
8
DEFAULT_255_2_778
10
17.3738628
20
27.0907968
40
0.5579568
50
0.0097156
51
44.9837975
0
ARC
8
DEFAULT_255_2_778
10
17.3736736
20
27.0909297
40
0.5579968
50
44.9604089
51
90.0139948
0
ARC
8
DEFAULT_255_2_778
10
17.3735813
20
27.0733846
40
0.5755419
50
90.0043846
51
90.2659864
0
ARC
8
DEFAULT_255_2_778
10
17.3015142
20
25.8802344
40
0.8779024
50
272.428255
51
302.0472027
0
ARC
8
DEFAULT_255_2_778
10
17.3149911
20
25.8457487
40
0.841549
50
302.5153244
51
0.4882776
0
ARC
8
DEFAULT_255_2_778
10
17.3237108
20
25.8737449
40
0.833059
50
358.5675863
51
29.0157619
0
ARC
8
DEFAULT_255_2_778
10
15.115709
20
25.8276166
40
0.90203
50
36.6388615
51
62.8867752
0
ARC
8
DEFAULT_255_2_778
10
15.1980877
20
27.0952954
40
0.5692748
50
305.2706468
51
359.2174393
0
ARC
8
DEFAULT_255_2_778
10
15.2034234
20
27.0905241
40
0.563894
50
359.6947901
51
359.9999584
0
ARC
8
DEFAULT_255_2_778
10
15.2087973
20
27.0905658
40
0.5585202
50
359.9956834
51
44.9740581
0
ARC
8
DEFAULT_255_2_778
10
15.2089428
20
27.090379
40
0.5585493
50
44.9981599
51
89.9835716
0
ARC
8
DEFAULT_255_2_778
10
15.2091033
20
27.0886996
40
0.5602288
50
90.0000417
51
90.3061883
0
ARC
8
DEFAULT_255_2_778
10
15.1365968
20
25.8803822
40
0.8780507
50
272.42898
51
302.0445025
0
ARC
8
DEFAULT_255_2_778
10
15.1501929
20
25.8457943
40
0.8415468
50
302.5093151
51
0.4851764
0
ARC
8
DEFAULT_255_2_778
10
15.1579024
20
25.8734974
40
0.8340609
50
358.5863171
51
28.9970314
0
LINE
8
DEFAULT_255_2_778
10
13.4101095
20
26.3659203
11
12.9532095
21
27.6489203
0
LINE
8
DEFAULT_255_2_778
10
12.9532095
20
27.6489203
11
12.6084095
21
27.6489203
0
LINE
8
DEFAULT_255_2_778
10
12.6084095
20
27.6489203
11
12.6084095
21
26.3659203
0
LINE
8
DEFAULT_255_2_778
10
12.6084095
20
26.3659203
11
13.4101095
21
26.3659203
0
LINE
8
DEFAULT_255_2_778
10
12.6084095
20
25.5642203
11
13.0334095
21
25.5642203
0
LINE
8
DEFAULT_255_2_778
10
13.0334095
20
25.5642203
11
13.2257095
21
25.0031203
0
LINE
8
DEFAULT_255_2_778
10
13.2257095
20
25.0031203
11
13.8911095
21
25.0031203
0
LINE
8
DEFAULT_255_2_778
10
13.8911095
20
25.0031203
11
13.4342095
21
26.2858203
0
LINE
8
DEFAULT_255_2_778
10
13.4342095
20
26.2858203
11
12.6084095
21
26.2858203
0
LINE
8
DEFAULT_255_2_778
10
12.6084095
20
26.2858203
11
12.6084095
21
25.5642203
0
LINE
8
DEFAULT_255_2_778
10
12.5283095
20
27.6489203
11
12.1835095
21
27.6489203
0
LINE
8
DEFAULT_255_2_778
10
12.1835095
20
27.6489203
11
11.7266095
21
26.3659203
0
LINE
8
DEFAULT_255_2_778
10
11.7266095
20
26.3659203
11
12.5283095
21
26.3659203
0
LINE
8
DEFAULT_255_2_778
10
12.5283095
20
26.3659203
11
12.5283095
21
27.6489203
0
LINE
8
DEFAULT_255_2_778
10
11.7025095
20
26.2858203
11
11.2453095
21
25.0031203
0
LINE
8
DEFAULT_255_2_778
10
11.2453095
20
25.0031203
11
11.9107095
21
25.0031203
0
LINE
8
DEFAULT_255_2_778
10
11.9107095
20
25.0031203
11
12.1031095
21
25.5642203
0
LINE
8
DEFAULT_255_2_778
10
12.1031095
20
25.5642203
11
12.5280095
21
25.5642203
0
LINE
8
DEFAULT_255_2_778
10
12.5280095
20
25.5642203
11
12.5280095
21
26.2858203
0
LINE
8
DEFAULT_255_2_778
10
12.5280095
20
26.2858203
11
11.7025095
21
26.2858203
0
LINE
8
DEFAULT_255_2_778
10
16.2965095
20
27.6489203
11
17.0981095
21
27.6489203
0
LINE
8
DEFAULT_255_2_778
10
17.0981095
20
27.6489203
11
17.0981095
21
26.3659203
0
LINE
8
DEFAULT_255_2_778
10
17.0981095
20
26.3659203
11
16.2965095
21
26.3659203
0
LINE
8
DEFAULT_255_2_778
10
16.2965095
20
26.3659203
11
16.2965095
21
27.6489203
0
LINE
8
DEFAULT_255_2_778
10
17.3709095
20
27.6489203
11
17.1786095
21
27.6489203
0
LINE
8
DEFAULT_255_2_778
10
17.1786095
20
27.6489203
11
17.1786095
21
26.3659203
0
LINE
8
DEFAULT_255_2_778
10
17.1786095
20
26.3659203
11
18.0043095
21
26.3659203
0
LINE
8
DEFAULT_255_2_778
10
18.0043095
20
26.3659203
11
18.0041095
21
26.3659203
0
LINE
8
DEFAULT_255_2_778
10
16.2965095
20
26.2858203
11
17.0981095
21
26.2858203
0
LINE
8
DEFAULT_255_2_778
10
17.0981095
20
26.2858203
11
17.0981095
21
25.0031203
0
LINE
8
DEFAULT_255_2_778
10
17.0981095
20
25.0031203
11
16.2965095
21
25.0031203
0
LINE
8
DEFAULT_255_2_778
10
16.2965095
20
25.0031203
11
16.2965095
21
26.2858203
0
LINE
8
DEFAULT_255_2_778
10
17.1783095
20
25.0031203
11
17.3387095
21
25.0031203
0
LINE
8
DEFAULT_255_2_778
10
18.0522095
20
26.2778203
11
17.1783095
21
26.2778203
0
LINE
8
DEFAULT_255_2_778
10
17.1783095
20
26.2778203
11
17.1783095
21
25.0031203
0
LINE
8
DEFAULT_255_2_778
10
17.1783095
20
25.0031203
11
17.1783095
21
25.0031203
0
LINE
8
DEFAULT_255_2_778
10
14.1316095
20
27.6489203
11
14.9333095
21
27.6489203
0
LINE
8
DEFAULT_255_2_778
10
14.9333095
20
27.6489203
11
14.9333095
21
26.3659203
0
LINE
8
DEFAULT_255_2_778
10
14.9333095
20
26.3659203
11
14.1316095
21
26.3659203
0
LINE
8
DEFAULT_255_2_778
10
14.1316095
20
26.3659203
11
14.1316095
21
27.6489203
0
LINE
8
DEFAULT_255_2_778
10
15.2061095
20
27.6489203
11
15.0138095
21
27.6489203
0
LINE
8
DEFAULT_255_2_778
10
15.0138095
20
27.6489203
11
15.0138095
21
26.3659203
0
LINE
8
DEFAULT_255_2_778
10
15.0138095
20
26.3659203
11
15.8395095
21
26.3659203
0
LINE
8
DEFAULT_255_2_778
10
15.8395095
20
26.3659203
11
15.8395095
21
26.3659203
0
LINE
8
DEFAULT_255_2_778
10
14.1316095
20
26.2858203
11
14.9333095
21
26.2858203
0
LINE
8
DEFAULT_255_2_778
10
14.9333095
20
26.2858203
11
14.9333095
21
25.0031203
0
LINE
8
DEFAULT_255_2_778
10
14.9333095
20
25.0031203
11
14.1316095
21
25.0031203
0
LINE
8
DEFAULT_255_2_778
10
14.1316095
20
25.0031203
11
14.1316095
21
26.2858203
0
LINE
8
DEFAULT_255_2_778
10
15.0135095
20
25.0031203
11
15.1738095
21
25.0031203
0
LINE
8
DEFAULT_255_2_778
10
15.8874095
20
26.2778203
11
15.0135095
21
26.2778203
0
LINE
8
DEFAULT_255_2_778
10
15.0135095
20
26.2778203
11
15.0135095
21
25.0031203
0
LINE
8
DEFAULT_255_2_778
10
15.0135095
20
25.0031203
11
15.0135095
21
25.0031203
0
LINE
8
DEFAULT_255_1_234
10
11.3287293
20
22.4997
11
11.2170881
21
22.8049061
0
LINE
8
DEFAULT_255_1_234
10
11.2170881
20
22.8049061
11
10.7271521
21
22.8049061
0
LINE
8
DEFAULT_255_1_234
10
10.7271521
20
22.8049061
11
10.6171173
21
22.4997
0
LINE
8
DEFAULT_255_1_234
10
10.6171173
20
22.4997
11
10.4580889
21
22.4997
0
LINE
8
DEFAULT_255_1_234
10
10.4580889
20
22.4997
11
10.9046535
21
23.6691211
0
LINE
8
DEFAULT_255_1_234
10
10.9046535
20
23.6691211
11
11.0395867
21
23.6691211
0
LINE
8
DEFAULT_255_1_234
10
11.0395867
20
23.6691211
11
11.4869545
21
22.4997
0
LINE
8
DEFAULT_255_1_234
10
11.4869545
20
22.4997
11
11.3287293
21
22.4997
0
LINE
8
DEFAULT_255_1_234
10
10.9721201
20
23.4787689
11
10.7737362
21
22.9318075
0
LINE
8
DEFAULT_255_1_234
10
10.7737362
20
22.9318075
11
11.1713072
21
22.9318075
0
LINE
8
DEFAULT_255_1_234
10
11.1713072
20
22.9318075
11
10.9721201
21
23.4787689
0
LINE
8
DEFAULT_255_1_234
10
12.3407283
20
22.8707663
11
12.4957409
21
22.8707663
0
LINE
8
DEFAULT_255_1_234
10
11.595383
20
23.0297947
11
11.595383
21
23.1422391
0
LINE
8
DEFAULT_255_1_234
10
12.4957409
20
23.2932357
11
12.3407283
21
23.2932357
0
LINE
8
DEFAULT_255_1_234
10
11.7503956
20
23.1382232
11
11.7503956
21
23.0249757
0
ARC
8
DEFAULT_255_1_234
10
11.9476796
20
22.9304846
40
0.5513052
50
340.1774281
51
353.7814284
0
ARC
8
DEFAULT_255_1_234
10
12.1048148
20
22.8719582
40
0.3836379
50
311.4558989
51
340.4421614
0
ARC
8
DEFAULT_255_1_234
10
12.1014816
20
22.8830528
40
0.3941894
50
282.4333181
51
310.7513653
0
ARC
8
DEFAULT_255_1_234
10
12.0575555
20
23.0645679
40
0.5809175
50
269.9358511
51
282.809604
0
ARC
8
DEFAULT_255_1_234
10
12.0523622
20
23.2103212
40
0.7266847
50
270.0021091
51
270.3581957
0
ARC
8
DEFAULT_255_1_234
10
12.0471039
20
22.9502585
40
0.4666519
50
250.7884749
51
270.6489167
0
ARC
8
DEFAULT_255_1_234
10
12.0302873
20
22.8865319
40
0.4009729
50
219.3627325
51
250.0611886
0
ARC
8
DEFAULT_255_1_234
10
12.1132084
20
22.9570042
40
0.5097822
50
193.5479632
51
219.5756669
0
ARC
8
DEFAULT_255_1_234
10
12.3503705
20
23.0185919
40
0.7547848
50
181.1218675
51
193.87563
0
ARC
8
DEFAULT_255_1_234
10
12.5573886
20
23.029658
40
0.9620055
50
179.9918545
51
181.5394234
0
ARC
8
DEFAULT_255_1_234
10
12.3722988
20
23.1459788
40
0.7769248
50
169.5837241
51
180.2757934
0
ARC
8
DEFAULT_255_1_234
10
12.1885926
20
23.1799229
40
0.590109
50
155.0365899
51
169.6003176
0
ARC
8
DEFAULT_255_1_234
10
12.075039
20
23.2346677
40
0.4640625
50
136.783148
51
155.2472683
0
ARC
8
DEFAULT_255_1_234
10
12.0360867
20
23.2677562
40
0.4130255
50
121.7633186
51
136.428115
0
ARC
8
DEFAULT_255_1_234
10
12.0495829
20
23.2428227
40
0.4413323
50
95.6459699
51
121.5490577
0
ARC
8
DEFAULT_255_1_234
10
12.0653111
20
23.1319949
40
0.55319
50
89.924208
51
96.1377933
0
ARC
8
DEFAULT_255_1_234
10
12.0703544
20
23.1438542
40
0.5413475
50
76.6779277
51
90.4563316
0
ARC
8
DEFAULT_255_1_234
10
12.1097167
20
23.3029114
40
0.3775041
50
47.485847
51
76.9287264
0
ARC
8
DEFAULT_255_1_234
10
12.095014
20
23.2929159
40
0.3948286
50
16.5424086
51
46.8933463
0
ARC
8
DEFAULT_255_1_234
10
11.9342297
20
23.2400861
40
0.564021
50
5.4072051
51
17.0365086
0
ARC
8
DEFAULT_255_1_234
10
11.7903314
20
23.2169679
40
0.5556559
50
7.8891745
51
15.9239216
0
ARC
8
DEFAULT_255_1_234
10
11.9890328
20
23.2746631
40
0.3487515
50
15.7653144
51
27.9410532
0
ARC
8
DEFAULT_255_1_234
10
12.0994546
20
23.333779
40
0.2235026
50
27.8166557
51
46.4008329
0
ARC
8
DEFAULT_255_1_234
10
12.1044188
20
23.3332082
40
0.2205286
50
47.4371857
51
75.0698205
0
ARC
8
DEFAULT_255_1_234
10
12.0735583
20
23.2257765
40
0.3322915
50
74.7008593
51
87.8124495
0
ARC
8
DEFAULT_255_1_234
10
12.066227
20
23.1201844
40
0.4380987
50
87.3814673
51
90.0240855
0
ARC
8
DEFAULT_255_1_234
10
12.0623814
20
23.2379291
40
0.3203749
50
89.3451631
51
108.5745436
0
ARC
8
DEFAULT_255_1_234
10
12.0486919
20
23.2892908
40
0.2673494
50
109.2998449
51
143.3037509
0
ARC
8
DEFAULT_255_1_234
10
12.1248992
20
23.2306881
40
0.3634757
50
143.0753173
51
163.1916937
0
ARC
8
DEFAULT_255_1_234
10
12.3200719
20
23.1690967
40
0.5681262
50
162.9373603
51
174.6208611
0
ARC
8
DEFAULT_255_1_234
10
12.5826761
20
23.140301
40
0.8322832
50
174.3419979
51
180.1430411
0
ARC
8
DEFAULT_255_1_234
10
12.4895918
20
23.0208698
40
0.7392076
50
179.6817502
51
189.150529
0
ARC
8
DEFAULT_255_1_234
10
12.2395166
20
22.979219
40
0.4856932
50
188.9910863
51
203.5773039
0
ARC
8
DEFAULT_255_1_234
10
12.1315498
20
22.9344211
40
0.3688271
50
203.9077269
51
215.1312379
0
ARC
8
DEFAULT_255_1_234
10
12.0392592
20
22.8628941
40
0.2522457
50
213.9071664
51
263.8849284
0
ARC
8
DEFAULT_255_1_234
10
12.0517921
20
22.9413518
40
0.3316174
50
263.1758525
51
270.1031083
0
ARC
8
DEFAULT_255_1_234
10
12.0550013
20
23.0660365
40
0.4563091
50
269.6719807
51
279.0609165
0
ARC
8
DEFAULT_255_1_234
10
12.0816781
20
22.9047907
40
0.2928759
50
278.8750225
51
293.6346586
0
ARC
8
DEFAULT_255_1_234
10
12.1136989
20
22.82959
40
0.2111472
50
293.8553404
51
310.0518804
0
ARC
8
DEFAULT_255_1_234
10
12.1141843
20
22.8233516
40
0.2060917
50
311.0646779
51
332.0108348
0
ARC
8
DEFAULT_255_1_234
10
11.994957
20
22.8890978
40
0.3422352
50
331.6588543
51
343.2878891
0
ARC
8
DEFAULT_255_1_234
10
11.7887085
20
22.9524798
40
0.5580003
50
343.1446044
51
351.010618
0
ARC
8
DEFAULT_255_1_234
10
11.6345731
20
22.9805871
40
0.7146438
50
350.7157277
51
351.1602153
0
LINE
8
DEFAULT_255_1_234
10
12.8547596
20
23.0554963
11
12.7358898
21
23.0860169
0
LINE
8
DEFAULT_255_1_234
10
12.7358898
20
23.0860169
11
12.7953247
21
23.6691211
0
LINE
8
DEFAULT_255_1_234
10
12.7953247
20
23.6691211
11
13.3944924
21
23.6691211
0
LINE
8
DEFAULT_255_1_234
10
13.3944924
20
23.6691211
11
13.3944924
21
23.5317784
0
LINE
8
DEFAULT_255_1_234
10
13.3944924
20
23.5317784
11
12.921423
21
23.5317784
0
LINE
8
DEFAULT_255_1_234
10
12.921423
20
23.5317784
11
12.8860833
21
23.2129184
0
LINE
8
DEFAULT_255_1_234
10
12.6941248
20
22.8073156
11
12.8346802
21
22.8073156
0
LINE
8
DEFAULT_255_1_234
10
12.8941151
20
23.0876232
11
12.8547596
21
23.0554963
0
ARC
8
DEFAULT_255_1_234
10
13.0715617
20
22.894923
40
0.3681349
50
93.7182161
51
120.2538958
0
ARC
8
DEFAULT_255_1_234
10
13.080988
20
22.8141394
40
0.449379
50
89.9660152
51
94.2496022
0
ARC
8
DEFAULT_255_1_234
10
13.0850614
20
22.8730549
40
0.390482
50
73.8043271
51
90.5585896
0
ARC
8
DEFAULT_255_1_234
10
13.1085511
20
22.9588602
40
0.3015334
50
41.3071453
51
73.5430202
0
ARC
8
DEFAULT_255_1_234
10
13.0669339
20
22.9230324
40
0.3564457
50
13.5075983
51
41.2174222
0
ARC
8
DEFAULT_255_1_234
10
12.9027542
20
22.8800486
40
0.5261351
50
1.1331335
51
13.8829381
0
ARC
8
DEFAULT_255_1_234
10
12.7615911
20
22.8724665
40
0.6674378
50
359.9919444
51
1.544251
0
ARC
8
DEFAULT_255_1_234
10
12.8892738
20
22.868328
40
0.5397702
50
347.8572367
51
0.4293338
0
ARC
8
DEFAULT_255_1_234
10
13.0643055
20
22.8286736
40
0.3603188
50
323.673004
51
348.1672506
0
ARC
8
DEFAULT_255_1_234
10
13.0937563
20
22.8107168
40
0.3259678
50
316.8171152
51
323.1492751
0
ARC
8
DEFAULT_255_1_234
10
13.0998752
20
22.807046
40
0.3189975
50
281.8396411
51
316.5457803
0
ARC
8
DEFAULT_255_1_234
10
13.0623016
20
22.9625762
40
0.4789527
50
269.5770101
51
282.4214771
0
ARC
8
DEFAULT_255_1_234
10
13.0551828
20
22.9412125
40
0.45759
50
256.2427136
51
270.4486331
0
ARC
8
DEFAULT_255_1_234
10
13.025273
20
22.8212229
40
0.3339303
50
228.9023911
51
256.3314342
0
ARC
8
DEFAULT_255_1_234
10
13.0178963
20
22.8095746
40
0.32031
50
193.753695
51
228.5271154
0
ARC
8
DEFAULT_255_1_234
10
13.1416917
20
22.84588
40
0.4492253
50
184.924711
51
194.497588
0
ARC
8
DEFAULT_255_1_234
10
13.1609483
20
22.8494591
40
0.3289787
50
187.3600538
51
198.6732863
0
ARC
8
DEFAULT_255_1_234
10
13.0559777
20
22.8130674
40
0.217884
50
198.4451669
51
217.794479
0
ARC
8
DEFAULT_255_1_234
10
13.0263953
20
22.7921085
40
0.1816698
50
218.2887171
51
228.5612368
0
ARC
8
DEFAULT_255_1_234
10
13.036174
20
22.8052963
40
0.1980329
50
228.9654866
51
258.1234728
0
ARC
8
DEFAULT_255_1_234
10
13.056745
20
22.8933833
40
0.2884748
50
257.7258293
51
270.401361
0
ARC
8
DEFAULT_255_1_234
10
13.0612336
20
22.8488821
40
0.2439788
50
269.4204404
51
286.4209037
0
ARC
8
DEFAULT_255_1_234
10
13.0760823
20
22.7949657
40
0.1880666
50
286.7251356
51
320.600362
0
ARC
8
DEFAULT_255_1_234
10
13.0377648
20
22.8260595
40
0.2374121
50
320.6712579
51
344.5441685
0
ARC
8
DEFAULT_255_1_234
10
12.9220975
20
22.8600045
40
0.3579479
50
344.2412205
51
356.7357071
0
ARC
8
DEFAULT_255_1_234
10
12.7972123
20
22.8703444
40
0.4832297
50
356.3548756
51
0.0500261
0
ARC
8
DEFAULT_255_1_234
10
12.9308632
20
22.873465
40
0.3495889
50
359.5576869
51
12.953486
0
ARC
8
DEFAULT_255_1_234
10
13.036353
20
22.8990434
40
0.2410532
50
12.6490276
51
41.6081334
0
ARC
8
DEFAULT_255_1_234
10
13.0593901
20
22.9186321
40
0.2108218
50
41.7850273
51
85.9892764
0
ARC
8
DEFAULT_255_1_234
10
13.0470637
20
22.8373462
40
0.2928454
50
84.6957577
51
90.0676183
0
ARC
8
DEFAULT_255_1_234
10
13.0447121
20
22.7704716
40
0.3597255
50
89.6804936
51
99.1614436
0
ARC
8
DEFAULT_255_1_234
10
13.0241753
20
22.8932131
40
0.235281
50
98.9830931
51
113.8908934
0
ARC
8
DEFAULT_255_1_234
10
13.0012163
20
22.9473587
40
0.176479
50
114.1950727
51
127.3641004
0
LINE
8
DEFAULT_255_1_234
10
14.3245677
20
23.1912327
11
14.3245677
21
22.9984709
0
LINE
8
DEFAULT_255_1_234
10
13.5864509
20
22.9783916
11
13.5864509
21
23.1767755
0
LINE
8
DEFAULT_255_1_234
10
14.1759805
20
22.9583123
11
14.1759805
21
23.2016739
0
LINE
8
DEFAULT_255_1_234
10
13.7350381
20
23.2129184
11
13.7350381
21
22.9751789
0
ARC
8
DEFAULT_255_1_234
10
13.0998566
20
22.9935805
40
1.2247208
50
353.8441951
51
0.2287902
0
ARC
8
DEFAULT_255_1_234
10
13.563807
20
22.9417806
40
0.7578929
50
344.4934747
51
353.9765454
0
ARC
8
DEFAULT_255_1_234
10
13.863066
20
22.8566981
40
0.4467846
50
329.2803592
51
344.7472793
0
ARC
8
DEFAULT_255_1_234
10
13.9623485
20
22.8022018
40
0.3336173
50
324.9352394
51
328.6160465
0
ARC
8
DEFAULT_255_1_234
10
14.0000594
20
22.7758427
40
0.2876076
50
280.580143
51
324.9173126
0
ARC
8
DEFAULT_255_1_234
10
13.9599386
20
22.9429099
40
0.4592847
50
269.5977311
51
281.6734359
0
ARC
8
DEFAULT_255_1_234
10
13.9527292
20
22.9309173
40
0.4472986
50
256.6228859
51
270.51044
0
ARC
8
DEFAULT_255_1_234
10
13.912527
20
22.7760877
40
0.2873874
50
215.8618325
51
257.2788573
0
ARC
8
DEFAULT_255_1_234
10
14.0146301
20
22.8445977
40
0.4102928
50
197.9693508
51
215.2623606
0
ARC
8
DEFAULT_255_1_234
10
14.2631417
20
22.9284709
40
0.6725652
50
187.8816417
51
198.2346507
0
ARC
8
DEFAULT_255_1_234
10
14.6589625
20
22.9856079
40
1.0724845
50
180.8976217
51
188.0055519
0
ARC
8
DEFAULT_255_1_234
10
14.9389813
20
22.9959777
40
1.3526448
50
180.7449369
51
181.1510016
0
ARC
8
DEFAULT_255_1_234
10
14.7812542
20
23.1816042
40
1.1948131
50
173.7675579
51
180.231553
0
ARC
8
DEFAULT_255_1_234
10
14.3294689
20
23.2326666
40
0.7401564
50
164.3058563
51
173.9002247
0
ARC
8
DEFAULT_255_1_234
10
14.0382758
20
23.3165656
40
0.4371288
50
148.7922025
51
164.568378
0
ARC
8
DEFAULT_255_1_234
10
13.943121
20
23.3696929
40
0.3282386
50
144.5883898
51
148.1176286
0
ARC
8
DEFAULT_255_1_234
10
13.9088108
20
23.3936315
40
0.2864044
50
101.6440918
51
144.514236
0
ARC
8
DEFAULT_255_1_234
10
13.9513175
20
23.2247069
40
0.4604934
50
89.5284041
51
102.5819763
0
ARC
8
DEFAULT_255_1_234
10
13.9592263
20
23.2208018
40
0.464401
50
77.0437873
51
90.5081339
0
ARC
8
DEFAULT_255_1_234
10
13.9994264
20
23.3850615
40
0.2953195
50
48.2778575
51
77.4994676
0
ARC
8
DEFAULT_255_1_234
10
14.0066896
20
23.3979746
40
0.2808655
50
36.3142134
51
47.6305865
0
ARC
8
DEFAULT_255_1_234
10
13.9198203
20
23.3394515
40
0.3855453
50
18.2931786
51
35.6769206
0
ARC
8
DEFAULT_255_1_234
10
13.6654961
20
23.2521593
40
0.654423
50
8.024666
51
18.5605216
0
ARC
8
DEFAULT_255_1_234
10
13.2491881
20
23.1906792
40
1.0752407
50
1.1274072
51
8.1718305
0
ARC
8
DEFAULT_255_1_234
10
12.9256072
20
23.1779885
40
1.3990231
50
0.5424119
51
1.3863029
0
ARC
8
DEFAULT_255_1_234
10
13.107745
20
23.2052342
40
1.0682415
50
359.8090433
51
4.9407866
0
ARC
8
DEFAULT_255_1_234
10
13.5287464
20
23.2428113
40
0.6455691
50
4.8362157
51
12.2904523
0
ARC
8
DEFAULT_255_1_234
10
13.8042579
20
23.3041965
40
0.3633074
50
12.0805627
51
23.8173984
0
ARC
8
DEFAULT_255_1_234
10
13.9216284
20
23.3538919
40
0.2358723
50
24.2871213
51
31.3935614
0
ARC
8
DEFAULT_255_1_234
10
13.9740981
20
23.3882233
40
0.1732111
50
30.7407893
51
82.4657128
0
ARC
8
DEFAULT_255_1_234
10
13.9561115
20
23.2998691
40
0.263235
50
81.1060089
51
90.2184952
0
ARC
8
DEFAULT_255_1_234
10
13.9525414
20
23.3256924
40
0.2374236
50
89.3806855
51
105.6762551
0
ARC
8
DEFAULT_255_1_234
10
13.9342045
20
23.3923567
40
0.1682847
50
105.7981136
51
149.7388061
0
ARC
8
DEFAULT_255_1_234
10
14.0406123
20
23.328395
40
0.2924306
50
149.4208916
51
163.6286378
0
ARC
8
DEFAULT_255_1_234
10
14.2497011
20
23.264625
40
0.5110213
50
163.3763315
51
172.1410975
0
ARC
8
DEFAULT_255_1_234
10
14.579773
20
23.2173518
40
0.8444586
50
172.0259487
51
178.0703232
0
ARC
8
DEFAULT_255_1_234
10
14.882782
20
23.2029906
40
1.1477868
50
177.8631668
51
179.5044149
0
ARC
8
DEFAULT_255_1_234
10
14.7755224
20
22.9715389
40
1.0404907
50
179.7995573
51
185.2460446
0
ARC
8
DEFAULT_255_1_234
10
14.3712264
20
22.9332513
40
0.6343885
50
185.1411642
51
193.0079639
0
ARC
8
DEFAULT_255_1_234
10
14.1068736
20
22.8707641
40
0.3627568
50
192.7897626
51
205.2507664
0
ARC
8
DEFAULT_255_1_234
10
14.0022283
20
22.8240415
40
0.2481908
50
205.8005384
51
211.2537509
0
ARC
8
DEFAULT_255_1_234
10
13.9498724
20
22.788958
40
0.1852521
50
210.3789793
51
238.4008143
0
ARC
8
DEFAULT_255_1_234
10
13.9479245
20
22.7936376
40
0.1882621
50
239.6520629
51
265.9793761
0
ARC
8
DEFAULT_255_1_234
10
13.9564446
20
22.8608427
40
0.2559272
50
265.1315437
51
270.060332
0
ARC
8
DEFAULT_255_1_234
10
13.9593224
20
22.8284534
40
0.2235528
50
269.3314664
51
287.2178029
0
ARC
8
DEFAULT_255_1_234
10
13.9731076
20
22.7781279
40
0.1714108
50
287.7958004
51
329.080874
0
ARC
8
DEFAULT_255_1_234
10
13.8773533
20
22.837893
40
0.2842745
50
328.6634704
51
343.3325132
0
ARC
8
DEFAULT_255_1_234
10
13.6600553
20
22.9055863
40
0.5118644
50
343.0499468
51
351.9393422
0
ARC
8
DEFAULT_255_1_234
10
13.3133853
20
22.9566949
40
0.8622784
50
351.8069023
51
357.7959224
0
ARC
8
DEFAULT_255_1_234
10
12.9898409
20
22.9734721
40
1.1862365
50
357.5871873
51
359.2677531
0
LINE
8
DEFAULT_255_1_234
10
15.2482176
20
23.1912327
11
15.2482176
21
22.9984709
0
LINE
8
DEFAULT_255_1_234
10
14.5101008
20
22.9783916
11
14.5101008
21
23.1767755
0
LINE
8
DEFAULT_255_1_234
10
15.0996304
20
22.9583123
11
15.0996304
21
23.2016739
0
LINE
8
DEFAULT_255_1_234
10
14.658688
20
23.2129184
11
14.658688
21
22.9751789
0
ARC
8
DEFAULT_255_1_234
10
14.0235065
20
22.9935805
40
1.2247208
50
353.8441951
51
0.2287902
0
ARC
8
DEFAULT_255_1_234
10
14.4874569
20
22.9417806
40
0.7578929
50
344.4934747
51
353.9765454
0
ARC
8
DEFAULT_255_1_234
10
14.7867159
20
22.8566981
40
0.4467846
50
329.2803592
51
344.7472793
0
ARC
8
DEFAULT_255_1_234
10
14.8859984
20
22.8022018
40
0.3336173
50
324.9352394
51
328.6160465
0
ARC
8
DEFAULT_255_1_234
10
14.9237093
20
22.7758427
40
0.2876076
50
280.580143
51
324.9173126
0
ARC
8
DEFAULT_255_1_234
10
14.8835885
20
22.9429099
40
0.4592847
50
269.5977311
51
281.6734359
0
ARC
8
DEFAULT_255_1_234
10
14.8763791
20
22.9309173
40
0.4472986
50
256.6228859
51
270.51044
0
ARC
8
DEFAULT_255_1_234
10
14.8361769
20
22.7760877
40
0.2873874
50
215.8618325
51
257.2788573
0
ARC
8
DEFAULT_255_1_234
10
14.93828
20
22.8445977
40
0.4102928
50
197.9693508
51
215.2623606
0
ARC
8
DEFAULT_255_1_234
10
15.1867916
20
22.9284709
40
0.6725652
50
187.8816417
51
198.2346507
0
ARC
8
DEFAULT_255_1_234
10
15.5826124
20
22.9856079
40
1.0724845
50
180.8976217
51
188.0055519
0
ARC
8
DEFAULT_255_1_234
10
15.8626312
20
22.9959777
40
1.3526448
50
180.7449369
51
181.1510016
0
ARC
8
DEFAULT_255_1_234
10
15.7049042
20
23.1816042
40
1.1948131
50
173.7675579
51
180.231553
0
ARC
8
DEFAULT_255_1_234
10
15.2531188
20
23.2326666
40
0.7401564
50
164.3058563
51
173.9002247
0
ARC
8
DEFAULT_255_1_234
10
14.9619257
20
23.3165656
40
0.4371288
50
148.7922025
51
164.568378
0
ARC
8
DEFAULT_255_1_234
10
14.8667709
20
23.3696929
40
0.3282386
50
144.5883898
51
148.1176286
0
ARC
8
DEFAULT_255_1_234
10
14.8324607
20
23.3936315
40
0.2864044
50
101.6440918
51
144.514236
0
ARC
8
DEFAULT_255_1_234
10
14.8749674
20
23.2247069
40
0.4604934
50
89.5284041
51
102.5819763
0
ARC
8
DEFAULT_255_1_234
10
14.8828762
20
23.2208018
40
0.464401
50
77.0437873
51
90.5081339
0
ARC
8
DEFAULT_255_1_234
10
14.9230763
20
23.3850615
40
0.2953195
50
48.2778575
51
77.4994676
0
ARC
8
DEFAULT_255_1_234
10
14.9303395
20
23.3979746
40
0.2808655
50
36.3142134
51
47.6305865
0
ARC
8
DEFAULT_255_1_234
10
14.8434702
20
23.3394515
40
0.3855453
50
18.2931786
51
35.6769206
0
ARC
8
DEFAULT_255_1_234
10
14.589146
20
23.2521593
40
0.654423
50
8.024666
51
18.5605216
0
ARC
8
DEFAULT_255_1_234
10
14.172838
20
23.1906792
40
1.0752407
50
1.1274072
51
8.1718305
0
ARC
8
DEFAULT_255_1_234
10
13.8492571
20
23.1779885
40
1.3990231
50
0.5424119
51
1.3863029
0
ARC
8
DEFAULT_255_1_234
10
14.0313949
20
23.2052342
40
1.0682415
50
359.8090433
51
4.9407866
0
ARC
8
DEFAULT_255_1_234
10
14.4523963
20
23.2428113
40
0.6455691
50
4.8362157
51
12.2904523
0
ARC
8
DEFAULT_255_1_234
10
14.7279078
20
23.3041965
40
0.3633074
50
12.0805627
51
23.8173984
0
ARC
8
DEFAULT_255_1_234
10
14.8452783
20
23.3538919
40
0.2358723
50
24.2871213
51
31.3935614
0
ARC
8
DEFAULT_255_1_234
10
14.897748
20
23.3882233
40
0.1732111
50
30.7407893
51
82.4657128
0
ARC
8
DEFAULT_255_1_234
10
14.8797615
20
23.2998691
40
0.263235
50
81.1060089
51
90.2184952
0
ARC
8
DEFAULT_255_1_234
10
14.8761913
20
23.3256924
40
0.2374236
50
89.3806855
51
105.6762551
0
ARC
8
DEFAULT_255_1_234
10
14.8578544
20
23.3923567
40
0.1682847
50
105.7981136
51
149.7388061
0
ARC
8
DEFAULT_255_1_234
10
14.9642622
20
23.328395
40
0.2924306
50
149.4208916
51
163.6286378
0
ARC
8
DEFAULT_255_1_234
10
15.173351
20
23.264625
40
0.5110213
50
163.3763315
51
172.1410975
0
ARC
8
DEFAULT_255_1_234
10
15.5034229
20
23.2173518
40
0.8444586
50
172.0259487
51
178.0703232
0
ARC
8
DEFAULT_255_1_234
10
15.8064319
20
23.2029906
40
1.1477868
50
177.8631668
51
179.5044149
0
ARC
8
DEFAULT_255_1_234
10
15.6991723
20
22.9715389
40
1.0404907
50
179.7995573
51
185.2460446
0
ARC
8
DEFAULT_255_1_234
10
15.2948763
20
22.9332513
40
0.6343885
50
185.1411642
51
193.0079639
0
ARC
8
DEFAULT_255_1_234
10
15.0305235
20
22.8707641
40
0.3627568
50
192.7897626
51
205.2507664
0
ARC
8
DEFAULT_255_1_234
10
14.9258782
20
22.8240415
40
0.2481908
50
205.8005384
51
211.2537509
0
ARC
8
DEFAULT_255_1_234
10
14.8735223
20
22.788958
40
0.1852521
50
210.3789793
51
238.4008143
0
ARC
8
DEFAULT_255_1_234
10
14.8715744
20
22.7936376
40
0.1882621
50
239.6520629
51
265.9793761
0
ARC
8
DEFAULT_255_1_234
10
14.8800945
20
22.8608427
40
0.2559272
50
265.1315437
51
270.060332
0
ARC
8
DEFAULT_255_1_234
10
14.8829723
20
22.8284534
40
0.2235528
50
269.3314664
51
287.2178029
0
ARC
8
DEFAULT_255_1_234
10
14.8967575
20
22.7781279
40
0.1714108
50
287.7958004
51
329.080874
0
ARC
8
DEFAULT_255_1_234
10
14.8010032
20
22.837893
40
0.2842745
50
328.6634704
51
343.3325132
0
ARC
8
DEFAULT_255_1_234
10
14.5837052
20
22.9055863
40
0.5118644
50
343.0499468
51
351.9393422
0
ARC
8
DEFAULT_255_1_234
10
14.2370352
20
22.9566949
40
0.8622784
50
351.8069023
51
357.7959224
0
ARC
8
DEFAULT_255_1_234
10
13.9134908
20
22.9734721
40
1.1862365
50
357.5871873
51
359.2677531
0
LINE
8
DEFAULT_255_1_234
10
15.763052
20
23.0571026
11
15.763052
21
22.9358234
0
LINE
8
DEFAULT_255_1_234
10
15.763052
20
22.9358234
11
15.3711032
21
22.9358234
0
LINE
8
DEFAULT_255_1_234
10
15.3711032
20
22.9358234
11
15.3711032
21
23.0571026
0
LINE
8
DEFAULT_255_1_234
10
15.3711032
20
23.0571026
11
15.763052
21
23.0571026
0
LINE
8
DEFAULT_255_1_234
10
16.0305089
20
23.6691211
11
16.3124229
21
23.2209501
0
LINE
8
DEFAULT_255_1_234
10
16.3124229
20
23.2209501
11
16.5927306
21
23.6691211
0
LINE
8
DEFAULT_255_1_234
10
16.5927306
20
23.6691211
11
16.7742479
21
23.6691211
0
LINE
8
DEFAULT_255_1_234
10
16.7742479
20
23.6691211
11
16.4047879
21
23.0892296
0
LINE
8
DEFAULT_255_1_234
10
16.4047879
20
23.0892296
11
16.7830828
21
22.4997
0
LINE
8
DEFAULT_255_1_234
10
16.7830828
20
22.4997
11
16.5999591
21
22.4997
0
LINE
8
DEFAULT_255_1_234
10
16.5999591
20
22.4997
11
16.3124229
21
22.9559027
0
LINE
8
DEFAULT_255_1_234
10
16.3124229
20
22.9559027
11
16.0232803
21
22.4997
0
LINE
8
DEFAULT_255_1_234
10
16.0232803
20
22.4997
11
15.8409599
21
22.4997
0
LINE
8
DEFAULT_255_1_234
10
15.8409599
20
22.4997
11
16.2200579
21
23.0892296
0
LINE
8
DEFAULT_255_1_234
10
16.2200579
20
23.0892296
11
15.8497948
21
23.6691211
0
LINE
8
DEFAULT_255_1_234
10
15.8497948
20
23.6691211
11
16.0305089
21
23.6691211
0
LINE
8
DEFAULT_255_1_234
10
17.6472978
20
22.8707663
11
17.8023104
21
22.8707663
0
LINE
8
DEFAULT_255_1_234
10
16.9019525
20
23.0297947
11
16.9019525
21
23.1422391
0
LINE
8
DEFAULT_255_1_234
10
17.8023104
20
23.2932357
11
17.6472978
21
23.2932357
0
LINE
8
DEFAULT_255_1_234
10
17.056965
20
23.1382232
11
17.056965
21
23.0249757
0
ARC
8
DEFAULT_255_1_234
10
17.254249
20
22.9304846
40
0.5513052
50
340.1774281
51
353.7814284
0
ARC
8
DEFAULT_255_1_234
10
17.4113843
20
22.8719582
40
0.3836379
50
311.4558989
51
340.4421614
0
ARC
8
DEFAULT_255_1_234
10
17.4080511
20
22.8830528
40
0.3941894
50
282.4333181
51
310.7513653
0
ARC
8
DEFAULT_255_1_234
10
17.364125
20
23.0645679
40
0.5809175
50
269.9358511
51
282.809604
0
ARC
8
DEFAULT_255_1_234
10
17.3589316
20
23.2103212
40
0.7266847
50
270.0021091
51
270.3581957
0
ARC
8
DEFAULT_255_1_234
10
17.3536733
20
22.9502585
40
0.4666519
50
250.7884749
51
270.6489167
0
ARC
8
DEFAULT_255_1_234
10
17.3368568
20
22.8865319
40
0.4009729
50
219.3627325
51
250.0611886
0
ARC
8
DEFAULT_255_1_234
10
17.4197779
20
22.9570042
40
0.5097822
50
193.5479632
51
219.5756669
0
ARC
8
DEFAULT_255_1_234
10
17.65694
20
23.0185919
40
0.7547848
50
181.1218675
51
193.87563
0
ARC
8
DEFAULT_255_1_234
10
17.8639581
20
23.029658
40
0.9620055
50
179.9918545
51
181.5394234
0
ARC
8
DEFAULT_255_1_234
10
17.6788683
20
23.1459788
40
0.7769248
50
169.5837241
51
180.2757934
0
ARC
8
DEFAULT_255_1_234
10
17.4951621
20
23.1799229
40
0.590109
50
155.0365899
51
169.6003176
0
ARC
8
DEFAULT_255_1_234
10
17.3816085
20
23.2346677
40
0.4640625
50
136.783148
51
155.2472683
0
ARC
8
DEFAULT_255_1_234
10
17.3426562
20
23.2677562
40
0.4130255
50
121.7633186
51
136.428115
0
ARC
8
DEFAULT_255_1_234
10
17.3561524
20
23.2428227
40
0.4413323
50
95.6459699
51
121.5490577
0
ARC
8
DEFAULT_255_1_234
10
17.3718806
20
23.1319949
40
0.55319
50
89.924208
51
96.1377933
0
ARC
8
DEFAULT_255_1_234
10
17.3769239
20
23.1438542
40
0.5413475
50
76.6779277
51
90.4563316
0
ARC
8
DEFAULT_255_1_234
10
17.4162862
20
23.3029114
40
0.3775041
50
47.485847
51
76.9287264
0
ARC
8
DEFAULT_255_1_234
10
17.4015835
20
23.2929159
40
0.3948286
50
16.5424086
51
46.8933463
0
ARC
8
DEFAULT_255_1_234
10
17.2407992
20
23.2400861
40
0.564021
50
5.4072051
51
17.0365086
0
ARC
8
DEFAULT_255_1_234
10
17.0969009
20
23.2169679
40
0.5556559
50
7.8891745
51
15.9239216
0
ARC
8
DEFAULT_255_1_234
10
17.2956023
20
23.2746631
40
0.3487515
50
15.7653144
51
27.9410532
0
ARC
8
DEFAULT_255_1_234
10
17.406024
20
23.333779
40
0.2235026
50
27.8166557
51
46.4008329
0
ARC
8
DEFAULT_255_1_234
10
17.4109883
20
23.3332082
40
0.2205286
50
47.4371857
51
75.0698205
0
ARC
8
DEFAULT_255_1_234
10
17.3801278
20
23.2257765
40
0.3322915
50
74.7008593
51
87.8124495
0
ARC
8
DEFAULT_255_1_234
10
17.3727965
20
23.1201844
40
0.4380987
50
87.3814673
51
90.0240855
0
ARC
8
DEFAULT_255_1_234
10
17.3689508
20
23.2379291
40
0.3203749
50
89.3451631
51
108.5745436
0
ARC
8
DEFAULT_255_1_234
10
17.3552614
20
23.2892908
40
0.2673494
50
109.2998449
51
143.3037509
0
ARC
8
DEFAULT_255_1_234
10
17.4314686
20
23.2306881
40
0.3634757
50
143.0753173
51
163.1916937
0
ARC
8
DEFAULT_255_1_234
10
17.6266414
20
23.1690967
40
0.5681262
50
162.9373603
51
174.6208611
0
ARC
8
DEFAULT_255_1_234
10
17.8892456
20
23.140301
40
0.8322832
50
174.3419979
51
180.1430411
0
ARC
8
DEFAULT_255_1_234
10
17.7961612
20
23.0208698
40
0.7392076
50
179.6817502
51
189.150529
0
ARC
8
DEFAULT_255_1_234
10
17.5460861
20
22.979219
40
0.4856932
50
188.9910863
51
203.5773039
0
ARC
8
DEFAULT_255_1_234
10
17.4381193
20
22.9344211
40
0.3688271
50
203.9077269
51
215.1312379
0
ARC
8
DEFAULT_255_1_234
10
17.3458287
20
22.8628941
40
0.2522457
50
213.9071664
51
263.8849284
0
ARC
8
DEFAULT_255_1_234
10
17.3583616
20
22.9413518
40
0.3316174
50
263.1758525
51
270.1031083
0
ARC
8
DEFAULT_255_1_234
10
17.3615708
20
23.0660365
40
0.4563091
50
269.6719807
51
279.0609165
0
ARC
8
DEFAULT_255_1_234
10
17.3882476
20
22.9047907
40
0.2928759
50
278.8750225
51
293.6346586
0
ARC
8
DEFAULT_255_1_234
10
17.4202684
20
22.82959
40
0.2111472
50
293.8553404
51
310.0518804
0
ARC
8
DEFAULT_255_1_234
10
17.4207538
20
22.8233516
40
0.2060917
50
311.0646779
51
332.0108348
0
ARC
8
DEFAULT_255_1_234
10
17.3015265
20
22.8890978
40
0.3422352
50
331.6588543
51
343.2878891
0
ARC
8
DEFAULT_255_1_234
10
17.095278
20
22.9524798
40
0.5580003
50
343.1446044
51
351.010618
0
ARC
8
DEFAULT_255_1_234
10
16.9411426
20
22.9805871
40
0.7146438
50
350.7157277
51
351.1602153
0
LINE
8
DEFAULT_255_1_234
10
4.9274119
20
20.6366792
11
4.9274119
21
20.5154
0
LINE
8
DEFAULT_255_1_234
10
4.9274119
20
20.5154
11
4.161184
21
20.5154
0
LINE
8
DEFAULT_255_1_234
10
4.161184
20
20.5154
11
4.161184
21
20.6222221
0
LINE
8
DEFAULT_255_1_234
10
4.161184
20
20.6222221
11
4.5659836
21
21.0719995
0
LINE
8
DEFAULT_255_1_234
10
4.2872823
20
21.3402595
11
4.1386952
21
21.3402595
0
LINE
8
DEFAULT_255_1_234
10
4.6535296
20
20.9764218
11
4.3402918
21
20.6366792
0
LINE
8
DEFAULT_255_1_234
10
4.3402918
20
20.6366792
11
4.9274119
21
20.6366792
0
ARC
8
DEFAULT_255_1_234
10
3.216967
20
22.2649527
40
1.8008286
50
318.5132453
51
320.7828378
0
ARC
8
DEFAULT_255_1_234
10
3.7456644
20
21.8346426
40
1.1191493
50
320.7372736
51
323.9737074
0
ARC
8
DEFAULT_255_1_234
10
4.1376501
20
21.5506361
40
0.6350923
50
323.8961724
51
328.6421089
0
ARC
8
DEFAULT_255_1_234
10
4.3423096
20
21.4244031
40
0.3946393
50
328.8299013
51
331.789948
0
ARC
8
DEFAULT_255_1_234
10
4.4420274
20
21.3729509
40
0.2824501
50
331.4255242
51
352.9364833
0
ARC
8
DEFAULT_255_1_234
10
4.4556775
20
21.3698976
40
0.2685315
50
353.2248685
51
0.0169286
0
ARC
8
DEFAULT_255_1_234
10
4.4766652
20
21.372195
40
0.2475536
50
359.4866256
51
15.9339782
0
ARC
8
DEFAULT_255_1_234
10
4.5273637
20
21.3858286
40
0.1950618
50
16.1714718
51
43.5284424
0
ARC
8
DEFAULT_255_1_234
10
4.5350946
20
21.3935573
40
0.184134
50
43.4415429
51
83.1661404
0
ARC
8
DEFAULT_255_1_234
10
4.5216864
20
21.3198771
40
0.258926
50
82.160215
51
90.1505798
0
ARC
8
DEFAULT_255_1_234
10
4.5185291
20
21.2661865
40
0.3126255
50
89.5460705
51
102.5418777
0
ARC
8
DEFAULT_255_1_234
10
4.4942377
20
21.3692665
40
0.2067346
50
102.1739365
51
129.2061916
0
ARC
8
DEFAULT_255_1_234
10
4.4863449
20
21.3817094
40
0.1921118
50
129.7279328
51
135.7542026
0
ARC
8
DEFAULT_255_1_234
10
4.4984977
20
21.3720045
40
0.2075944
50
136.175737
51
166.3674722
0
ARC
8
DEFAULT_255_1_234
10
4.5991896
20
21.3450182
40
0.3118201
50
165.9092917
51
178.8683903
0
ARC
8
DEFAULT_255_1_234
10
4.6856757
20
21.3403179
40
0.3983935
50
178.438168
51
180.0083905
0
ARC
8
DEFAULT_255_1_234
10
4.5455359
20
21.3442231
40
0.4068601
50
163.2878735
51
180.5581814
0
ARC
8
DEFAULT_255_1_234
10
4.4653621
20
21.366284
40
0.3237344
50
133.454115
51
162.9470031
0
ARC
8
DEFAULT_255_1_234
10
4.4832162
20
21.3473
40
0.349795
50
100.7869394
51
133.4384016
0
ARC
8
DEFAULT_255_1_234
10
4.5179934
20
21.1924319
40
0.5084616
50
89.6605301
51
101.3704185
0
ARC
8
DEFAULT_255_1_234
10
4.5246273
20
21.1985496
40
0.502348
50
78.2171172
51
90.4130393
0
ARC
8
DEFAULT_255_1_234
10
4.5601351
20
21.3609637
40
0.3361092
50
55.9268222
51
78.4888551
0
ARC
8
DEFAULT_255_1_234
10
4.5797791
20
21.3948324
40
0.2970617
50
47.9292255
51
55.4054003
0
ARC
8
DEFAULT_255_1_234
10
4.5899352
20
21.4051502
40
0.2825983
50
4.3347696
51
48.0560701
0
ARC
8
DEFAULT_255_1_234
10
4.4803745
20
21.3881601
40
0.393225
50
359.925209
51
5.5967654
0
ARC
8
DEFAULT_255_1_234
10
4.5232637
20
21.3937816
40
0.3503892
50
337.8914096
51
358.9967724
0
ARC
8
DEFAULT_255_1_234
10
4.2519049
20
21.4984706
40
0.6412172
50
326.9135351
51
338.3505194
0
ARC
8
DEFAULT_255_1_234
10
3.8533353
20
21.7539284
40
1.1146189
50
319.6472867
51
327.095818
0
ARC
8
DEFAULT_255_1_234
10
3.4700356
20
22.0701
40
1.6114559
50
317.2586784
51
319.9046139
0
LINE
8
DEFAULT_255_1_234
10
5.7121127
20
21.6848211
11
5.7121127
21
20.908152
0
LINE
8
DEFAULT_255_1_234
10
5.7121127
20
20.908152
11
5.8743538
21
20.908152
0
LINE
8
DEFAULT_255_1_234
10
5.8743538
20
20.908152
11
5.8743538
21
20.7868728
0
LINE
8
DEFAULT_255_1_234
10
5.8743538
20
20.7868728
11
5.7121127
21
20.7868728
0
LINE
8
DEFAULT_255_1_234
10
5.7121127
20
20.7868728
11
5.7121127
21
20.5154
0
LINE
8
DEFAULT_255_1_234
10
5.7121127
20
20.5154
11
5.5627224
21
20.5154
0
LINE
8
DEFAULT_255_1_234
10
5.5627224
20
20.5154
11
5.5627224
21
20.7868728
0
LINE
8
DEFAULT_255_1_234
10
5.5627224
20
20.7868728
11
5.0302181
21
20.7868728
0
LINE
8
DEFAULT_255_1_234
10
5.0302181
20
20.7868728
11
5.0302181
21
20.8744187
0
LINE
8
DEFAULT_255_1_234
10
5.0302181
20
20.8744187
11
5.5538875
21
21.6848211
0
LINE
8
DEFAULT_255_1_234
10
5.5538875
20
21.6848211
11
5.7121127
21
21.6848211
0
LINE
8
DEFAULT_255_1_234
10
5.5450525
20
21.4494912
11
5.1988846
21
20.908152
0
LINE
8
DEFAULT_255_1_234
10
5.1988846
20
20.908152
11
5.5627224
21
20.908152
0
LINE
8
DEFAULT_255_1_234
10
5.5627224
20
20.908152
11
5.5627224
21
21.4816181
0
LINE
8
DEFAULT_255_1_234
10
5.5627224
20
21.4816181
11
5.5450525
21
21.4494912
0
LINE
8
DEFAULT_255_1_234
10
6.101652
20
21.6848211
11
6.434166
21
20.7202093
0
LINE
8
DEFAULT_255_1_234
10
6.434166
20
20.7202093
11
6.7682863
21
21.6848211
0
LINE
8
DEFAULT_255_1_234
10
6.7682863
20
21.6848211
11
6.9369528
21
21.6848211
0
LINE
8
DEFAULT_255_1_234
10
6.9369528
20
21.6848211
11
6.5032389
21
20.5154
0
LINE
8
DEFAULT_255_1_234
10
6.5032389
20
20.5154
11
6.3666994
21
20.5154
0
LINE
8
DEFAULT_255_1_234
10
6.3666994
20
20.5154
11
5.9337887
21
21.6848211
0
LINE
8
DEFAULT_255_1_234
10
5.9337887
20
21.6848211
11
6.101652
21
21.6848211
0
LINE
8
DEFAULT_255_1_234
10
4.8957484
20
5.3070343
11
4.8957484
21
5.180936
0
LINE
8
DEFAULT_255_1_234
10
4.8957484
20
5.180936
11
4.3889458
21
5.180936
0
LINE
8
DEFAULT_255_1_234
10
4.3889458
20
5.180936
11
4.3889458
21
4.7664983
0
LINE
8
DEFAULT_255_1_234
10
4.3889458
20
4.7664983
11
4.9776722
21
4.7664983
0
LINE
8
DEFAULT_255_1_234
10
4.9776722
20
4.7664983
11
4.9776722
21
4.6404
0
LINE
8
DEFAULT_255_1_234
10
4.9776722
20
4.6404
11
4.2347364
21
4.6404
0
LINE
8
DEFAULT_255_1_234
10
4.2347364
20
4.6404
11
4.2347364
21
5.8098211
0
LINE
8
DEFAULT_255_1_234
10
4.2347364
20
5.8098211
11
4.9696404
21
5.8098211
0
LINE
8
DEFAULT_255_1_234
10
4.9696404
20
5.8098211
11
4.9696404
21
5.6829196
0
LINE
8
DEFAULT_255_1_234
10
4.9696404
20
5.6829196
11
4.3889458
21
5.6829196
0
LINE
8
DEFAULT_255_1_234
10
4.3889458
20
5.6829196
11
4.3889458
21
5.3070343
0
LINE
8
DEFAULT_255_1_234
10
4.3889458
20
5.3070343
11
4.8957484
21
5.3070343
0
LINE
8
DEFAULT_255_1_234
10
5.9936871
20
5.8098211
11
5.9936871
21
5.6829196
0
LINE
8
DEFAULT_255_1_234
10
5.9936871
20
5.6829196
11
5.6178017
21
5.6829196
0
LINE
8
DEFAULT_255_1_234
10
5.6178017
20
5.6829196
11
5.6178017
21
4.6404
0
LINE
8
DEFAULT_255_1_234
10
5.6178017
20
4.6404
11
5.4643955
21
4.6404
0
LINE
8
DEFAULT_255_1_234
10
5.4643955
20
4.6404
11
5.4643955
21
5.6829196
0
LINE
8
DEFAULT_255_1_234
10
5.4643955
20
5.6829196
11
5.0893133
21
5.6829196
0
LINE
8
DEFAULT_255_1_234
10
5.0893133
20
5.6829196
11
5.0893133
21
5.8098211
0
LINE
8
DEFAULT_255_1_234
10
5.0893133
20
5.8098211
11
5.9936871
21
5.8098211
0
LINE
8
DEFAULT_255_1_234
10
7.0659241
20
5.8098211
11
7.0659241
21
4.6404
0
LINE
8
DEFAULT_255_1_234
10
7.0659241
20
4.6404
11
6.9109116
21
4.6404
0
LINE
8
DEFAULT_255_1_234
10
6.9109116
20
4.6404
11
6.9109116
21
5.180936
0
LINE
8
DEFAULT_255_1_234
10
6.9109116
20
5.180936
11
6.321382
21
5.180936
0
LINE
8
DEFAULT_255_1_234
10
6.321382
20
5.180936
11
6.321382
21
4.6404
0
LINE
8
DEFAULT_255_1_234
10
6.321382
20
4.6404
11
6.1671726
21
4.6404
0
LINE
8
DEFAULT_255_1_234
10
6.1671726
20
4.6404
11
6.1671726
21
5.8098211
0
LINE
8
DEFAULT_255_1_234
10
6.1671726
20
5.8098211
11
6.321382
21
5.8098211
0
LINE
8
DEFAULT_255_1_234
10
6.321382
20
5.8098211
11
6.321382
21
5.3070343
0
LINE
8
DEFAULT_255_1_234
10
6.321382
20
5.3070343
11
6.9109116
21
5.3070343
0
LINE
8
DEFAULT_255_1_234
10
6.9109116
20
5.3070343
11
6.9109116
21
5.8098211
0
LINE
8
DEFAULT_255_1_234
10
6.9109116
20
5.8098211
11
7.0659241
21
5.8098211
0
LINE
8
DEFAULT_255_1_234
10
8.0674819
20
4.7616792
11
8.0674819
21
4.6404
0
LINE
8
DEFAULT_255_1_234
10
8.0674819
20
4.6404
11
7.3012541
21
4.6404
0
LINE
8
DEFAULT_255_1_234
10
7.3012541
20
4.6404
11
7.3012541
21
4.7472221
0
LINE
8
DEFAULT_255_1_234
10
7.3012541
20
4.7472221
11
7.7060537
21
5.1969995
0
LINE
8
DEFAULT_255_1_234
10
7.4273523
20
5.4652595
11
7.2787652
21
5.4652595
0
LINE
8
DEFAULT_255_1_234
10
7.7935996
20
5.1014218
11
7.4803618
21
4.7616792
0
LINE
8
DEFAULT_255_1_234
10
7.4803618
20
4.7616792
11
8.0674819
21
4.7616792
0
ARC
8
DEFAULT_255_1_234
10
6.357037
20
6.3899527
40
1.8008286
50
318.5132453
51
320.7828378
0
ARC
8
DEFAULT_255_1_234
10
6.8857344
20
5.9596426
40
1.1191493
50
320.7372736
51
323.9737074
0
ARC
8
DEFAULT_255_1_234
10
7.2777201
20
5.6756361
40
0.6350923
50
323.8961724
51
328.6421089
0
ARC
8
DEFAULT_255_1_234
10
7.4823796
20
5.5494031
40
0.3946393
50
328.8299013
51
331.789948
0
ARC
8
DEFAULT_255_1_234
10
7.5820975
20
5.4979509
40
0.2824501
50
331.4255242
51
352.9364833
0
ARC
8
DEFAULT_255_1_234
10
7.5957475
20
5.4948976
40
0.2685315
50
353.2248685
51
0.0169286
0
ARC
8
DEFAULT_255_1_234
10
7.6167352
20
5.497195
40
0.2475536
50
359.4866256
51
15.9339782
0
ARC
8
DEFAULT_255_1_234
10
7.6674337
20
5.5108286
40
0.1950618
50
16.1714718
51
43.5284424
0
ARC
8
DEFAULT_255_1_234
10
7.6751646
20
5.5185573
40
0.184134
50
43.4415429
51
83.1661404
0
ARC
8
DEFAULT_255_1_234
10
7.6617564
20
5.4448771
40
0.258926
50
82.160215
51
90.1505798
0
ARC
8
DEFAULT_255_1_234
10
7.6585992
20
5.3911865
40
0.3126255
50
89.5460705
51
102.5418777
0
ARC
8
DEFAULT_255_1_234
10
7.6343078
20
5.4942665
40
0.2067346
50
102.1739365
51
129.2061916
0
ARC
8
DEFAULT_255_1_234
10
7.6264149
20
5.5067094
40
0.1921118
50
129.7279328
51
135.7542026
0
ARC
8
DEFAULT_255_1_234
10
7.6385677
20
5.4970045
40
0.2075944
50
136.175737
51
166.3674722
0
ARC
8
DEFAULT_255_1_234
10
7.7392596
20
5.4700182
40
0.3118201
50
165.9092917
51
178.8683903
0
ARC
8
DEFAULT_255_1_234
10
7.8257458
20
5.4653179
40
0.3983935
50
178.438168
51
180.0083905
0
ARC
8
DEFAULT_255_1_234
10
7.685606
20
5.4692231
40
0.4068601
50
163.2878735
51
180.5581814
0
ARC
8
DEFAULT_255_1_234
10
7.6054321
20
5.491284
40
0.3237344
50
133.454115
51
162.9470031
0
ARC
8
DEFAULT_255_1_234
10
7.6232863
20
5.4723
40
0.349795
50
100.7869394
51
133.4384016
0
ARC
8
DEFAULT_255_1_234
10
7.6580634
20
5.3174319
40
0.5084616
50
89.6605301
51
101.3704185
0
ARC
8
DEFAULT_255_1_234
10
7.6646973
20
5.3235496
40
0.502348
50
78.2171172
51
90.4130393
0
ARC
8
DEFAULT_255_1_234
10
7.7002051
20
5.4859637
40
0.3361092
50
55.9268222
51
78.4888551
0
ARC
8
DEFAULT_255_1_234
10
7.7198491
20
5.5198324
40
0.2970617
50
47.9292255
51
55.4054003
0
ARC
8
DEFAULT_255_1_234
10
7.7300052
20
5.5301502
40
0.2825983
50
4.3347696
51
48.0560701
0
ARC
8
DEFAULT_255_1_234
10
7.6204446
20
5.5131601
40
0.393225
50
359.925209
51
5.5967654
0
ARC
8
DEFAULT_255_1_234
10
7.6633337
20
5.5187816
40
0.3503892
50
337.8914096
51
358.9967724
0
ARC
8
DEFAULT_255_1_234
10
7.3919749
20
5.6234706
40
0.6412172
50
326.9135351
51
338.3505194
0
ARC
8
DEFAULT_255_1_234
10
6.9934053
20
5.8789284
40
1.1146189
50
319.6472867
51
327.095818
0
ARC
8
DEFAULT_255_1_234
10
6.6101056
20
6.1951
40
1.6114559
50
317.2586784
51
319.9046139
0
LINE
8
DEFAULT_255_1_234
10
4.8873484
20
13.2445343
11
4.8873484
21
13.118436
0
LINE
8
DEFAULT_255_1_234
10
4.8873484
20
13.118436
11
4.3805458
21
13.118436
0
LINE
8
DEFAULT_255_1_234
10
4.3805458
20
13.118436
11
4.3805458
21
12.7039983
0
LINE
8
DEFAULT_255_1_234
10
4.3805458
20
12.7039983
11
4.9692722
21
12.7039983
0
LINE
8
DEFAULT_255_1_234
10
4.9692722
20
12.7039983
11
4.9692722
21
12.5779
0
LINE
8
DEFAULT_255_1_234
10
4.9692722
20
12.5779
11
4.2263364
21
12.5779
0
LINE
8
DEFAULT_255_1_234
10
4.2263364
20
12.5779
11
4.2263364
21
13.7473211
0
LINE
8
DEFAULT_255_1_234
10
4.2263364
20
13.7473211
11
4.9612404
21
13.7473211
0
LINE
8
DEFAULT_255_1_234
10
4.9612404
20
13.7473211
11
4.9612404
21
13.6204196
0
LINE
8
DEFAULT_255_1_234
10
4.9612404
20
13.6204196
11
4.3805458
21
13.6204196
0
LINE
8
DEFAULT_255_1_234
10
4.3805458
20
13.6204196
11
4.3805458
21
13.2445343
0
LINE
8
DEFAULT_255_1_234
10
4.3805458
20
13.2445343
11
4.8873484
21
13.2445343
0
LINE
8
DEFAULT_255_1_234
10
5.9852871
20
13.7473211
11
5.9852871
21
13.6204196
0
LINE
8
DEFAULT_255_1_234
10
5.9852871
20
13.6204196
11
5.6094017
21
13.6204196
0
LINE
8
DEFAULT_255_1_234
10
5.6094017
20
13.6204196
11
5.6094017
21
12.5779
0
LINE
8
DEFAULT_255_1_234
10
5.6094017
20
12.5779
11
5.4559955
21
12.5779
0
LINE
8
DEFAULT_255_1_234
10
5.4559955
20
12.5779
11
5.4559955
21
13.6204196
0
LINE
8
DEFAULT_255_1_234
10
5.4559955
20
13.6204196
11
5.0809133
21
13.6204196
0
LINE
8
DEFAULT_255_1_234
10
5.0809133
20
13.6204196
11
5.0809133
21
13.7473211
0
LINE
8
DEFAULT_255_1_234
10
5.0809133
20
13.7473211
11
5.9852871
21
13.7473211
0
LINE
8
DEFAULT_255_1_234
10
7.0575241
20
13.7473211
11
7.0575241
21
12.5779
0
LINE
8
DEFAULT_255_1_234
10
7.0575241
20
12.5779
11
6.9025116
21
12.5779
0
LINE
8
DEFAULT_255_1_234
10
6.9025116
20
12.5779
11
6.9025116
21
13.118436
0
LINE
8
DEFAULT_255_1_234
10
6.9025116
20
13.118436
11
6.312982
21
13.118436
0
LINE
8
DEFAULT_255_1_234
10
6.312982
20
13.118436
11
6.312982
21
12.5779
0
LINE
8
DEFAULT_255_1_234
10
6.312982
20
12.5779
11
6.1587726
21
12.5779
0
LINE
8
DEFAULT_255_1_234
10
6.1587726
20
12.5779
11
6.1587726
21
13.7473211
0
LINE
8
DEFAULT_255_1_234
10
6.1587726
20
13.7473211
11
6.312982
21
13.7473211
0
LINE
8
DEFAULT_255_1_234
10
6.312982
20
13.7473211
11
6.312982
21
13.2445343
0
LINE
8
DEFAULT_255_1_234
10
6.312982
20
13.2445343
11
6.9025116
21
13.2445343
0
LINE
8
DEFAULT_255_1_234
10
6.9025116
20
13.2445343
11
6.9025116
21
13.7473211
0
LINE
8
DEFAULT_255_1_234
10
6.9025116
20
13.7473211
11
7.0575241
21
13.7473211
0
LINE
8
DEFAULT_255_1_234
10
7.7811837
20
13.7529433
11
7.7811837
21
12.5779
0
LINE
8
DEFAULT_255_1_234
10
7.7811837
20
12.5779
11
7.6317934
21
12.5779
0
LINE
8
DEFAULT_255_1_234
10
7.6317934
20
12.5779
11
7.6317934
21
13.5682133
0
LINE
8
DEFAULT_255_1_234
10
7.6317934
20
13.5682133
11
7.3322096
21
13.4581785
0
LINE
8
DEFAULT_255_1_234
10
7.3322096
20
13.4581785
11
7.3322096
21
13.5931117
0
LINE
8
DEFAULT_255_1_234
10
7.3322096
20
13.5931117
11
7.7578917
21
13.7529433
0
LINE
8
DEFAULT_255_1_234
10
7.7578917
20
13.7529433
11
7.7811837
21
13.7529433
0
LINE
8
DEFAULT_255_1_234
10
23.1659817
20
21.2069327
11
23.1659817
21
21.0141709
0
LINE
8
DEFAULT_255_1_234
10
22.427865
20
20.9940916
11
22.427865
21
21.1924755
0
LINE
8
DEFAULT_255_1_234
10
23.0173946
20
20.9740123
11
23.0173946
21
21.2173739
0
LINE
8
DEFAULT_255_1_234
10
22.5764521
20
21.2286184
11
22.5764521
21
20.9908789
0
ARC
8
DEFAULT_255_1_234
10
21.9412707
20
21.0092805
40
1.2247208
50
353.8441951
51
0.2287902
0
ARC
8
DEFAULT_255_1_234
10
22.4052211
20
20.9574806
40
0.7578929
50
344.4934747
51
353.9765454
0
ARC
8
DEFAULT_255_1_234
10
22.7044801
20
20.8723981
40
0.4467846
50
329.2803592
51
344.7472793
0
ARC
8
DEFAULT_255_1_234
10
22.8037626
20
20.8179018
40
0.3336173
50
324.9352394
51
328.6160465
0
ARC
8
DEFAULT_255_1_234
10
22.8414734
20
20.7915427
40
0.2876076
50
280.580143
51
324.9173126
0
ARC
8
DEFAULT_255_1_234
10
22.8013527
20
20.9586099
40
0.4592847
50
269.5977311
51
281.6734359
0
ARC
8
DEFAULT_255_1_234
10
22.7941433
20
20.9466173
40
0.4472986
50
256.6228859
51
270.51044
0
ARC
8
DEFAULT_255_1_234
10
22.753941
20
20.7917877
40
0.2873874
50
215.8618325
51
257.2788573
0
ARC
8
DEFAULT_255_1_234
10
22.8560442
20
20.8602977
40
0.4102928
50
197.9693508
51
215.2623606
0
ARC
8
DEFAULT_255_1_234
10
23.1045558
20
20.9441709
40
0.6725652
50
187.8816417
51
198.2346507
0
ARC
8
DEFAULT_255_1_234
10
23.5003766
20
21.0013079
40
1.0724845
50
180.8976217
51
188.0055519
0
ARC
8
DEFAULT_255_1_234
10
23.7803954
20
21.0116777
40
1.3526448
50
180.7449369
51
181.1510016
0
ARC
8
DEFAULT_255_1_234
10
23.6226683
20
21.1973042
40
1.1948131
50
173.7675579
51
180.231553
0
ARC
8
DEFAULT_255_1_234
10
23.170883
20
21.2483666
40
0.7401564
50
164.3058563
51
173.9002247
0
ARC
8
DEFAULT_255_1_234
10
22.8796899
20
21.3322656
40
0.4371288
50
148.7922025
51
164.568378
0
ARC
8
DEFAULT_255_1_234
10
22.7845351
20
21.3853929
40
0.3282386
50
144.5883898
51
148.1176286
0
ARC
8
DEFAULT_255_1_234
10
22.7502249
20
21.4093315
40
0.2864044
50
101.6440918
51
144.514236
0
ARC
8
DEFAULT_255_1_234
10
22.7927315
20
21.2404069
40
0.4604934
50
89.5284041
51
102.5819763
0
ARC
8
DEFAULT_255_1_234
10
22.8006403
20
21.2365018
40
0.464401
50
77.0437873
51
90.5081339
0
ARC
8
DEFAULT_255_1_234
10
22.8408405
20
21.4007615
40
0.2953195
50
48.2778575
51
77.4994676
0
ARC
8
DEFAULT_255_1_234
10
22.8481036
20
21.4136746
40
0.2808655
50
36.3142134
51
47.6305865
0
ARC
8
DEFAULT_255_1_234
10
22.7612343
20
21.3551515
40
0.3855453
50
18.2931786
51
35.6769206
0
ARC
8
DEFAULT_255_1_234
10
22.5069102
20
21.2678593
40
0.654423
50
8.024666
51
18.5605216
0
ARC
8
DEFAULT_255_1_234
10
22.0906022
20
21.2063792
40
1.0752407
50
1.1274072
51
8.1718305
0
ARC
8
DEFAULT_255_1_234
10
21.7670213
20
21.1936885
40
1.3990231
50
0.5424119
51
1.3863029
0
ARC
8
DEFAULT_255_1_234
10
21.949159
20
21.2209342
40
1.0682415
50
359.8090433
51
4.9407866
0
ARC
8
DEFAULT_255_1_234
10
22.3701604
20
21.2585113
40
0.6455691
50
4.8362157
51
12.2904523
0
ARC
8
DEFAULT_255_1_234
10
22.6456719
20
21.3198965
40
0.3633074
50
12.0805627
51
23.8173984
0
ARC
8
DEFAULT_255_1_234
10
22.7630425
20
21.3695919
40
0.2358723
50
24.2871213
51
31.3935614
0
ARC
8
DEFAULT_255_1_234
10
22.8155122
20
21.4039233
40
0.1732111
50
30.7407893
51
82.4657128
0
ARC
8
DEFAULT_255_1_234
10
22.7975256
20
21.3155691
40
0.263235
50
81.1060089
51
90.2184952
0
ARC
8
DEFAULT_255_1_234
10
22.7939555
20
21.3413924
40
0.2374236
50
89.3806855
51
105.6762551
0
ARC
8
DEFAULT_255_1_234
10
22.7756186
20
21.4080567
40
0.1682847
50
105.7981136
51
149.7388061
0
ARC
8
DEFAULT_255_1_234
10
22.8820264
20
21.344095
40
0.2924306
50
149.4208916
51
163.6286378
0
ARC
8
DEFAULT_255_1_234
10
23.0911152
20
21.280325
40
0.5110213
50
163.3763315
51
172.1410975
0
ARC
8
DEFAULT_255_1_234
10
23.4211871
20
21.2330518
40
0.8444586
50
172.0259487
51
178.0703232
0
ARC
8
DEFAULT_255_1_234
10
23.724196
20
21.2186906
40
1.1477868
50
177.8631668
51
179.5044149
0
ARC
8
DEFAULT_255_1_234
10
23.6169365
20
20.9872389
40
1.0404907
50
179.7995573
51
185.2460446
0
ARC
8
DEFAULT_255_1_234
10
23.2126404
20
20.9489513
40
0.6343885
50
185.1411642
51
193.0079639
0
ARC
8
DEFAULT_255_1_234
10
22.9482877
20
20.8864641
40
0.3627568
50
192.7897626
51
205.2507664
0
ARC
8
DEFAULT_255_1_234
10
22.8436424
20
20.8397415
40
0.2481908
50
205.8005384
51
211.2537509
0
ARC
8
DEFAULT_255_1_234
10
22.7912864
20
20.804658
40
0.1852521
50
210.3789793
51
238.4008143
0
ARC
8
DEFAULT_255_1_234
10
22.7893386
20
20.8093376
40
0.1882621
50
239.6520629
51
265.9793761
0
ARC
8
DEFAULT_255_1_234
10
22.7978586
20
20.8765427
40
0.2559272
50
265.1315437
51
270.060332
0
ARC
8
DEFAULT_255_1_234
10
22.8007365
20
20.8441534
40
0.2235528
50
269.3314664
51
287.2178029
0
ARC
8
DEFAULT_255_1_234
10
22.8145217
20
20.7938279
40
0.1714108
50
287.7958004
51
329.080874
0
ARC
8
DEFAULT_255_1_234
10
22.7187674
20
20.853593
40
0.2842745
50
328.6634704
51
343.3325132
0
ARC
8
DEFAULT_255_1_234
10
22.5014694
20
20.9212863
40
0.5118644
50
343.0499468
51
351.9393422
0
ARC
8
DEFAULT_255_1_234
10
22.1547994
20
20.9723949
40
0.8622784
50
351.8069023
51
357.7959224
0
ARC
8
DEFAULT_255_1_234
10
21.831255
20
20.9891721
40
1.1862365
50
357.5871873
51
359.2677531
0
LINE
8
DEFAULT_255_1_234
10
23.4495021
20
21.6848211
11
23.7820161
21
20.7202093
0
LINE
8
DEFAULT_255_1_234
10
23.7820161
20
20.7202093
11
24.1161364
21
21.6848211
0
LINE
8
DEFAULT_255_1_234
10
24.1161364
20
21.6848211
11
24.2848029
21
21.6848211
0
LINE
8
DEFAULT_255_1_234
10
24.2848029
20
21.6848211
11
23.851089
21
20.5154
0
LINE
8
DEFAULT_255_1_234
10
23.851089
20
20.5154
11
23.7145495
21
20.5154
0
LINE
8
DEFAULT_255_1_234
10
23.7145495
20
20.5154
11
23.2816388
21
21.6848211
0
LINE
8
DEFAULT_255_1_234
10
23.2816388
20
21.6848211
11
23.4495021
21
21.6848211
0
ENDSEC
0
EOF