0
SECTION
2
HEADER
9
$MEASUREMENT
70
1
0
ENDSEC
0
SECTION
2
TABLES
0
TABLE
2
LTYPE
0
LTYPE
72
65
70
64
2
CONTINUOUS
3
______
73
0
40
0
0
ENDTAB
0
TABLE
2
LAYER
0
LAYER
2
DEFAULT_255_2_778
70
0
62
255
6
CONTINUOUS
0
LAYER
2
DEFAULT_255_1_388
70
0
62
255
6
CONTINUOUS
0
ENDTAB
0
ENDSEC
0
SECTION
2
ENTITIES
0
ARC
8
DEFAULT_255_2_778
10
3.5700693
20
28.1802037
40
0.7914215
50
129.1312896
51
180.1450914
0
ARC
8
DEFAULT_255_2_778
10
3.5703345
20
28.1806908
40
0.7912112
50
89.854026
51
129.1684493
0
ARC
8
DEFAULT_255_2_778
10
25.7993937
20
28.1803773
40
0.7915249
50
39.4792447
51
90.147911
0
ARC
8
DEFAULT_255_2_778
10
25.7999935
20
28.180224
40
0.7911595
50
359.8533901
51
39.5154338
0
ARC
8
DEFAULT_255_2_778
10
25.7996693
20
-1.9863486
40
0.7914836
50
309.4761667
51
0.1482649
0
ARC
8
DEFAULT_255_2_778
10
25.799398
20
-1.9867797
40
0.7913235
50
269.8517415
51
309.511178
0
ARC
8
DEFAULT_255_2_778
10
3.570342
20
-1.9867215
40
0.7913815
50
219.1282118
51
270.1454017
0
ARC
8
DEFAULT_255_2_778
10
3.5700247
20
-1.986339
40
0.7913769
50
179.8524075
51
219.1641908
0
LINE
8
DEFAULT_255_2_778
10
3.5723503
20
28.9718996
11
25.7973503
21
28.9718996
0
LINE
8
DEFAULT_255_2_778
10
26.5911503
20
28.1781996
11
26.5911503
21
-1.9843004
0
LINE
8
DEFAULT_255_2_778
10
25.7973503
20
-2.7781004
11
3.5723503
21
-2.7781004
0
LINE
8
DEFAULT_255_2_778
10
2.7786503
20
-1.9843004
11
2.7786503
21
28.1781996
0
LINE
8
DEFAULT_255_1_388
10
9.261632
20
-0.2223532
11
9.4360199
21
-0.2223532
0
LINE
8
DEFAULT_255_1_388
10
8.4231242
20
-0.0434475
11
8.4231242
21
0.0830516
0
LINE
8
DEFAULT_255_1_388
10
9.4360199
20
0.2529217
11
9.261632
21
0.2529217
0
LINE
8
DEFAULT_255_1_388
10
8.5975121
20
0.0785337
11
8.5975121
21
-0.0488688
0
ARC
8
DEFAULT_255_1_388
10
8.8194433
20
-0.1551671
40
0.6202263
50
340.1774904
51
353.7812217
0
ARC
8
DEFAULT_255_1_388
10
8.9962286
20
-0.2210107
40
0.4315926
50
311.4560052
51
340.4420756
0
ARC
8
DEFAULT_255_1_388
10
8.9924826
20
-0.2085335
40
0.4434573
50
282.4332229
51
310.7514507
0
ARC
8
DEFAULT_255_1_388
10
8.9430644
20
-0.0043297
40
0.6535262
50
269.9358869
51
282.8096729
0
ARC
8
DEFAULT_255_1_388
10
8.9372583
20
0.1469329
40
0.8048043
50
269.9995752
51
270.3612856
0
ARC
8
DEFAULT_255_1_388
10
8.9313073
20
-0.1329219
40
0.5249831
50
250.7885263
51
270.6488451
0
ARC
8
DEFAULT_255_1_388
10
8.9123898
20
-0.2046147
40
0.4510942
50
219.3628377
51
250.0611024
0
ARC
8
DEFAULT_255_1_388
10
9.0056772
20
-0.1253347
40
0.5735046
50
193.5480293
51
219.5755675
0
ARC
8
DEFAULT_255_1_388
10
9.2724981
20
-0.056048
40
0.849146
50
181.1220183
51
193.8754971
0
ARC
8
DEFAULT_255_1_388
10
9.5048214
20
-0.0436086
40
1.0816971
50
179.9914644
51
181.5398227
0
ARC
8
DEFAULT_255_1_388
10
9.2971525
20
0.0872586
40
0.8740384
50
169.5837606
51
180.275782
0
ARC
8
DEFAULT_255_1_388
10
9.0904873
20
0.1254439
40
0.6638751
50
155.0367033
51
169.6002779
0
ARC
8
DEFAULT_255_1_388
10
8.9627331
20
0.1870336
40
0.5220662
50
136.7831557
51
155.2472983
0
ARC
8
DEFAULT_255_1_388
10
8.9189122
20
0.2242577
40
0.4646502
50
121.7633063
51
136.4281161
0
ARC
8
DEFAULT_255_1_388
10
8.9340962
20
0.1962049
40
0.4964979
50
95.6460018
51
121.5489589
0
ARC
8
DEFAULT_255_1_388
10
8.9517936
20
0.0714704
40
0.6223912
50
89.9245727
51
96.1375919
0
ARC
8
DEFAULT_255_1_388
10
8.9574641
20
0.0848721
40
0.6090084
50
76.6779212
51
90.456405
0
ARC
8
DEFAULT_255_1_388
10
9.0017454
20
0.263806
40
0.42469
50
47.4858803
51
76.9287069
0
ARC
8
DEFAULT_255_1_388
10
8.9852068
20
0.2525623
40
0.4441778
50
16.5424081
51
46.8934505
0
ARC
8
DEFAULT_255_1_388
10
8.8043118
20
0.1931265
40
0.6345318
50
5.4072971
51
17.0363711
0
ARC
8
DEFAULT_255_1_388
10
8.6424843
20
0.1671304
40
0.6250632
50
7.8888693
51
15.9242022
0
ARC
8
DEFAULT_255_1_388
10
8.8659828
20
0.2320309
40
0.3923364
50
15.7650676
51
27.9410069
0
ARC
8
DEFAULT_255_1_388
10
8.9901997
20
0.2985317
40
0.2514401
50
27.8167196
51
46.4007942
0
ARC
8
DEFAULT_255_1_388
10
8.9957839
20
0.2978882
40
0.2480958
50
47.4372362
51
75.0695672
0
ARC
8
DEFAULT_255_1_388
10
8.9610675
20
0.1770277
40
0.3738281
50
74.7009379
51
87.8124314
0
ARC
8
DEFAULT_255_1_388
10
8.9528292
20
0.0586659
40
0.4924321
50
87.3802571
51
90.0251599
0
ARC
8
DEFAULT_255_1_388
10
8.9484939
20
0.1906997
40
0.3604218
50
89.3451886
51
108.5744412
0
ARC
8
DEFAULT_255_1_388
10
8.9330931
20
0.2484836
40
0.3007661
50
109.2998307
51
143.3037387
0
ARC
8
DEFAULT_255_1_388
10
9.0188221
20
0.1825584
40
0.4089031
50
143.075267
51
163.1918576
0
ARC
8
DEFAULT_255_1_388
10
9.2384055
20
0.1132652
40
0.6391492
50
162.9375929
51
174.6208776
0
ARC
8
DEFAULT_255_1_388
10
9.5338437
20
0.0808711
40
0.9363344
50
174.342123
51
180.1430283
0
ARC
8
DEFAULT_255_1_388
10
9.4290978
20
-0.0534883
40
0.8315986
50
179.6817261
51
189.150555
0
ARC
8
DEFAULT_255_1_388
10
9.1477727
20
-0.1003441
40
0.5464044
50
188.9911061
51
203.5772363
0
ARC
8
DEFAULT_255_1_388
10
9.0263019
20
-0.1507461
40
0.4149206
50
203.9075402
51
215.1312435
0
ARC
8
DEFAULT_255_1_388
10
8.9224817
20
-0.2312093
40
0.2837747
50
213.9071511
51
263.8848919
0
ARC
8
DEFAULT_255_1_388
10
8.936581
20
-0.1429481
40
0.3730641
50
263.1757928
51
270.1031044
0
ARC
8
DEFAULT_255_1_388
10
8.940189
20
-0.0026489
40
0.5133712
50
269.6722503
51
279.0606936
0
ARC
8
DEFAULT_255_1_388
10
8.9702045
20
-0.184085
40
0.3294739
50
278.8749101
51
293.6349581
0
ARC
8
DEFAULT_255_1_388
10
9.0062249
20
-0.2686749
40
0.2375405
50
293.8553806
51
310.0518171
0
ARC
8
DEFAULT_255_1_388
10
9.0067758
20
-0.2756979
40
0.2318463
50
311.0644687
51
332.0111037
0
ARC
8
DEFAULT_255_1_388
10
8.8726431
20
-0.2017298
40
0.3850112
50
331.6586806
51
343.2877423
0
ARC
8
DEFAULT_255_1_388
10
8.6405896
20
-0.1304194
40
0.6277712
50
343.1446576
51
351.0103568
0
ARC
8
DEFAULT_255_1_388
10
8.477322
20
-0.1004127
40
0.7937327
50
350.71248
51
351.1626997
0
LINE
8
DEFAULT_255_1_388
10
9.6727538
20
0.6757898
11
9.8968378
21
0.6757898
0
LINE
8
DEFAULT_255_1_388
10
9.8968378
20
0.6757898
11
10.3269345
21
-0.3976447
0
LINE
8
DEFAULT_255_1_388
10
10.3269345
20
-0.3976447
11
10.7570312
21
0.6757898
0
LINE
8
DEFAULT_255_1_388
10
10.7570312
20
0.6757898
11
10.9820187
21
0.6757898
0
LINE
8
DEFAULT_255_1_388
10
10.9820187
20
0.6757898
11
10.9820187
21
-0.6398
0
LINE
8
DEFAULT_255_1_388
10
10.9820187
20
-0.6398
11
10.8085343
21
-0.6398
0
LINE
8
DEFAULT_255_1_388
10
10.8085343
20
-0.6398
11
10.8085343
21
-0.127479
0
LINE
8
DEFAULT_255_1_388
10
10.8085343
20
-0.127479
11
10.8247985
21
0.4255025
0
LINE
8
DEFAULT_255_1_388
10
10.8247985
20
0.4255025
11
10.3928947
21
-0.6398
0
LINE
8
DEFAULT_255_1_388
10
10.3928947
20
-0.6398
11
10.2600707
21
-0.6398
0
LINE
8
DEFAULT_255_1_388
10
10.2600707
20
-0.6398
11
9.8290705
21
0.4227918
0
LINE
8
DEFAULT_255_1_388
10
9.8290705
20
0.4227918
11
9.8462382
21
-0.127479
0
LINE
8
DEFAULT_255_1_388
10
9.8462382
20
-0.127479
11
9.8462382
21
-0.6398
0
LINE
8
DEFAULT_255_1_388
10
9.8462382
20
-0.6398
11
9.6727538
21
-0.6398
0
LINE
8
DEFAULT_255_1_388
10
9.6727538
20
-0.6398
11
9.6727538
21
0.6757898
0
LINE
8
DEFAULT_255_1_388
10
11.4554865
20
-0.0145334
11
11.3217589
21
0.0198021
0
LINE
8
DEFAULT_255_1_388
10
11.3217589
20
0.0198021
11
11.3886227
21
0.6757898
0
LINE
8
DEFAULT_255_1_388
10
11.3886227
20
0.6757898
11
12.0626818
21
0.6757898
0
LINE
8
DEFAULT_255_1_388
10
12.0626818
20
0.6757898
11
12.0626818
21
0.5212803
0
LINE
8
DEFAULT_255_1_388
10
12.0626818
20
0.5212803
11
11.5304823
21
0.5212803
0
LINE
8
DEFAULT_255_1_388
10
11.5304823
20
0.5212803
11
11.4907255
21
0.1625652
0
LINE
8
DEFAULT_255_1_388
10
11.2747736
20
-0.2937348
11
11.4328974
21
-0.2937348
0
LINE
8
DEFAULT_255_1_388
10
11.4997611
20
0.0216092
11
11.4554865
21
-0.0145334
0
ARC
8
DEFAULT_255_1_388
10
11.6993868
20
-0.1951759
40
0.4141476
50
93.7181681
51
120.253934
0
ARC
8
DEFAULT_255_1_388
10
11.7099921
20
-0.2860716
40
0.5055616
50
89.9660471
51
94.2495185
0
ARC
8
DEFAULT_255_1_388
10
11.7145742
20
-0.2197846
40
0.4392953
50
73.8045384
51
90.5585736
0
ARC
8
DEFAULT_255_1_388
10
11.741
20
-0.123248
40
0.3392225
50
41.3071072
51
73.543002
0
ARC
8
DEFAULT_255_1_388
10
11.694182
20
-0.1635539
40
0.4009977
50
13.5075837
51
41.2174839
0
ARC
8
DEFAULT_255_1_388
10
11.5094918
20
-0.2119093
40
0.5918864
50
1.1330171
51
13.8830737
0
ARC
8
DEFAULT_255_1_388
10
11.3498563
20
-0.2204478
40
0.7516787
50
359.9925091
51
1.5431298
0
ARC
8
DEFAULT_255_1_388
10
11.4943178
20
-0.2250973
40
0.6072343
50
347.8572712
51
0.4294349
0
ARC
8
DEFAULT_255_1_388
10
11.6912313
20
-0.2697102
40
0.4053482
50
323.6727442
51
348.1674594
0
ARC
8
DEFAULT_255_1_388
10
11.7243278
20
-0.2898825
40
0.3667495
50
316.8171818
51
323.1486802
0
ARC
8
DEFAULT_255_1_388
10
11.7312401
20
-0.2940388
40
0.358869
50
281.839603
51
316.5458142
0
ARC
8
DEFAULT_255_1_388
10
11.6889689
20
-0.1190637
40
0.5388223
50
269.5770964
51
282.4214641
0
ARC
8
DEFAULT_255_1_388
10
11.680961
20
-0.143107
40
0.5147801
50
256.2425863
51
270.4486481
0
ARC
8
DEFAULT_255_1_388
10
11.6473137
20
-0.2780876
40
0.3756708
50
228.9024379
51
256.33135
0
ARC
8
DEFAULT_255_1_388
10
11.6390118
20
-0.2911946
40
0.360344
50
193.7536029
51
228.5272638
0
ARC
8
DEFAULT_255_1_388
10
11.7782683
20
-0.2503537
40
0.5053599
50
184.9244437
51
194.4976052
0
ARC
8
DEFAULT_255_1_388
10
11.7999324
20
-0.2463278
40
0.3700839
50
187.3596909
51
198.6733728
0
ARC
8
DEFAULT_255_1_388
10
11.6818567
20
-0.2872627
40
0.2451195
50
198.4453795
51
217.7945479
0
ARC
8
DEFAULT_255_1_388
10
11.648574
20
-0.3108437
40
0.2043754
50
218.2887146
51
228.5613203
0
ARC
8
DEFAULT_255_1_388
10
11.6595747
20
-0.2960098
40
0.2227819
50
228.9652423
51
258.1237049
0
ARC
8
DEFAULT_255_1_388
10
11.6827184
20
-0.1969036
40
0.3245374
50
257.7260585
51
270.4013717
0
ARC
8
DEFAULT_255_1_388
10
11.6877682
20
-0.2469745
40
0.2744726
50
269.4204315
51
286.420998
0
ARC
8
DEFAULT_255_1_388
10
11.7044738
20
-0.3076295
40
0.2115721
50
286.7250065
51
320.6004665
0
ARC
8
DEFAULT_255_1_388
10
11.6613653
20
-0.2726473
40
0.2670878
50
320.6712228
51
344.5440474
0
ARC
8
DEFAULT_255_1_388
10
11.5312367
20
-0.2344606
40
0.4026927
50
344.241448
51
356.735803
0
ARC
8
DEFAULT_255_1_388
10
11.3908674
20
-0.2228344
40
0.5435085
50
356.3547471
51
0.0507222
0
ARC
8
DEFAULT_255_1_388
10
11.5410939
20
-0.2193188
40
0.3932934
50
359.5579289
51
12.9534322
0
ARC
8
DEFAULT_255_1_388
10
11.6597779
20
-0.1905414
40
0.2711827
50
12.6489751
51
41.608121
0
ARC
8
DEFAULT_255_1_388
10
11.6856939
20
-0.1685054
40
0.2371737
50
41.7851122
51
85.9892156
0
ARC
8
DEFAULT_255_1_388
10
11.6718249
20
-0.2600262
40
0.3295244
50
84.6965848
51
90.0672125
0
ARC
8
DEFAULT_255_1_388
10
11.6691817
20
-0.3351882
40
0.4046926
50
89.6804991
51
99.161352
0
ARC
8
DEFAULT_255_1_388
10
11.6460826
20
-0.1971152
40
0.2647044
50
98.9836248
51
113.8905702
0
ARC
8
DEFAULT_255_1_388
10
11.6202501
20
-0.1361882
40
0.1985386
50
114.195234
51
127.3641866
0
LINE
8
DEFAULT_255_1_388
10
13.0927453
20
0.1499153
11
13.0927453
21
0.1011229
0
LINE
8
DEFAULT_255_1_388
10
12.4828393
20
-0.6407036
11
12.4503109
21
-0.6407036
0
LINE
8
DEFAULT_255_1_388
10
12.4503109
20
-0.6407036
11
12.4503109
21
-0.4997475
0
LINE
8
DEFAULT_255_1_388
10
12.4503109
20
-0.4997475
11
12.48555
21
-0.4997475
0
LINE
8
DEFAULT_255_1_388
10
12.9255858
20
0.117387
11
12.9255858
21
0.1842508
0
ARC
8
DEFAULT_255_1_388
10
12.611295
20
0.2012877
40
0.4089973
50
297.4036461
51
320.0168133
0
ARC
8
DEFAULT_255_1_388
10
12.643913
20
0.1386072
40
0.3383378
50
270.2631886
51
297.3852322
0
ARC
8
DEFAULT_255_1_388
10
12.6400806
20
0.1923343
40
0.3920983
50
269.9969069
51
270.7871389
0
ARC
8
DEFAULT_255_1_388
10
12.637213
20
0.1905737
40
0.3903482
50
254.5997295
51
270.4178147
0
ARC
8
DEFAULT_255_1_388
10
12.6211662
20
0.1270693
40
0.3248657
50
236.4717231
51
254.3539376
0
ARC
8
DEFAULT_255_1_388
10
12.6387393
20
0.1506999
40
0.3542746
50
208.4727261
51
236.2134628
0
ARC
8
DEFAULT_255_1_388
10
12.7106156
20
0.1946676
40
0.4384402
50
204.3450776
51
209.0455365
0
ARC
8
DEFAULT_255_1_388
10
12.7870532
20
0.22708
40
0.5214459
50
183.9375459
51
204.1275509
0
ARC
8
DEFAULT_255_1_388
10
12.8892839
20
0.2380863
40
0.6242037
50
179.9652726
51
184.3010611
0
ARC
8
DEFAULT_255_1_388
10
12.8622384
20
0.2418004
40
0.5971675
50
166.7585952
51
180.3200491
0
ARC
8
DEFAULT_255_1_388
10
12.7670192
20
0.2624979
40
0.4997418
50
154.6954866
51
166.5679151
0
ARC
8
DEFAULT_255_1_388
10
12.6710432
20
0.3108411
40
0.3923208
50
136.3325251
51
155.0871367
0
ARC
8
DEFAULT_255_1_388
10
12.6394352
20
0.3379271
40
0.3507618
50
121.2365985
51
135.9680081
0
ARC
8
DEFAULT_255_1_388
10
12.6552416
20
0.3086541
40
0.3839917
50
96.8454764
51
120.9881329
0
ARC
8
DEFAULT_255_1_388
10
12.6716222
20
0.2033942
40
0.4904679
50
89.887204
51
97.2797758
0
ARC
8
DEFAULT_255_1_388
10
12.6775195
20
0.2751652
40
0.418725
50
70.6505767
51
90.6748382
0
ARC
8
DEFAULT_255_1_388
10
12.6922892
20
0.3329091
40
0.3593866
50
36.7493297
51
69.8220487
0
ARC
8
DEFAULT_255_1_388
10
12.5799239
20
0.2453446
40
0.5018201
50
15.3958155
51
37.0841102
0
ARC
8
DEFAULT_255_1_388
10
12.3403524
20
0.1755111
40
0.7513436
50
3.9487796
51
15.6798517
0
ARC
8
DEFAULT_255_1_388
10
12.0702166
20
0.151181
40
1.0225293
50
359.9290791
51
4.266464
0
ARC
8
DEFAULT_255_1_388
10
11.5521083
20
0.0936372
40
1.5406551
50
352.8365702
51
0.2783851
0
ARC
8
DEFAULT_255_1_388
10
12.1469314
20
0.0163664
40
0.9408425
50
341.8359339
51
352.9884057
0
ARC
8
DEFAULT_255_1_388
10
12.5090301
20
-0.1056856
40
0.5587481
50
322.8579243
51
342.1527461
0
ARC
8
DEFAULT_255_1_388
10
12.6061993
20
-0.171965
40
0.4413099
50
319.3348471
51
322.100194
0
ARC
8
DEFAULT_255_1_388
10
12.5713924
20
-0.1370186
40
0.4904992
50
285.954114
51
318.8878716
0
ARC
8
DEFAULT_255_1_388
10
12.4896362
20
0.1228865
40
0.7628991
50
272.9280841
51
286.4924389
0
ARC
8
DEFAULT_255_1_388
10
12.4682666
20
0.376324
40
1.017132
50
270.8209173
51
273.4010121
0
ARC
8
DEFAULT_255_1_388
10
12.4782689
20
0.1715073
40
0.6712943
50
270.6214576
51
281.4062333
0
ARC
8
DEFAULT_255_1_388
10
12.5266413
20
-0.059775
40
0.4350167
50
281.1852583
51
299.0622058
0
ARC
8
DEFAULT_255_1_388
10
12.5686659
20
-0.1408862
40
0.3437146
50
299.5068171
51
313.1200142
0
ARC
8
DEFAULT_255_1_388
10
12.5711396
20
-0.1498041
40
0.3355418
50
313.8525725
51
338.5989631
0
ARC
8
DEFAULT_255_1_388
10
12.3884524
20
-0.0747424
40
0.5330317
50
338.2523315
51
351.2431701
0
ARC
8
DEFAULT_255_1_388
10
12.1172275
20
-0.0286506
40
0.8081235
50
350.940933
51
357.6690137
0
ARC
8
DEFAULT_255_1_388
10
12.6674155
20
0.1966048
40
0.2581236
50
269.9447107
51
306.8249644
0
ARC
8
DEFAULT_255_1_388
10
12.6407457
20
0.244206
40
0.3122948
50
305.5071046
51
327.0773808
0
ARC
8
DEFAULT_255_1_388
10
12.6540508
20
0.2335445
40
0.2953369
50
327.4106457
51
336.8396801
0
ARC
8
DEFAULT_255_1_388
10
12.3060222
20
0.1878932
40
0.6195743
50
359.663158
51
10.1176387
0
ARC
8
DEFAULT_255_1_388
10
12.5032985
20
0.2243922
40
0.4189561
50
9.9431549
51
26.7699242
0
ARC
8
DEFAULT_255_1_388
10
12.5704971
20
0.2553796
40
0.3450125
50
27.2018067
51
34.6833639
0
ARC
8
DEFAULT_255_1_388
10
12.6255584
20
0.296756
40
0.2762035
50
34.124913
51
50.30709
0
ARC
8
DEFAULT_255_1_388
10
12.6758067
20
0.3568741
40
0.1978518
50
50.3850304
51
90.6705051
0
ARC
8
DEFAULT_255_1_388
10
12.6705461
20
0.3226074
40
0.2321235
50
89.2729817
51
111.9140267
0
ARC
8
DEFAULT_255_1_388
10
12.6683548
20
0.3384308
40
0.2166604
50
112.9381864
51
142.5320936
0
ARC
8
DEFAULT_255_1_388
10
12.7298037
20
0.2885392
40
0.2957902
50
142.1024021
51
166.3835244
0
ARC
8
DEFAULT_255_1_388
10
12.8627007
20
0.2542213
40
0.4330361
50
166.1100968
51
178.6653563
0
ARC
8
DEFAULT_255_1_388
10
12.9808933
20
0.2476061
40
0.5513642
50
178.2641888
51
180.010994
0
ARC
8
DEFAULT_255_1_388
10
12.8903434
20
0.2444136
40
0.4608248
50
179.6162225
51
191.8786013
0
ARC
8
DEFAULT_255_1_388
10
12.7530744
20
0.214059
40
0.3202502
50
191.6192934
51
215.2970746
0
ARC
8
DEFAULT_255_1_388
10
12.7291399
20
0.1997963
40
0.2924827
50
215.7258926
51
216.5355437
0
ARC
8
DEFAULT_255_1_388
10
12.670302
20
0.1524919
40
0.2170661
50
215.7486606
51
239.9728403
0
ARC
8
DEFAULT_255_1_388
10
12.6624185
20
0.1467838
40
0.208217
50
241.065081
51
269.280972
0
ARC
8
DEFAULT_255_1_388
10
12.6671343
20
0.2023327
40
0.2638514
50
268.4083352
51
270.0069622
0
LINE
8
DEFAULT_255_1_388
10
14.1851547
20
-0.5033618
11
14.1851547
21
-0.6398
0
LINE
8
DEFAULT_255_1_388
10
14.1851547
20
-0.6398
11
13.3231542
21
-0.6398
0
LINE
8
DEFAULT_255_1_388
10
13.3231542
20
-0.6398
11
13.3231542
21
-0.5196259
0
LINE
8
DEFAULT_255_1_388
10
13.3231542
20
-0.5196259
11
13.7785507
21
-0.0136298
0
LINE
8
DEFAULT_255_1_388
10
13.4650138
20
0.2881607
11
13.2978544
21
0.2881607
0
LINE
8
DEFAULT_255_1_388
10
13.8770392
20
-0.121154
11
13.5246491
21
-0.5033618
0
LINE
8
DEFAULT_255_1_388
10
13.5246491
20
-0.5033618
11
14.1851547
21
-0.5033618
0
ARC
8
DEFAULT_255_1_388
10
12.2609566
20
1.3283983
40
2.0258655
50
318.5132526
51
320.7829045
0
ARC
8
DEFAULT_255_1_388
10
12.8557523
20
0.8442929
40
1.2589638
50
320.7372878
51
323.9739031
0
ARC
8
DEFAULT_255_1_388
10
13.2966455
20
0.5248554
40
0.7145141
50
323.8962701
51
328.64194
0
ARC
8
DEFAULT_255_1_388
10
13.5268713
20
0.3828545
40
0.4440242
50
328.8294576
51
331.7891185
0
ARC
8
DEFAULT_255_1_388
10
13.6391033
20
0.3249374
40
0.3177517
50
331.4254512
51
352.9365785
0
ARC
8
DEFAULT_255_1_388
10
13.6544033
20
0.321505
40
0.3021496
50
353.2257659
51
0.0166158
0
ARC
8
DEFAULT_255_1_388
10
13.6780793
20
0.3240894
40
0.2784847
50
359.486299
51
15.9343185
0
ARC
8
DEFAULT_255_1_388
10
13.735106
20
0.3394269
40
0.2194403
50
16.1712913
51
43.5286088
0
ARC
8
DEFAULT_255_1_388
10
13.7438005
20
0.3481191
40
0.2071504
50
43.4417391
51
83.1661095
0
ARC
8
DEFAULT_255_1_388
10
13.7287166
20
0.2652316
40
0.2912888
50
82.160179
51
90.1505708
0
ARC
8
DEFAULT_255_1_388
10
13.7251647
20
0.2048279
40
0.3517025
50
89.5460741
51
102.5418361
0
ARC
8
DEFAULT_255_1_388
10
13.6978367
20
0.3207933
40
0.2325748
50
102.1738499
51
129.206123
0
ARC
8
DEFAULT_255_1_388
10
13.6889821
20
0.3347664
40
0.2161591
50
129.72865
51
135.753947
0
ARC
8
DEFAULT_255_1_388
10
13.7026303
20
0.3238728
40
0.2335433
50
136.1757367
51
166.3673339
0
ARC
8
DEFAULT_255_1_388
10
13.8158991
20
0.2935148
40
0.3507873
50
165.9090694
51
178.8684636
0
ARC
8
DEFAULT_255_1_388
10
13.9134763
20
0.2882263
40
0.4484624
50
178.4391136
51
180.0083808
0
ARC
8
DEFAULT_255_1_388
10
13.7555464
20
0.2926197
40
0.4577138
50
163.2878482
51
180.5581842
0
ARC
8
DEFAULT_255_1_388
10
13.6653505
20
0.3174393
40
0.3641968
50
133.4540601
51
162.947111
0
ARC
8
DEFAULT_255_1_388
10
13.6854387
20
0.2960789
40
0.3935189
50
100.7869829
51
133.4382499
0
ARC
8
DEFAULT_255_1_388
10
13.7245632
20
0.1218399
40
0.5720313
50
89.660664
51
101.3702276
0
ARC
8
DEFAULT_255_1_388
10
13.7320241
20
0.1287263
40
0.5651495
50
78.2172678
51
90.412935
0
ARC
8
DEFAULT_255_1_388
10
13.7719707
20
0.3114511
40
0.378122
50
55.9269121
51
78.4888449
0
ARC
8
DEFAULT_255_1_388
10
13.7940422
20
0.3495187
40
0.3342379
50
47.929771
51
55.4049217
0
ARC
8
DEFAULT_255_1_388
10
13.8054952
20
0.3611618
40
0.3179217
50
4.334829
51
48.0560205
0
ARC
8
DEFAULT_255_1_388
10
13.6822754
20
0.3420487
40
0.442341
50
359.9251713
51
5.5971671
0
ARC
8
DEFAULT_255_1_388
10
13.7304909
20
0.3483728
40
0.3941854
50
337.8914027
51
358.9967534
0
ARC
8
DEFAULT_255_1_388
10
13.4252479
20
0.4661295
40
0.7213271
50
326.9132501
51
338.3508308
0
ARC
8
DEFAULT_255_1_388
10
12.9768591
20
0.7535105
40
1.2538973
50
319.6471833
51
327.0959558
0
ARC
8
DEFAULT_255_1_388
10
12.5455249
20
1.109305
40
1.8129975
50
317.2588228
51
319.9045804
0
LINE
8
DEFAULT_255_1_388
10
14.7272934
20
-0.0127263
11
14.7272934
21
-0.1491645
0
LINE
8
DEFAULT_255_1_388
10
14.7272934
20
-0.1491645
11
14.2863539
21
-0.1491645
0
LINE
8
DEFAULT_255_1_388
10
14.2863539
20
-0.1491645
11
14.2863539
21
-0.0127263
0
LINE
8
DEFAULT_255_1_388
10
14.2863539
20
-0.0127263
11
14.7272934
21
-0.0127263
0
LINE
8
DEFAULT_255_1_388
10
15.2802748
20
-0.6398
11
14.9161383
21
-0.6398
0
LINE
8
DEFAULT_255_1_388
10
14.9161383
20
-0.6398
11
14.9161383
21
0.6757898
0
LINE
8
DEFAULT_255_1_388
10
14.9161383
20
0.6757898
11
15.2875033
21
0.6757898
0
LINE
8
DEFAULT_255_1_388
10
15.8675917
20
0.0622696
11
15.8675917
21
-0.0217619
0
LINE
8
DEFAULT_255_1_388
10
15.2920211
20
0.5330267
11
15.0896227
21
0.5330267
0
LINE
8
DEFAULT_255_1_388
10
15.0896227
20
0.5330267
11
15.0896227
21
-0.4979404
0
LINE
8
DEFAULT_255_1_388
10
15.0896227
20
-0.4979404
11
15.2721427
21
-0.4979404
0
LINE
8
DEFAULT_255_1_388
10
15.6959145
20
-0.0181477
11
15.6959145
21
0.0586553
0
ARC
8
DEFAULT_255_1_388
10
15.2918828
20
0.0159436
40
0.6598608
50
75.4100343
51
90.3802731
0
ARC
8
DEFAULT_255_1_388
10
15.3177073
20
0.1235691
40
0.5492049
50
60.1455157
51
75.1889627
0
ARC
8
DEFAULT_255_1_388
10
15.3355665
20
0.1546914
40
0.5133226
50
26.525419
51
60.1451222
0
ARC
8
DEFAULT_255_1_388
10
15.2095451
20
0.0878642
40
0.6559324
50
7.4029944
51
26.832209
0
ARC
8
DEFAULT_255_1_388
10
15.0301849
20
0.0599229
40
0.8374103
50
0.1605597
51
7.7176135
0
ARC
8
DEFAULT_255_1_388
10
15.0486249
20
-0.0260679
40
0.8189782
50
348.7289744
51
0.30125
0
ARC
8
DEFAULT_255_1_388
10
15.2349712
20
-0.0630844
40
0.628991
50
333.0706936
51
348.7181455
0
ARC
8
DEFAULT_255_1_388
10
15.3437341
20
-0.1221551
40
0.5052808
50
299.2531435
51
333.4571133
0
ARC
8
DEFAULT_255_1_388
10
15.3031371
20
-0.0450371
40
0.5924066
50
278.1072193
51
299.0340218
0
ARC
8
DEFAULT_255_1_388
10
15.274342
20
0.1245979
40
0.7644209
50
270.4446841
51
278.4508355
0
ARC
8
DEFAULT_255_1_388
10
15.2766904
20
0.02003
40
0.5179903
50
269.4969684
51
284.0204874
0
ARC
8
DEFAULT_255_1_388
10
15.3166622
20
-0.1335585
40
0.3592968
50
283.7699076
51
318.1557121
0
ARC
8
DEFAULT_255_1_388
10
15.2787168
20
-0.1051601
40
0.4065308
50
318.7417595
51
343.687252
0
ARC
8
DEFAULT_255_1_388
10
15.0757746
20
-0.0417725
40
0.6191194
50
343.3324891
51
355.8548594
0
ARC
8
DEFAULT_255_1_388
10
14.8396784
20
-0.0193281
40
0.856237
50
355.4988754
51
0.0789913
0
ARC
8
DEFAULT_255_1_388
10
14.9277583
20
0.063408
40
0.7681709
50
359.6455047
51
9.8607559
0
ARC
8
DEFAULT_255_1_388
10
15.1933306
20
0.1113664
40
0.498312
50
9.6573037
51
26.1931522
0
ARC
8
DEFAULT_255_1_388
10
15.2977381
20
0.1598587
40
0.3832303
50
26.5777895
51
40.1533752
0
ARC
8
DEFAULT_255_1_388
10
15.3265046
20
0.182302
40
0.3467742
50
40.3839958
51
80.1430923
0
ARC
8
DEFAULT_255_1_388
10
15.2897302
20
0.0192486
40
0.5137832
50
79.2153636
51
89.7445174
0
LINE
8
DEFAULT_255_1_388
10
16.6130324
20
-0.1247683
11
16.3031098
21
-0.1247683
0
LINE
8
DEFAULT_255_1_388
10
16.3031098
20
-0.1247683
11
16.3031098
21
-0.6398
0
LINE
8
DEFAULT_255_1_388
10
16.3031098
20
-0.6398
11
16.1296254
21
-0.6398
0
LINE
8
DEFAULT_255_1_388
10
16.1296254
20
-0.6398
11
16.1296254
21
0.6757898
0
LINE
8
DEFAULT_255_1_388
10
16.1296254
20
0.6757898
11
16.6148395
21
0.6757898
0
LINE
8
DEFAULT_255_1_388
10
16.3031098
20
0.5330267
11
16.3031098
21
0.0170914
0
LINE
8
DEFAULT_255_1_388
10
16.3031098
20
0.0170914
11
16.6148395
21
0.0170914
0
LINE
8
DEFAULT_255_1_388
10
16.6247787
20
0.5330267
11
16.3031098
21
0.5330267
0
ARC
8
DEFAULT_255_1_388
10
16.6195768
20
-0.0058666
40
0.6816729
50
78.8380084
51
90.398184
0
ARC
8
DEFAULT_255_1_388
10
16.6663799
20
0.2214796
40
0.449571
50
58.9633273
51
79.0810717
0
ARC
8
DEFAULT_255_1_388
10
16.7003183
20
0.2844823
40
0.3781049
50
48.0194715
51
58.4475592
0
ARC
8
DEFAULT_255_1_388
10
16.7103003
20
0.2940818
40
0.3642936
50
3.3374546
51
48.1766642
0
ARC
8
DEFAULT_255_1_388
10
16.571781
20
0.2741581
40
0.5038766
50
359.9483251
51
4.6822857
0
ARC
8
DEFAULT_255_1_388
10
16.5857733
20
0.2693779
40
0.4899031
50
346.1879032
51
0.5059221
0
ARC
8
DEFAULT_255_1_388
10
16.7386525
20
0.2296763
40
0.3319729
50
310.8832219
51
346.5426612
0
ARC
8
DEFAULT_255_1_388
10
16.7039373
20
0.2765853
40
0.3901853
50
286.6925305
51
310.228778
0
ARC
8
DEFAULT_255_1_388
10
16.6399103
20
0.4779585
40
0.6014737
50
274.6848219
51
287.0247342
0
ARC
8
DEFAULT_255_1_388
10
16.6145652
20
0.7264088
40
0.8511785
50
269.8968222
51
275.0192639
0
ARC
8
DEFAULT_255_1_388
10
16.6176645
20
0.4926144
40
0.4755314
50
269.6596206
51
279.4150542
0
ARC
8
DEFAULT_255_1_388
10
16.6466103
20
0.3248945
40
0.3053379
50
279.2050006
51
294.9901776
0
ARC
8
DEFAULT_255_1_388
10
16.6792738
20
0.2520353
40
0.2255036
50
295.2886769
51
311.2912669
0
ARC
8
DEFAULT_255_1_388
10
16.6872479
20
0.2401938
40
0.2113522
50
311.7853512
51
347.2860549
0
ARC
8
DEFAULT_255_1_388
10
16.576564
20
0.268643
40
0.3256011
50
346.6891629
51
0.1057086
0
ARC
8
DEFAULT_255_1_388
10
16.48431
20
0.2719247
40
0.417863
50
359.63239
51
359.9961329
0
ARC
8
DEFAULT_255_1_388
10
16.6007705
20
0.2746987
40
0.3014155
50
359.4673371
51
15.5931159
0
ARC
8
DEFAULT_255_1_388
10
16.6710768
20
0.2936937
40
0.2285918
50
15.7441779
51
46.620186
0
ARC
8
DEFAULT_255_1_388
10
16.6544528
20
0.2745361
40
0.2539359
50
46.8628482
51
75.6676625
0
ARC
8
DEFAULT_255_1_388
10
16.6213584
20
0.1554243
40
0.3775415
50
75.2763152
51
88.2916439
0
ARC
8
DEFAULT_255_1_388
10
16.6147584
20
0.0552097
40
0.4779221
50
87.8589087
51
88.7986197
0
LINE
8
DEFAULT_255_1_388
10
17.6186996
20
-0.0127263
11
17.6186996
21
-0.1491645
0
LINE
8
DEFAULT_255_1_388
10
17.6186996
20
-0.1491645
11
17.1777602
21
-0.1491645
0
LINE
8
DEFAULT_255_1_388
10
17.1777602
20
-0.1491645
11
17.1777602
21
-0.0127263
0
LINE
8
DEFAULT_255_1_388
10
17.1777602
20
-0.0127263
11
17.6186996
21
-0.0127263
0
LINE
8
DEFAULT_255_1_388
10
17.9195866
20
0.6757898
11
18.2367377
21
0.1716009
0
LINE
8
DEFAULT_255_1_388
10
18.2367377
20
0.1716009
11
18.5520817
21
0.6757898
0
LINE
8
DEFAULT_255_1_388
10
18.5520817
20
0.6757898
11
18.7562873
21
0.6757898
0
LINE
8
DEFAULT_255_1_388
10
18.7562873
20
0.6757898
11
18.3406476
21
0.0234163
0
LINE
8
DEFAULT_255_1_388
10
18.3406476
20
0.0234163
11
18.7662265
21
-0.6398
0
LINE
8
DEFAULT_255_1_388
10
18.7662265
20
-0.6398
11
18.5602138
21
-0.6398
0
LINE
8
DEFAULT_255_1_388
10
18.5602138
20
-0.6398
11
18.2367377
21
-0.1265754
0
LINE
8
DEFAULT_255_1_388
10
18.2367377
20
-0.1265754
11
17.9114545
21
-0.6398
0
LINE
8
DEFAULT_255_1_388
10
17.9114545
20
-0.6398
11
17.7063454
21
-0.6398
0
LINE
8
DEFAULT_255_1_388
10
17.7063454
20
-0.6398
11
18.1328278
21
0.0234163
0
LINE
8
DEFAULT_255_1_388
10
18.1328278
20
0.0234163
11
17.7162846
21
0.6757898
0
LINE
8
DEFAULT_255_1_388
10
17.7162846
20
0.6757898
11
17.9195866
21
0.6757898
0
LINE
8
DEFAULT_255_1_388
10
19.7384618
20
-0.2223532
11
19.9128498
21
-0.2223532
0
LINE
8
DEFAULT_255_1_388
10
18.899954
20
-0.0434475
11
18.899954
21
0.0830516
0
LINE
8
DEFAULT_255_1_388
10
19.9128498
20
0.2529217
11
19.7384618
21
0.2529217
0
LINE
8
DEFAULT_255_1_388
10
19.0743419
20
0.0785337
11
19.0743419
21
-0.0488688
0
ARC
8
DEFAULT_255_1_388
10
19.2962732
20
-0.1551671
40
0.6202263
50
340.1774904
51
353.7812217
0
ARC
8
DEFAULT_255_1_388
10
19.4730584
20
-0.2210107
40
0.4315926
50
311.4560052
51
340.4420756
0
ARC
8
DEFAULT_255_1_388
10
19.4693124
20
-0.2085335
40
0.4434573
50
282.4332229
51
310.7514507
0
ARC
8
DEFAULT_255_1_388
10
19.4198942
20
-0.0043297
40
0.6535262
50
269.9358869
51
282.8096729
0
ARC
8
DEFAULT_255_1_388
10
19.4140881
20
0.1469329
40
0.8048043
50
269.9995752
51
270.3612856
0
ARC
8
DEFAULT_255_1_388
10
19.4081371
20
-0.1329219
40
0.5249831
50
250.7885263
51
270.6488451
0
ARC
8
DEFAULT_255_1_388
10
19.3892196
20
-0.2046147
40
0.4510942
50
219.3628377
51
250.0611024
0
ARC
8
DEFAULT_255_1_388
10
19.482507
20
-0.1253347
40
0.5735046
50
193.5480293
51
219.5755675
0
ARC
8
DEFAULT_255_1_388
10
19.7493279
20
-0.056048
40
0.849146
50
181.1220183
51
193.8754971
0
ARC
8
DEFAULT_255_1_388
10
19.9816513
20
-0.0436086
40
1.0816971
50
179.9914644
51
181.5398227
0
ARC
8
DEFAULT_255_1_388
10
19.7739823
20
0.0872586
40
0.8740384
50
169.5837606
51
180.275782
0
ARC
8
DEFAULT_255_1_388
10
19.5673171
20
0.1254439
40
0.6638751
50
155.0367033
51
169.6002779
0
ARC
8
DEFAULT_255_1_388
10
19.4395629
20
0.1870336
40
0.5220662
50
136.7831557
51
155.2472983
0
ARC
8
DEFAULT_255_1_388
10
19.395742
20
0.2242577
40
0.4646502
50
121.7633063
51
136.4281161
0
ARC
8
DEFAULT_255_1_388
10
19.410926
20
0.1962049
40
0.4964979
50
95.6460018
51
121.5489589
0
ARC
8
DEFAULT_255_1_388
10
19.4286234
20
0.0714704
40
0.6223912
50
89.9245727
51
96.1375919
0
ARC
8
DEFAULT_255_1_388
10
19.4342939
20
0.0848721
40
0.6090084
50
76.6779212
51
90.456405
0
ARC
8
DEFAULT_255_1_388
10
19.4785752
20
0.263806
40
0.42469
50
47.4858803
51
76.9287069
0
ARC
8
DEFAULT_255_1_388
10
19.4620366
20
0.2525623
40
0.4441778
50
16.5424081
51
46.8934505
0
ARC
8
DEFAULT_255_1_388
10
19.2811416
20
0.1931265
40
0.6345318
50
5.4072971
51
17.0363711
0
ARC
8
DEFAULT_255_1_388
10
19.1193141
20
0.1671304
40
0.6250632
50
7.8888693
51
15.9242022
0
ARC
8
DEFAULT_255_1_388
10
19.3428126
20
0.2320309
40
0.3923364
50
15.7650676
51
27.9410069
0
ARC
8
DEFAULT_255_1_388
10
19.4670296
20
0.2985317
40
0.2514401
50
27.8167196
51
46.4007942
0
ARC
8
DEFAULT_255_1_388
10
19.4726137
20
0.2978882
40
0.2480958
50
47.4372362
51
75.0695672
0
ARC
8
DEFAULT_255_1_388
10
19.4378973
20
0.1770277
40
0.3738281
50
74.7009379
51
87.8124314
0
ARC
8
DEFAULT_255_1_388
10
19.429659
20
0.0586659
40
0.4924321
50
87.3802571
51
90.0251599
0
ARC
8
DEFAULT_255_1_388
10
19.4253237
20
0.1906997
40
0.3604218
50
89.3451886
51
108.5744412
0
ARC
8
DEFAULT_255_1_388
10
19.409923
20
0.2484836
40
0.3007661
50
109.2998307
51
143.3037387
0
ARC
8
DEFAULT_255_1_388
10
19.4956519
20
0.1825584
40
0.4089031
50
143.075267
51
163.1918576
0
ARC
8
DEFAULT_255_1_388
10
19.7152354
20
0.1132652
40
0.6391492
50
162.9375929
51
174.6208776
0
ARC
8
DEFAULT_255_1_388
10
20.0106735
20
0.0808711
40
0.9363344
50
174.342123
51
180.1430283
0
ARC
8
DEFAULT_255_1_388
10
19.9059277
20
-0.0534883
40
0.8315986
50
179.6817261
51
189.150555
0
ARC
8
DEFAULT_255_1_388
10
19.6246026
20
-0.1003441
40
0.5464044
50
188.9911061
51
203.5772363
0
ARC
8
DEFAULT_255_1_388
10
19.5031318
20
-0.1507461
40
0.4149206
50
203.9075402
51
215.1312435
0
ARC
8
DEFAULT_255_1_388
10
19.3993115
20
-0.2312093
40
0.2837747
50
213.9071511
51
263.8848919
0
ARC
8
DEFAULT_255_1_388
10
19.4134108
20
-0.1429481
40
0.3730641
50
263.1757928
51
270.1031044
0
ARC
8
DEFAULT_255_1_388
10
19.4170188
20
-0.0026489
40
0.5133712
50
269.6722503
51
279.0606936
0
ARC
8
DEFAULT_255_1_388
10
19.4470343
20
-0.184085
40
0.3294739
50
278.8749101
51
293.6349581
0
ARC
8
DEFAULT_255_1_388
10
19.4830547
20
-0.2686749
40
0.2375405
50
293.8553806
51
310.0518171
0
ARC
8
DEFAULT_255_1_388
10
19.4836056
20
-0.2756979
40
0.2318463
50
311.0644687
51
332.0111037
0
ARC
8
DEFAULT_255_1_388
10
19.3494729
20
-0.2017298
40
0.3850112
50
331.6586806
51
343.2877423
0
ARC
8
DEFAULT_255_1_388
10
19.1174195
20
-0.1304194
40
0.6277712
50
343.1446576
51
351.0103568
0
ARC
8
DEFAULT_255_1_388
10
18.9541518
20
-0.1004127
40
0.7937327
50
350.71248
51
351.1626997
0
ARC
8
DEFAULT_255_2_778
10
17.2795513
20
25.8265655
40
0.9032652
50
36.6636783
51
62.8800292
0
ARC
8
DEFAULT_255_2_778
10
17.362048
20
27.0955795
40
0.5698185
50
305.2984654
51
359.1896208
0
ARC
8
DEFAULT_255_2_778
10
17.3634372
20
27.0909256
40
0.5683825
50
359.6567283
51
359.9965559
0
ARC
8
DEFAULT_255_2_778
10
17.3738628
20
27.0907968
40
0.5579568
50
0.0097156
51
44.9837975
0
ARC
8
DEFAULT_255_2_778
10
17.3736736
20
27.0909297
40
0.5579968
50
44.9604089
51
90.0139948
0
ARC
8
DEFAULT_255_2_778
10
17.3735813
20
27.0733846
40
0.5755419
50
90.0043846
51
90.2659864
0
ARC
8
DEFAULT_255_2_778
10
17.3015142
20
25.8802344
40
0.8779024
50
272.428255
51
302.0472027
0
ARC
8
DEFAULT_255_2_778
10
17.3149911
20
25.8457487
40
0.841549
50
302.5153244
51
0.4882776
0
ARC
8
DEFAULT_255_2_778
10
17.3237108
20
25.8737449
40
0.833059
50
358.5675863
51
29.0157619
0
ARC
8
DEFAULT_255_2_778
10
15.115709
20
25.8276166
40
0.90203
50
36.6388615
51
62.8867752
0
ARC
8
DEFAULT_255_2_778
10
15.1980877
20
27.0952954
40
0.5692748
50
305.2706468
51
359.2174393
0
ARC
8
DEFAULT_255_2_778
10
15.2034234
20
27.0905241
40
0.563894
50
359.6947901
51
359.9999584
0
ARC
8
DEFAULT_255_2_778
10
15.2087973
20
27.0905658
40
0.5585202
50
359.9956834
51
44.9740581
0
ARC
8
DEFAULT_255_2_778
10
15.2091182
20
27.0908026
40
0.5581257
50
44.9801433
51
90.0010632
0
ARC
8
DEFAULT_255_2_778
10
15.2091083
20
27.0868714
40
0.562057
50
90.0000416
51
90.3056982
0
ARC
8
DEFAULT_255_2_778
10
15.1365968
20
25.8803822
40
0.8780507
50
272.42898
51
302.0445025
0
ARC
8
DEFAULT_255_2_778
10
15.1501929
20
25.8457943
40
0.8415468
50
302.5093151
51
0.4851764
0
ARC
8
DEFAULT_255_2_778
10
15.1579024
20
25.8734974
40
0.8340609
50
358.5863171
51
28.9970314
0
LINE
8
DEFAULT_255_2_778
10
13.4101095
20
26.3659203
11
12.9532095
21
27.6489203
0
LINE
8
DEFAULT_255_2_778
10
12.9532095
20
27.6489203
11
12.6084095
21
27.6489203
0
LINE
8
DEFAULT_255_2_778
10
12.6084095
20
27.6489203
11
12.6084095
21
26.3659203
0
LINE
8
DEFAULT_255_2_778
10
12.6084095
20
26.3659203
11
13.4101095
21
26.3659203
0
LINE
8
DEFAULT_255_2_778
10
12.6084095
20
25.5642203
11
13.0334095
21
25.5642203
0
LINE
8
DEFAULT_255_2_778
10
13.0334095
20
25.5642203
11
13.2257095
21
25.0031203
0
LINE
8
DEFAULT_255_2_778
10
13.2257095
20
25.0031203
11
13.8911095
21
25.0031203
0
LINE
8
DEFAULT_255_2_778
10
13.8911095
20
25.0031203
11
13.4342095
21
26.2858203
0
LINE
8
DEFAULT_255_2_778
10
13.4342095
20
26.2858203
11
12.6084095
21
26.2858203
0
LINE
8
DEFAULT_255_2_778
10
12.6084095
20
26.2858203
11
12.6084095
21
25.5642203
0
LINE
8
DEFAULT_255_2_778
10
12.5283095
20
27.6489203
11
12.1835095
21
27.6489203
0
LINE
8
DEFAULT_255_2_778
10
12.1835095
20
27.6489203
11
11.7266095
21
26.3659203
0
LINE
8
DEFAULT_255_2_778
10
11.7266095
20
26.3659203
11
12.5283095
21
26.3659203
0
LINE
8
DEFAULT_255_2_778
10
12.5283095
20
26.3659203
11
12.5283095
21
27.6489203
0
LINE
8
DEFAULT_255_2_778
10
11.7025095
20
26.2858203
11
11.2453095
21
25.0031203
0
LINE
8
DEFAULT_255_2_778
10
11.2453095
20
25.0031203
11
11.9107095
21
25.0031203
0
LINE
8
DEFAULT_255_2_778
10
11.9107095
20
25.0031203
11
12.1031095
21
25.5642203
0
LINE
8
DEFAULT_255_2_778
10
12.1031095
20
25.5642203
11
12.5280095
21
25.5642203
0
LINE
8
DEFAULT_255_2_778
10
12.5280095
20
25.5642203
11
12.5280095
21
26.2858203
0
LINE
8
DEFAULT_255_2_778
10
12.5280095
20
26.2858203
11
11.7025095
21
26.2858203
0
LINE
8
DEFAULT_255_2_778
10
16.2965095
20
27.6489203
11
17.0981095
21
27.6489203
0
LINE
8
DEFAULT_255_2_778
10
17.0981095
20
27.6489203
11
17.0981095
21
26.3659203
0
LINE
8
DEFAULT_255_2_778
10
17.0981095
20
26.3659203
11
16.2965095
21
26.3659203
0
LINE
8
DEFAULT_255_2_778
10
16.2965095
20
26.3659203
11
16.2965095
21
27.6489203
0
LINE
8
DEFAULT_255_2_778
10
17.3709095
20
27.6489203
11
17.1786095
21
27.6489203
0
LINE
8
DEFAULT_255_2_778
10
17.1786095
20
27.6489203
11
17.1786095
21
26.3659203
0
LINE
8
DEFAULT_255_2_778
10
17.1786095
20
26.3659203
11
18.0043095
21
26.3659203
0
LINE
8
DEFAULT_255_2_778
10
18.0043095
20
26.3659203
11
18.0041095
21
26.3659203
0
LINE
8
DEFAULT_255_2_778
10
16.2965095
20
26.2858203
11
17.0981095
21
26.2858203
0
LINE
8
DEFAULT_255_2_778
10
17.0981095
20
26.2858203
11
17.0981095
21
25.0031203
0
LINE
8
DEFAULT_255_2_778
10
17.0981095
20
25.0031203
11
16.2965095
21
25.0031203
0
LINE
8
DEFAULT_255_2_778
10
16.2965095
20
25.0031203
11
16.2965095
21
26.2858203
0
LINE
8
DEFAULT_255_2_778
10
17.1783095
20
25.0031203
11
17.3387095
21
25.0031203
0
LINE
8
DEFAULT_255_2_778
10
18.0522095
20
26.2778203
11
17.1783095
21
26.2778203
0
LINE
8
DEFAULT_255_2_778
10
17.1783095
20
26.2778203
11
17.1783095
21
25.0031203
0
LINE
8
DEFAULT_255_2_778
10
17.1783095
20
25.0031203
11
17.1783095
21
25.0031203
0
LINE
8
DEFAULT_255_2_778
10
14.1316095
20
27.6489203
11
14.9333095
21
27.6489203
0
LINE
8
DEFAULT_255_2_778
10
14.9333095
20
27.6489203
11
14.9333095
21
26.3659203
0
LINE
8
DEFAULT_255_2_778
10
14.9333095
20
26.3659203
11
14.1316095
21
26.3659203
0
LINE
8
DEFAULT_255_2_778
10
14.1316095
20
26.3659203
11
14.1316095
21
27.6489203
0
LINE
8
DEFAULT_255_2_778
10
15.2061095
20
27.6489203
11
15.0138095
21
27.6489203
0
LINE
8
DEFAULT_255_2_778
10
15.0138095
20
27.6489203
11
15.0138095
21
26.3659203
0
LINE
8
DEFAULT_255_2_778
10
15.0138095
20
26.3659203
11
15.8395095
21
26.3659203
0
LINE
8
DEFAULT_255_2_778
10
15.8395095
20
26.3659203
11
15.8395095
21
26.3659203
0
LINE
8
DEFAULT_255_2_778
10
14.1316095
20
26.2858203
11
14.9333095
21
26.2858203
0
LINE
8
DEFAULT_255_2_778
10
14.9333095
20
26.2858203
11
14.9333095
21
25.0031203
0
LINE
8
DEFAULT_255_2_778
10
14.9333095
20
25.0031203
11
14.1316095
21
25.0031203
0
LINE
8
DEFAULT_255_2_778
10
14.1316095
20
25.0031203
11
14.1316095
21
26.2858203
0
LINE
8
DEFAULT_255_2_778
10
15.0135095
20
25.0031203
11
15.1738095
21
25.0031203
0
LINE
8
DEFAULT_255_2_778
10
15.8874095
20
26.2778203
11
15.0135095
21
26.2778203
0
LINE
8
DEFAULT_255_2_778
10
15.0135095
20
26.2778203
11
15.0135095
21
25.0031203
0
LINE
8
DEFAULT_255_2_778
10
15.0135095
20
25.0031203
11
15.0135095
21
25.0031203
0
LINE
8
DEFAULT_255_1_388
10
10.9746637
20
22.5113
11
10.8490682
21
22.8546545
0
LINE
8
DEFAULT_255_1_388
10
10.8490682
20
22.8546545
11
10.2978939
21
22.8546545
0
LINE
8
DEFAULT_255_1_388
10
10.2978939
20
22.8546545
11
10.1741056
21
22.5113
0
LINE
8
DEFAULT_255_1_388
10
10.1741056
20
22.5113
11
9.9951998
21
22.5113
0
LINE
8
DEFAULT_255_1_388
10
9.9951998
20
22.5113
11
10.4975816
21
23.8268898
0
LINE
8
DEFAULT_255_1_388
10
10.4975816
20
23.8268898
11
10.6493805
21
23.8268898
0
LINE
8
DEFAULT_255_1_388
10
10.6493805
20
23.8268898
11
11.1526659
21
22.5113
0
LINE
8
DEFAULT_255_1_388
10
11.1526659
20
22.5113
11
10.9746637
21
22.5113
0
LINE
8
DEFAULT_255_1_388
10
10.5734811
20
23.6127451
11
10.3503006
21
22.9974177
0
LINE
8
DEFAULT_255_1_388
10
10.3503006
20
22.9974177
11
10.797565
21
22.9974177
0
LINE
8
DEFAULT_255_1_388
10
10.797565
20
22.9974177
11
10.5734811
21
23.6127451
0
LINE
8
DEFAULT_255_1_388
10
12.1131549
20
22.9287468
11
12.2875428
21
22.9287468
0
LINE
8
DEFAULT_255_1_388
10
11.2746471
20
23.1076525
11
11.2746471
21
23.2341516
0
LINE
8
DEFAULT_255_1_388
10
12.2875428
20
23.4040217
11
12.1131549
21
23.4040217
0
LINE
8
DEFAULT_255_1_388
10
11.449035
20
23.2296337
11
11.449035
21
23.1022312
0
ARC
8
DEFAULT_255_1_388
10
11.6709662
20
22.9959329
40
0.6202263
50
340.1774904
51
353.7812217
0
ARC
8
DEFAULT_255_1_388
10
11.8477515
20
22.9300893
40
0.4315926
50
311.4560052
51
340.4420756
0
ARC
8
DEFAULT_255_1_388
10
11.8440055
20
22.9425665
40
0.4434573
50
282.4332229
51
310.7514507
0
ARC
8
DEFAULT_255_1_388
10
11.7945873
20
23.1467703
40
0.6535262
50
269.9358869
51
282.8096729
0
ARC
8
DEFAULT_255_1_388
10
11.7887812
20
23.2980329
40
0.8048043
50
269.9995752
51
270.3612856
0
ARC
8
DEFAULT_255_1_388
10
11.7828302
20
23.0181781
40
0.5249831
50
250.7885263
51
270.6488451
0
ARC
8
DEFAULT_255_1_388
10
11.7639127
20
22.9464853
40
0.4510942
50
219.3628377
51
250.0611024
0
ARC
8
DEFAULT_255_1_388
10
11.8572001
20
23.0257653
40
0.5735046
50
193.5480293
51
219.5755675
0
ARC
8
DEFAULT_255_1_388
10
12.124021
20
23.095052
40
0.849146
50
181.1220183
51
193.8754971
0
ARC
8
DEFAULT_255_1_388
10
12.3563443
20
23.1074914
40
1.0816971
50
179.9914644
51
181.5398227
0
ARC
8
DEFAULT_255_1_388
10
12.1486754
20
23.2383586
40
0.8740384
50
169.5837606
51
180.275782
0
ARC
8
DEFAULT_255_1_388
10
11.9420102
20
23.2765439
40
0.6638751
50
155.0367033
51
169.6002779
0
ARC
8
DEFAULT_255_1_388
10
11.814256
20
23.3381336
40
0.5220662
50
136.7831557
51
155.2472983
0
ARC
8
DEFAULT_255_1_388
10
11.7704351
20
23.3753577
40
0.4646502
50
121.7633063
51
136.4281161
0
ARC
8
DEFAULT_255_1_388
10
11.7856191
20
23.3473049
40
0.4964979
50
95.6460018
51
121.5489589
0
ARC
8
DEFAULT_255_1_388
10
11.8033165
20
23.2225704
40
0.6223912
50
89.9245727
51
96.1375919
0
ARC
8
DEFAULT_255_1_388
10
11.808987
20
23.2359721
40
0.6090084
50
76.6779212
51
90.456405
0
ARC
8
DEFAULT_255_1_388
10
11.8532683
20
23.414906
40
0.42469
50
47.4858803
51
76.9287069
0
ARC
8
DEFAULT_255_1_388
10
11.8367297
20
23.4036623
40
0.4441778
50
16.5424081
51
46.8934505
0
ARC
8
DEFAULT_255_1_388
10
11.6558347
20
23.3442265
40
0.6345318
50
5.4072971
51
17.0363711
0
ARC
8
DEFAULT_255_1_388
10
11.4940072
20
23.3182304
40
0.6250632
50
7.8888693
51
15.9242022
0
ARC
8
DEFAULT_255_1_388
10
11.7175057
20
23.3831309
40
0.3923364
50
15.7650676
51
27.9410069
0
ARC
8
DEFAULT_255_1_388
10
11.8417226
20
23.4496317
40
0.2514401
50
27.8167196
51
46.4007942
0
ARC
8
DEFAULT_255_1_388
10
11.8473068
20
23.4489882
40
0.2480958
50
47.4372362
51
75.0695672
0
ARC
8
DEFAULT_255_1_388
10
11.8125904
20
23.3281277
40
0.3738281
50
74.7009379
51
87.8124314
0
ARC
8
DEFAULT_255_1_388
10
11.8043521
20
23.2097659
40
0.4924321
50
87.3802571
51
90.0251599
0
ARC
8
DEFAULT_255_1_388
10
11.8000168
20
23.3417997
40
0.3604218
50
89.3451886
51
108.5744412
0
ARC
8
DEFAULT_255_1_388
10
11.784616
20
23.3995836
40
0.3007661
50
109.2998307
51
143.3037387
0
ARC
8
DEFAULT_255_1_388
10
11.870345
20
23.3336584
40
0.4089031
50
143.075267
51
163.1918576
0
ARC
8
DEFAULT_255_1_388
10
12.0899284
20
23.2643652
40
0.6391492
50
162.9375929
51
174.6208776
0
ARC
8
DEFAULT_255_1_388
10
12.3853666
20
23.2319711
40
0.9363344
50
174.342123
51
180.1430283
0
ARC
8
DEFAULT_255_1_388
10
12.2806207
20
23.0976117
40
0.8315986
50
179.6817261
51
189.150555
0
ARC
8
DEFAULT_255_1_388
10
11.9992956
20
23.0507559
40
0.5464044
50
188.9911061
51
203.5772363
0
ARC
8
DEFAULT_255_1_388
10
11.8778248
20
23.0003539
40
0.4149206
50
203.9075402
51
215.1312435
0
ARC
8
DEFAULT_255_1_388
10
11.7740046
20
22.9198907
40
0.2837747
50
213.9071511
51
263.8848919
0
ARC
8
DEFAULT_255_1_388
10
11.7881039
20
23.0081519
40
0.3730641
50
263.1757928
51
270.1031044
0
ARC
8
DEFAULT_255_1_388
10
11.7917119
20
23.1484511
40
0.5133712
50
269.6722503
51
279.0606936
0
ARC
8
DEFAULT_255_1_388
10
11.8217274
20
22.967015
40
0.3294739
50
278.8749101
51
293.6349581
0
ARC
8
DEFAULT_255_1_388
10
11.8577478
20
22.8824251
40
0.2375405
50
293.8553806
51
310.0518171
0
ARC
8
DEFAULT_255_1_388
10
11.8582987
20
22.8754021
40
0.2318463
50
311.0644687
51
332.0111037
0
ARC
8
DEFAULT_255_1_388
10
11.724166
20
22.9493702
40
0.3850112
50
331.6586806
51
343.2877423
0
ARC
8
DEFAULT_255_1_388
10
11.4921125
20
23.0206806
40
0.6277712
50
343.1446576
51
351.0103568
0
ARC
8
DEFAULT_255_1_388
10
11.3288449
20
23.0506873
40
0.7937327
50
350.71248
51
351.1626997
0
LINE
8
DEFAULT_255_1_388
10
12.6914361
20
23.1365666
11
12.5577086
21
23.1709021
0
LINE
8
DEFAULT_255_1_388
10
12.5577086
20
23.1709021
11
12.6245724
21
23.8268898
0
LINE
8
DEFAULT_255_1_388
10
12.6245724
20
23.8268898
11
13.2986314
21
23.8268898
0
LINE
8
DEFAULT_255_1_388
10
13.2986314
20
23.8268898
11
13.2986314
21
23.6723803
0
LINE
8
DEFAULT_255_1_388
10
13.2986314
20
23.6723803
11
12.766432
21
23.6723803
0
LINE
8
DEFAULT_255_1_388
10
12.766432
20
23.6723803
11
12.7266751
21
23.3136652
0
LINE
8
DEFAULT_255_1_388
10
12.5107232
20
22.8573652
11
12.668847
21
22.8573652
0
LINE
8
DEFAULT_255_1_388
10
12.7357108
20
23.1727092
11
12.6914361
21
23.1365666
0
ARC
8
DEFAULT_255_1_388
10
12.9353365
20
22.9559241
40
0.4141476
50
93.7181681
51
120.253934
0
ARC
8
DEFAULT_255_1_388
10
12.9459417
20
22.8650284
40
0.5055616
50
89.9660471
51
94.2495185
0
ARC
8
DEFAULT_255_1_388
10
12.9505239
20
22.9313154
40
0.4392953
50
73.8045384
51
90.5585736
0
ARC
8
DEFAULT_255_1_388
10
12.9769497
20
23.027852
40
0.3392225
50
41.3071072
51
73.543002
0
ARC
8
DEFAULT_255_1_388
10
12.9301317
20
22.9875461
40
0.4009977
50
13.5075837
51
41.2174839
0
ARC
8
DEFAULT_255_1_388
10
12.7454414
20
22.9391907
40
0.5918864
50
1.1330171
51
13.8830737
0
ARC
8
DEFAULT_255_1_388
10
12.585806
20
22.9306522
40
0.7516787
50
359.9925091
51
1.5431298
0
ARC
8
DEFAULT_255_1_388
10
12.7302675
20
22.9260027
40
0.6072343
50
347.8572712
51
0.4294349
0
ARC
8
DEFAULT_255_1_388
10
12.927181
20
22.8813898
40
0.4053482
50
323.6727442
51
348.1674594
0
ARC
8
DEFAULT_255_1_388
10
12.9602774
20
22.8612175
40
0.3667495
50
316.8171818
51
323.1486802
0
ARC
8
DEFAULT_255_1_388
10
12.9671898
20
22.8570612
40
0.358869
50
281.839603
51
316.5458142
0
ARC
8
DEFAULT_255_1_388
10
12.9249185
20
23.0320363
40
0.5388223
50
269.5770964
51
282.4214641
0
ARC
8
DEFAULT_255_1_388
10
12.9169106
20
23.007993
40
0.5147801
50
256.2425863
51
270.4486481
0
ARC
8
DEFAULT_255_1_388
10
12.8832634
20
22.8730124
40
0.3756708
50
228.9024379
51
256.33135
0
ARC
8
DEFAULT_255_1_388
10
12.8749614
20
22.8599054
40
0.360344
50
193.7536029
51
228.5272638
0
ARC
8
DEFAULT_255_1_388
10
13.0142179
20
22.9007463
40
0.5053599
50
184.9244437
51
194.4976052
0
ARC
8
DEFAULT_255_1_388
10
13.035882
20
22.9047722
40
0.3700839
50
187.3596909
51
198.6733728
0
ARC
8
DEFAULT_255_1_388
10
12.9178064
20
22.8638373
40
0.2451195
50
198.4453795
51
217.7945479
0
ARC
8
DEFAULT_255_1_388
10
12.8845236
20
22.8402563
40
0.2043754
50
218.2887146
51
228.5613203
0
ARC
8
DEFAULT_255_1_388
10
12.8955243
20
22.8550902
40
0.2227819
50
228.9652423
51
258.1237049
0
ARC
8
DEFAULT_255_1_388
10
12.9186681
20
22.9541964
40
0.3245374
50
257.7260585
51
270.4013717
0
ARC
8
DEFAULT_255_1_388
10
12.9237179
20
22.9041255
40
0.2744726
50
269.4204315
51
286.420998
0
ARC
8
DEFAULT_255_1_388
10
12.9404234
20
22.8434705
40
0.2115721
50
286.7250065
51
320.6004665
0
ARC
8
DEFAULT_255_1_388
10
12.897315
20
22.8784527
40
0.2670878
50
320.6712228
51
344.5440474
0
ARC
8
DEFAULT_255_1_388
10
12.7671864
20
22.9166394
40
0.4026927
50
344.241448
51
356.735803
0
ARC
8
DEFAULT_255_1_388
10
12.6268171
20
22.9282656
40
0.5435085
50
356.3547471
51
0.0507222
0
ARC
8
DEFAULT_255_1_388
10
12.7770436
20
22.9317812
40
0.3932934
50
359.5579289
51
12.9534322
0
ARC
8
DEFAULT_255_1_388
10
12.8957276
20
22.9605586
40
0.2711827
50
12.6489751
51
41.608121
0
ARC
8
DEFAULT_255_1_388
10
12.9216436
20
22.9825946
40
0.2371737
50
41.7851122
51
85.9892156
0
ARC
8
DEFAULT_255_1_388
10
12.9077746
20
22.8910738
40
0.3295244
50
84.6965848
51
90.0672125
0
ARC
8
DEFAULT_255_1_388
10
12.9051313
20
22.8159118
40
0.4046926
50
89.6804991
51
99.161352
0
ARC
8
DEFAULT_255_1_388
10
12.8820323
20
22.9539848
40
0.2647044
50
98.9836248
51
113.8905702
0
ARC
8
DEFAULT_255_1_388
10
12.8561998
20
23.0149118
40
0.1985386
50
114.195234
51
127.3641866
0
LINE
8
DEFAULT_255_1_388
10
14.3449591
20
23.289269
11
14.3449591
21
23.0724135
0
LINE
8
DEFAULT_255_1_388
10
13.5145833
20
23.0498244
11
13.5145833
21
23.2730048
0
LINE
8
DEFAULT_255_1_388
10
14.1777997
20
23.0272353
11
14.1777997
21
23.3010153
0
LINE
8
DEFAULT_255_1_388
10
13.6817428
20
23.3136652
11
13.6817428
21
23.0462102
0
ARC
8
DEFAULT_255_1_388
10
12.9671925
20
23.0669118
40
1.3777776
50
353.8440855
51
0.2287917
0
ARC
8
DEFAULT_255_1_388
10
13.4890942
20
23.0086414
40
0.852639
50
344.4934746
51
353.9763743
0
ARC
8
DEFAULT_255_1_388
10
13.8257749
20
22.9129191
40
0.5026273
50
329.2803599
51
344.7473406
0
ARC
8
DEFAULT_255_1_388
10
13.9373245
20
22.8517038
40
0.3754848
50
324.9361395
51
328.6153007
0
ARC
8
DEFAULT_255_1_388
10
13.9798895
20
22.8219586
40
0.3235566
50
280.5801797
51
324.9173226
0
ARC
8
DEFAULT_255_1_388
10
13.9347524
20
23.0099236
40
0.5167077
50
269.5979457
51
281.6732777
0
ARC
8
DEFAULT_255_1_388
10
13.9266427
20
22.9964113
40
0.5032026
50
256.6228565
51
270.5105488
0
ARC
8
DEFAULT_255_1_388
10
13.881417
20
22.8222345
40
0.3233092
50
215.8618351
51
257.2787793
0
ARC
8
DEFAULT_255_1_388
10
13.9962877
20
22.8993106
40
0.4615831
50
197.9695203
51
215.2622745
0
ARC
8
DEFAULT_255_1_388
10
14.2758552
20
22.9936641
40
0.7566307
50
187.8816486
51
198.2346584
0
ARC
8
DEFAULT_255_1_388
10
14.7211791
20
23.0579453
40
1.2065653
50
180.8977266
51
188.0054894
0
ARC
8
DEFAULT_255_1_388
10
15.0262004
20
23.06944
40
1.5117443
50
180.7434591
51
181.152202
0
ARC
8
DEFAULT_255_1_388
10
14.8587
20
23.2784371
40
1.3441277
50
173.7674302
51
180.2315596
0
ARC
8
DEFAULT_255_1_388
10
14.3504869
20
23.3358779
40
0.8326847
50
164.3058537
51
173.9000553
0
ARC
8
DEFAULT_255_1_388
10
14.0228869
20
23.4302652
40
0.4917711
50
148.7922028
51
164.5682288
0
ARC
8
DEFAULT_255_1_388
10
13.9159607
20
23.4899457
40
0.3694204
50
144.5883979
51
148.1161588
0
ARC
8
DEFAULT_255_1_388
10
13.8772352
20
23.5169667
40
0.322202
50
101.6440149
51
144.5142619
0
ARC
8
DEFAULT_255_1_388
10
13.9250544
20
23.3269337
40
0.5180451
50
89.528284
51
102.5820197
0
ARC
8
DEFAULT_255_1_388
10
13.9339536
20
23.3225376
40
0.5224441
50
77.0437914
51
90.508231
0
ARC
8
DEFAULT_255_1_388
10
13.979179
20
23.5073272
40
0.3322297
50
48.2777708
51
77.4996087
0
ARC
8
DEFAULT_255_1_388
10
13.987353
20
23.5218557
40
0.315966
50
36.3141586
51
47.6307332
0
ARC
8
DEFAULT_255_1_388
10
13.8896252
20
23.4560159
40
0.4337313
50
18.2931065
51
35.6770203
0
ARC
8
DEFAULT_255_1_388
10
13.6035093
20
23.3578107
40
0.7362203
50
8.0246996
51
18.5605636
0
ARC
8
DEFAULT_255_1_388
10
13.1351448
20
23.2886432
40
1.2096583
50
1.127539
51
8.1718423
0
ARC
8
DEFAULT_255_1_388
10
12.7702582
20
23.2743374
40
1.5747719
50
0.5432713
51
1.38669
0
ARC
8
DEFAULT_255_1_388
10
12.975996
20
23.3050163
40
1.2018103
50
359.8092569
51
4.9408001
0
ARC
8
DEFAULT_255_1_388
10
13.4496542
20
23.34729
40
0.7262727
50
4.8364937
51
12.2906017
0
ARC
8
DEFAULT_255_1_388
10
13.7596007
20
23.4163485
40
0.4087324
50
12.0806994
51
23.8171225
0
ARC
8
DEFAULT_255_1_388
10
13.8916403
20
23.4722508
40
0.2653719
50
24.2874621
51
31.3934353
0
ARC
8
DEFAULT_255_1_388
10
13.9506838
20
23.5108822
40
0.1948607
50
30.7407708
51
82.4658033
0
ARC
8
DEFAULT_255_1_388
10
13.9304499
20
23.4115017
40
0.2961198
50
81.1057101
51
90.2187368
0
ARC
8
DEFAULT_255_1_388
10
13.9264311
20
23.4405421
40
0.2670929
50
89.380395
51
105.6763916
0
ARC
8
DEFAULT_255_1_388
10
13.9058033
20
23.515532
40
0.1893189
50
105.7980655
51
149.7387869
0
ARC
8
DEFAULT_255_1_388
10
14.0255173
20
23.4435719
40
0.3289892
50
149.4208441
51
163.628295
0
ARC
8
DEFAULT_255_1_388
10
14.2607403
20
23.3718345
40
0.5749004
50
163.3764549
51
172.141138
0
ARC
8
DEFAULT_255_1_388
10
14.6320124
20
23.3186582
40
0.9499585
50
172.0258462
51
178.0705453
0
ARC
8
DEFAULT_255_1_388
10
14.9741677
20
23.3024682
40
1.2924734
50
177.8639301
51
179.5036263
0
ARC
8
DEFAULT_255_1_388
10
14.8522696
20
23.0421151
40
1.170534
50
179.7995545
51
185.246089
0
ARC
8
DEFAULT_255_1_388
10
14.3974289
20
22.9990404
40
0.7136613
50
185.1411911
51
193.0082205
0
ARC
8
DEFAULT_255_1_388
10
14.1000549
20
22.9287441
40
0.4080987
50
192.7897338
51
205.2507384
0
ARC
8
DEFAULT_255_1_388
10
13.9822759
20
22.8761538
40
0.2791522
50
205.8001921
51
211.2545876
0
ARC
8
DEFAULT_255_1_388
10
13.9234299
20
22.8367132
40
0.2084074
50
210.3789935
51
238.4007996
0
ARC
8
DEFAULT_255_1_388
10
13.9212385
20
22.8419786
40
0.2117943
50
239.6521916
51
265.9793852
0
ARC
8
DEFAULT_255_1_388
10
13.9308233
20
22.9176358
40
0.2879689
50
265.1324455
51
270.0603288
0
ARC
8
DEFAULT_255_1_388
10
13.9340611
20
22.8811418
40
0.2514919
50
269.3314378
51
287.2180039
0
ARC
8
DEFAULT_255_1_388
10
13.9495693
20
22.8245291
40
0.1928357
50
287.7957942
51
329.0808983
0
ARC
8
DEFAULT_255_1_388
10
13.841845
20
22.8917651
40
0.319808
50
328.6635261
51
343.3325043
0
ARC
8
DEFAULT_255_1_388
10
13.5973908
20
22.9679195
40
0.5758408
50
343.0498092
51
351.9392499
0
ARC
8
DEFAULT_255_1_388
10
13.207323
20
23.0254205
40
0.9701202
50
351.8071632
51
357.7957897
0
ARC
8
DEFAULT_255_1_388
10
12.8438707
20
23.0442724
40
1.3340376
50
357.5870923
51
359.2682493
0
LINE
8
DEFAULT_255_1_388
10
15.3840582
20
23.289269
11
15.3840582
21
23.0724135
0
LINE
8
DEFAULT_255_1_388
10
14.5536825
20
23.0498244
11
14.5536825
21
23.2730048
0
LINE
8
DEFAULT_255_1_388
10
15.2168988
20
23.0272353
11
15.2168988
21
23.3010153
0
LINE
8
DEFAULT_255_1_388
10
14.7208419
20
23.3136652
11
14.7208419
21
23.0462102
0
ARC
8
DEFAULT_255_1_388
10
14.0062916
20
23.0669118
40
1.3777776
50
353.8440855
51
0.2287917
0
ARC
8
DEFAULT_255_1_388
10
14.5281933
20
23.0086414
40
0.852639
50
344.4934746
51
353.9763743
0
ARC
8
DEFAULT_255_1_388
10
14.8648741
20
22.9129191
40
0.5026273
50
329.2803599
51
344.7473406
0
ARC
8
DEFAULT_255_1_388
10
14.9764236
20
22.8517038
40
0.3754848
50
324.9361395
51
328.6153007
0
ARC
8
DEFAULT_255_1_388
10
15.0189886
20
22.8219586
40
0.3235566
50
280.5801797
51
324.9173226
0
ARC
8
DEFAULT_255_1_388
10
14.9738515
20
23.0099236
40
0.5167077
50
269.5979457
51
281.6732777
0
ARC
8
DEFAULT_255_1_388
10
14.9657418
20
22.9964113
40
0.5032026
50
256.6228565
51
270.5105488
0
ARC
8
DEFAULT_255_1_388
10
14.9205161
20
22.8222345
40
0.3233092
50
215.8618351
51
257.2787793
0
ARC
8
DEFAULT_255_1_388
10
15.0353868
20
22.8993106
40
0.4615831
50
197.9695203
51
215.2622745
0
ARC
8
DEFAULT_255_1_388
10
15.3149544
20
22.9936641
40
0.7566307
50
187.8816486
51
198.2346584
0
ARC
8
DEFAULT_255_1_388
10
15.7602782
20
23.0579453
40
1.2065653
50
180.8977266
51
188.0054894
0
ARC
8
DEFAULT_255_1_388
10
16.0652996
20
23.06944
40
1.5117443
50
180.7434591
51
181.152202
0
ARC
8
DEFAULT_255_1_388
10
15.8977992
20
23.2784371
40
1.3441277
50
173.7674302
51
180.2315596
0
ARC
8
DEFAULT_255_1_388
10
15.389586
20
23.3358779
40
0.8326847
50
164.3058537
51
173.9000553
0
ARC
8
DEFAULT_255_1_388
10
15.061986
20
23.4302652
40
0.4917711
50
148.7922028
51
164.5682288
0
ARC
8
DEFAULT_255_1_388
10
14.9550598
20
23.4899457
40
0.3694204
50
144.5883979
51
148.1161588
0
ARC
8
DEFAULT_255_1_388
10
14.9163343
20
23.5169667
40
0.322202
50
101.6440149
51
144.5142619
0
ARC
8
DEFAULT_255_1_388
10
14.9641535
20
23.3269337
40
0.5180451
50
89.528284
51
102.5820197
0
ARC
8
DEFAULT_255_1_388
10
14.9730527
20
23.3225376
40
0.5224441
50
77.0437914
51
90.508231
0
ARC
8
DEFAULT_255_1_388
10
15.0182781
20
23.5073272
40
0.3322297
50
48.2777708
51
77.4996087
0
ARC
8
DEFAULT_255_1_388
10
15.0264521
20
23.5218557
40
0.315966
50
36.3141586
51
47.6307332
0
ARC
8
DEFAULT_255_1_388
10
14.9287243
20
23.4560159
40
0.4337313
50
18.2931065
51
35.6770203
0
ARC
8
DEFAULT_255_1_388
10
14.6426084
20
23.3578107
40
0.7362203
50
8.0246996
51
18.5605636
0
ARC
8
DEFAULT_255_1_388
10
14.1742439
20
23.2886432
40
1.2096583
50
1.127539
51
8.1718423
0
ARC
8
DEFAULT_255_1_388
10
13.8093573
20
23.2743374
40
1.5747719
50
0.5432713
51
1.38669
0
ARC
8
DEFAULT_255_1_388
10
14.0150952
20
23.3050163
40
1.2018103
50
359.8092569
51
4.9408001
0
ARC
8
DEFAULT_255_1_388
10
14.4887533
20
23.34729
40
0.7262727
50
4.8364937
51
12.2906017
0
ARC
8
DEFAULT_255_1_388
10
14.7986998
20
23.4163485
40
0.4087324
50
12.0806994
51
23.8171225
0
ARC
8
DEFAULT_255_1_388
10
14.9307394
20
23.4722508
40
0.2653719
50
24.2874621
51
31.3934353
0
ARC
8
DEFAULT_255_1_388
10
14.989783
20
23.5108822
40
0.1948607
50
30.7407708
51
82.4658033
0
ARC
8
DEFAULT_255_1_388
10
14.969549
20
23.4115017
40
0.2961198
50
81.1057101
51
90.2187368
0
ARC
8
DEFAULT_255_1_388
10
14.9655302
20
23.4405421
40
0.2670929
50
89.380395
51
105.6763916
0
ARC
8
DEFAULT_255_1_388
10
14.9449024
20
23.515532
40
0.1893189
50
105.7980655
51
149.7387869
0
ARC
8
DEFAULT_255_1_388
10
15.0646164
20
23.4435719
40
0.3289892
50
149.4208441
51
163.628295
0
ARC
8
DEFAULT_255_1_388
10
15.2998394
20
23.3718345
40
0.5749004
50
163.3764549
51
172.141138
0
ARC
8
DEFAULT_255_1_388
10
15.6711115
20
23.3186582
40
0.9499585
50
172.0258462
51
178.0705453
0
ARC
8
DEFAULT_255_1_388
10
16.0132668
20
23.3024682
40
1.2924734
50
177.8639301
51
179.5036263
0
ARC
8
DEFAULT_255_1_388
10
15.8913687
20
23.0421151
40
1.170534
50
179.7995545
51
185.246089
0
ARC
8
DEFAULT_255_1_388
10
15.436528
20
22.9990404
40
0.7136613
50
185.1411911
51
193.0082205
0
ARC
8
DEFAULT_255_1_388
10
15.1391541
20
22.9287441
40
0.4080987
50
192.7897338
51
205.2507384
0
ARC
8
DEFAULT_255_1_388
10
15.0213751
20
22.8761538
40
0.2791522
50
205.8001921
51
211.2545876
0
ARC
8
DEFAULT_255_1_388
10
14.962529
20
22.8367132
40
0.2084074
50
210.3789935
51
238.4007996
0
ARC
8
DEFAULT_255_1_388
10
14.9603376
20
22.8419786
40
0.2117943
50
239.6521916
51
265.9793852
0
ARC
8
DEFAULT_255_1_388
10
14.9699225
20
22.9176358
40
0.2879689
50
265.1324455
51
270.0603288
0
ARC
8
DEFAULT_255_1_388
10
14.9731602
20
22.8811418
40
0.2514919
50
269.3314378
51
287.2180039
0
ARC
8
DEFAULT_255_1_388
10
14.9886684
20
22.8245291
40
0.1928357
50
287.7957942
51
329.0808983
0
ARC
8
DEFAULT_255_1_388
10
14.8809441
20
22.8917651
40
0.319808
50
328.6635261
51
343.3325043
0
ARC
8
DEFAULT_255_1_388
10
14.63649
20
22.9679195
40
0.5758408
50
343.0498092
51
351.9392499
0
ARC
8
DEFAULT_255_1_388
10
14.2464221
20
23.0254205
40
0.9701202
50
351.8071632
51
357.7957897
0
ARC
8
DEFAULT_255_1_388
10
13.8829698
20
23.0442724
40
1.3340376
50
357.5870923
51
359.2682493
0
LINE
8
DEFAULT_255_1_388
10
15.963243
20
23.1383737
11
15.963243
21
23.0019355
0
LINE
8
DEFAULT_255_1_388
10
15.963243
20
23.0019355
11
15.5223036
21
23.0019355
0
LINE
8
DEFAULT_255_1_388
10
15.5223036
20
23.0019355
11
15.5223036
21
23.1383737
0
LINE
8
DEFAULT_255_1_388
10
15.5223036
20
23.1383737
11
15.963243
21
23.1383737
0
LINE
8
DEFAULT_255_1_388
10
16.26413
20
23.8268898
11
16.5812811
21
23.3227009
0
LINE
8
DEFAULT_255_1_388
10
16.5812811
20
23.3227009
11
16.8966251
21
23.8268898
0
LINE
8
DEFAULT_255_1_388
10
16.8966251
20
23.8268898
11
17.1008307
21
23.8268898
0
LINE
8
DEFAULT_255_1_388
10
17.1008307
20
23.8268898
11
16.685191
21
23.1745163
0
LINE
8
DEFAULT_255_1_388
10
16.685191
20
23.1745163
11
17.1107699
21
22.5113
0
LINE
8
DEFAULT_255_1_388
10
17.1107699
20
22.5113
11
16.9047572
21
22.5113
0
LINE
8
DEFAULT_255_1_388
10
16.9047572
20
22.5113
11
16.5812811
21
23.0245246
0
LINE
8
DEFAULT_255_1_388
10
16.5812811
20
23.0245246
11
16.2559979
21
22.5113
0
LINE
8
DEFAULT_255_1_388
10
16.2559979
20
22.5113
11
16.0508888
21
22.5113
0
LINE
8
DEFAULT_255_1_388
10
16.0508888
20
22.5113
11
16.4773712
21
23.1745163
0
LINE
8
DEFAULT_255_1_388
10
16.4773712
20
23.1745163
11
16.060828
21
23.8268898
0
LINE
8
DEFAULT_255_1_388
10
16.060828
20
23.8268898
11
16.26413
21
23.8268898
0
LINE
8
DEFAULT_255_1_388
10
18.0830052
20
22.9287468
11
18.2573932
21
22.9287468
0
LINE
8
DEFAULT_255_1_388
10
17.2444974
20
23.1076525
11
17.2444974
21
23.2341516
0
LINE
8
DEFAULT_255_1_388
10
18.2573932
20
23.4040217
11
18.0830052
21
23.4040217
0
LINE
8
DEFAULT_255_1_388
10
17.4188854
20
23.2296337
11
17.4188854
21
23.1022312
0
ARC
8
DEFAULT_255_1_388
10
17.6408166
20
22.9959329
40
0.6202263
50
340.1774904
51
353.7812217
0
ARC
8
DEFAULT_255_1_388
10
17.8176018
20
22.9300893
40
0.4315926
50
311.4560052
51
340.4420756
0
ARC
8
DEFAULT_255_1_388
10
17.8138558
20
22.9425665
40
0.4434573
50
282.4332229
51
310.7514507
0
ARC
8
DEFAULT_255_1_388
10
17.7644376
20
23.1467703
40
0.6535262
50
269.9358869
51
282.8096729
0
ARC
8
DEFAULT_255_1_388
10
17.7586316
20
23.2980329
40
0.8048043
50
269.9995752
51
270.3612856
0
ARC
8
DEFAULT_255_1_388
10
17.7526806
20
23.0181781
40
0.5249831
50
250.7885263
51
270.6488451
0
ARC
8
DEFAULT_255_1_388
10
17.733763
20
22.9464853
40
0.4510942
50
219.3628377
51
250.0611024
0
ARC
8
DEFAULT_255_1_388
10
17.8270504
20
23.0257653
40
0.5735046
50
193.5480293
51
219.5755675
0
ARC
8
DEFAULT_255_1_388
10
18.0938713
20
23.095052
40
0.849146
50
181.1220183
51
193.8754971
0
ARC
8
DEFAULT_255_1_388
10
18.3261947
20
23.1074914
40
1.0816971
50
179.9914644
51
181.5398227
0
ARC
8
DEFAULT_255_1_388
10
18.1185257
20
23.2383586
40
0.8740384
50
169.5837606
51
180.275782
0
ARC
8
DEFAULT_255_1_388
10
17.9118605
20
23.2765439
40
0.6638751
50
155.0367033
51
169.6002779
0
ARC
8
DEFAULT_255_1_388
10
17.7841064
20
23.3381336
40
0.5220662
50
136.7831557
51
155.2472983
0
ARC
8
DEFAULT_255_1_388
10
17.7402854
20
23.3753577
40
0.4646502
50
121.7633063
51
136.4281161
0
ARC
8
DEFAULT_255_1_388
10
17.7554694
20
23.3473049
40
0.4964979
50
95.6460018
51
121.5489589
0
ARC
8
DEFAULT_255_1_388
10
17.7731668
20
23.2225704
40
0.6223912
50
89.9245727
51
96.1375919
0
ARC
8
DEFAULT_255_1_388
10
17.7788374
20
23.2359721
40
0.6090084
50
76.6779212
51
90.456405
0
ARC
8
DEFAULT_255_1_388
10
17.8231186
20
23.414906
40
0.42469
50
47.4858803
51
76.9287069
0
ARC
8
DEFAULT_255_1_388
10
17.80658
20
23.4036623
40
0.4441778
50
16.5424081
51
46.8934505
0
ARC
8
DEFAULT_255_1_388
10
17.625685
20
23.3442265
40
0.6345318
50
5.4072971
51
17.0363711
0
ARC
8
DEFAULT_255_1_388
10
17.4638575
20
23.3182304
40
0.6250632
50
7.8888693
51
15.9242022
0
ARC
8
DEFAULT_255_1_388
10
17.687356
20
23.3831309
40
0.3923364
50
15.7650676
51
27.9410069
0
ARC
8
DEFAULT_255_1_388
10
17.811573
20
23.4496317
40
0.2514401
50
27.8167196
51
46.4007942
0
ARC
8
DEFAULT_255_1_388
10
17.8171571
20
23.4489882
40
0.2480958
50
47.4372362
51
75.0695672
0
ARC
8
DEFAULT_255_1_388
10
17.7824407
20
23.3281277
40
0.3738281
50
74.7009379
51
87.8124314
0
ARC
8
DEFAULT_255_1_388
10
17.7742024
20
23.2097659
40
0.4924321
50
87.3802571
51
90.0251599
0
ARC
8
DEFAULT_255_1_388
10
17.7698671
20
23.3417997
40
0.3604218
50
89.3451886
51
108.5744412
0
ARC
8
DEFAULT_255_1_388
10
17.7544664
20
23.3995836
40
0.3007661
50
109.2998307
51
143.3037387
0
ARC
8
DEFAULT_255_1_388
10
17.8401953
20
23.3336584
40
0.4089031
50
143.075267
51
163.1918576
0
ARC
8
DEFAULT_255_1_388
10
18.0597788
20
23.2643652
40
0.6391492
50
162.9375929
51
174.6208776
0
ARC
8
DEFAULT_255_1_388
10
18.355217
20
23.2319711
40
0.9363344
50
174.342123
51
180.1430283
0
ARC
8
DEFAULT_255_1_388
10
18.2504711
20
23.0976117
40
0.8315986
50
179.6817261
51
189.150555
0
ARC
8
DEFAULT_255_1_388
10
17.969146
20
23.0507559
40
0.5464044
50
188.9911061
51
203.5772363
0
ARC
8
DEFAULT_255_1_388
10
17.8476752
20
23.0003539
40
0.4149206
50
203.9075402
51
215.1312435
0
ARC
8
DEFAULT_255_1_388
10
17.7438549
20
22.9198907
40
0.2837747
50
213.9071511
51
263.8848919
0
ARC
8
DEFAULT_255_1_388
10
17.7579543
20
23.0081519
40
0.3730641
50
263.1757928
51
270.1031044
0
ARC
8
DEFAULT_255_1_388
10
17.7615622
20
23.1484511
40
0.5133712
50
269.6722503
51
279.0606936
0
ARC
8
DEFAULT_255_1_388
10
17.7915778
20
22.967015
40
0.3294739
50
278.8749101
51
293.6349581
0
ARC
8
DEFAULT_255_1_388
10
17.8275981
20
22.8824251
40
0.2375405
50
293.8553806
51
310.0518171
0
ARC
8
DEFAULT_255_1_388
10
17.828149
20
22.8754021
40
0.2318463
50
311.0644687
51
332.0111037
0
ARC
8
DEFAULT_255_1_388
10
17.6940163
20
22.9493702
40
0.3850112
50
331.6586806
51
343.2877423
0
ARC
8
DEFAULT_255_1_388
10
17.4619629
20
23.0206806
40
0.6277712
50
343.1446576
51
351.0103568
0
ARC
8
DEFAULT_255_1_388
10
17.2986952
20
23.0506873
40
0.7937327
50
350.71248
51
351.1626997
0
LINE
8
DEFAULT_255_1_388
10
4.8805318
20
20.6633382
11
4.8805318
21
20.5269
0
LINE
8
DEFAULT_255_1_388
10
4.8805318
20
20.5269
11
4.0185313
21
20.5269
0
LINE
8
DEFAULT_255_1_388
10
4.0185313
20
20.5269
11
4.0185313
21
20.6470741
0
LINE
8
DEFAULT_255_1_388
10
4.0185313
20
20.6470741
11
4.4739278
21
21.1530702
0
LINE
8
DEFAULT_255_1_388
10
4.1603909
20
21.4548607
11
3.9932315
21
21.4548607
0
LINE
8
DEFAULT_255_1_388
10
4.5724163
20
21.045546
11
4.2200262
21
20.6633382
0
LINE
8
DEFAULT_255_1_388
10
4.2200262
20
20.6633382
11
4.8805318
21
20.6633382
0
ARC
8
DEFAULT_255_1_388
10
2.9563337
20
22.4950983
40
2.0258655
50
318.5132526
51
320.7829045
0
ARC
8
DEFAULT_255_1_388
10
3.5511294
20
22.0109929
40
1.2589638
50
320.7372878
51
323.9739031
0
ARC
8
DEFAULT_255_1_388
10
3.9920226
20
21.6915554
40
0.7145141
50
323.8962701
51
328.64194
0
ARC
8
DEFAULT_255_1_388
10
4.2222484
20
21.5495545
40
0.4440242
50
328.8294576
51
331.7891185
0
ARC
8
DEFAULT_255_1_388
10
4.3344804
20
21.4916374
40
0.3177517
50
331.4254512
51
352.9365785
0
ARC
8
DEFAULT_255_1_388
10
4.3497804
20
21.488205
40
0.3021496
50
353.2257659
51
0.0166158
0
ARC
8
DEFAULT_255_1_388
10
4.3734564
20
21.4907894
40
0.2784847
50
359.486299
51
15.9343185
0
ARC
8
DEFAULT_255_1_388
10
4.4304831
20
21.5061269
40
0.2194403
50
16.1712913
51
43.5286088
0
ARC
8
DEFAULT_255_1_388
10
4.4391776
20
21.5148191
40
0.2071504
50
43.4417391
51
83.1661095
0
ARC
8
DEFAULT_255_1_388
10
4.4240937
20
21.4319316
40
0.2912888
50
82.160179
51
90.1505708
0
ARC
8
DEFAULT_255_1_388
10
4.4205418
20
21.3715279
40
0.3517025
50
89.5460741
51
102.5418361
0
ARC
8
DEFAULT_255_1_388
10
4.3932138
20
21.4874933
40
0.2325748
50
102.1738499
51
129.206123
0
ARC
8
DEFAULT_255_1_388
10
4.3843592
20
21.5014664
40
0.2161591
50
129.72865
51
135.753947
0
ARC
8
DEFAULT_255_1_388
10
4.3980074
20
21.4905728
40
0.2335433
50
136.1757367
51
166.3673339
0
ARC
8
DEFAULT_255_1_388
10
4.5112762
20
21.4602148
40
0.3507873
50
165.9090694
51
178.8684636
0
ARC
8
DEFAULT_255_1_388
10
4.6088534
20
21.4549263
40
0.4484624
50
178.4391136
51
180.0083808
0
ARC
8
DEFAULT_255_1_388
10
4.4509235
20
21.4593197
40
0.4577138
50
163.2878482
51
180.5581842
0
ARC
8
DEFAULT_255_1_388
10
4.3607276
20
21.4841393
40
0.3641968
50
133.4540601
51
162.947111
0
ARC
8
DEFAULT_255_1_388
10
4.3808158
20
21.4627789
40
0.3935189
50
100.7869829
51
133.4382499
0
ARC
8
DEFAULT_255_1_388
10
4.4199403
20
21.2885399
40
0.5720313
50
89.660664
51
101.3702276
0
ARC
8
DEFAULT_255_1_388
10
4.4274012
20
21.2954263
40
0.5651495
50
78.2172678
51
90.412935
0
ARC
8
DEFAULT_255_1_388
10
4.4673478
20
21.4781511
40
0.378122
50
55.9269121
51
78.4888449
0
ARC
8
DEFAULT_255_1_388
10
4.4894193
20
21.5162187
40
0.3342379
50
47.929771
51
55.4049217
0
ARC
8
DEFAULT_255_1_388
10
4.5008723
20
21.5278618
40
0.3179217
50
4.334829
51
48.0560205
0
ARC
8
DEFAULT_255_1_388
10
4.3776525
20
21.5087487
40
0.442341
50
359.9251713
51
5.5971671
0
ARC
8
DEFAULT_255_1_388
10
4.425868
20
21.5150728
40
0.3941854
50
337.8914027
51
358.9967534
0
ARC
8
DEFAULT_255_1_388
10
4.120625
20
21.6328295
40
0.7213271
50
326.9132501
51
338.3508308
0
ARC
8
DEFAULT_255_1_388
10
3.6722362
20
21.9202105
40
1.2538973
50
319.6471833
51
327.0959558
0
ARC
8
DEFAULT_255_1_388
10
3.240902
20
22.276005
40
1.8129975
50
317.2588228
51
319.9045804
0
LINE
8
DEFAULT_255_1_388
10
5.7633143
20
21.8424898
11
5.7633143
21
20.968743
0
LINE
8
DEFAULT_255_1_388
10
5.7633143
20
20.968743
11
5.9458343
21
20.968743
0
LINE
8
DEFAULT_255_1_388
10
5.9458343
20
20.968743
11
5.9458343
21
20.8323048
0
LINE
8
DEFAULT_255_1_388
10
5.9458343
20
20.8323048
11
5.7633143
21
20.8323048
0
LINE
8
DEFAULT_255_1_388
10
5.7633143
20
20.8323048
11
5.7633143
21
20.5269
0
LINE
8
DEFAULT_255_1_388
10
5.7633143
20
20.5269
11
5.5952513
21
20.5269
0
LINE
8
DEFAULT_255_1_388
10
5.5952513
20
20.5269
11
5.5952513
21
20.8323048
0
LINE
8
DEFAULT_255_1_388
10
5.5952513
20
20.8323048
11
4.996188
21
20.8323048
0
LINE
8
DEFAULT_255_1_388
10
4.996188
20
20.8323048
11
4.996188
21
20.9307933
0
LINE
8
DEFAULT_255_1_388
10
4.996188
20
20.9307933
11
5.5853121
21
21.8424898
0
LINE
8
DEFAULT_255_1_388
10
5.5853121
20
21.8424898
11
5.7633143
21
21.8424898
0
LINE
8
DEFAULT_255_1_388
10
5.5753729
20
21.5777455
11
5.1859366
21
20.968743
0
LINE
8
DEFAULT_255_1_388
10
5.1859366
20
20.968743
11
5.5952513
21
20.968743
0
LINE
8
DEFAULT_255_1_388
10
5.5952513
20
20.968743
11
5.5952513
21
21.613888
0
LINE
8
DEFAULT_255_1_388
10
5.5952513
20
21.613888
11
5.5753729
21
21.5777455
0
LINE
8
DEFAULT_255_1_388
10
6.201543
20
21.8424898
11
6.5756187
21
20.7573089
0
LINE
8
DEFAULT_255_1_388
10
6.5756187
20
20.7573089
11
6.9515015
21
21.8424898
0
LINE
8
DEFAULT_255_1_388
10
6.9515015
20
21.8424898
11
7.14125
21
21.8424898
0
LINE
8
DEFAULT_255_1_388
10
7.14125
20
21.8424898
11
6.6533252
21
20.5269
0
LINE
8
DEFAULT_255_1_388
10
6.6533252
20
20.5269
11
6.4997193
21
20.5269
0
LINE
8
DEFAULT_255_1_388
10
6.4997193
20
20.5269
11
6.012698
21
21.8424898
0
LINE
8
DEFAULT_255_1_388
10
6.012698
20
21.8424898
11
6.201543
21
21.8424898
0
LINE
8
DEFAULT_255_1_388
10
4.4836094
20
5.1669317
11
4.1736868
21
5.1669317
0
LINE
8
DEFAULT_255_1_388
10
4.1736868
20
5.1669317
11
4.1736868
21
4.6519
0
LINE
8
DEFAULT_255_1_388
10
4.1736868
20
4.6519
11
4.0002024
21
4.6519
0
LINE
8
DEFAULT_255_1_388
10
4.0002024
20
4.6519
11
4.0002024
21
5.9674898
0
LINE
8
DEFAULT_255_1_388
10
4.0002024
20
5.9674898
11
4.4854165
21
5.9674898
0
LINE
8
DEFAULT_255_1_388
10
4.1736868
20
5.8247267
11
4.1736868
21
5.3087914
0
LINE
8
DEFAULT_255_1_388
10
4.1736868
20
5.3087914
11
4.4854165
21
5.3087914
0
LINE
8
DEFAULT_255_1_388
10
4.4953557
20
5.8247267
11
4.1736868
21
5.8247267
0
ARC
8
DEFAULT_255_1_388
10
4.4901538
20
5.2858334
40
0.6816729
50
78.8380084
51
90.398184
0
ARC
8
DEFAULT_255_1_388
10
4.5369569
20
5.5131796
40
0.449571
50
58.9633273
51
79.0810717
0
ARC
8
DEFAULT_255_1_388
10
4.5708953
20
5.5761823
40
0.3781049
50
48.0194715
51
58.4475592
0
ARC
8
DEFAULT_255_1_388
10
4.5808773
20
5.5857818
40
0.3642936
50
3.3374546
51
48.1766642
0
ARC
8
DEFAULT_255_1_388
10
4.442358
20
5.5658581
40
0.5038766
50
359.9483251
51
4.6822857
0
ARC
8
DEFAULT_255_1_388
10
4.4563503
20
5.5610779
40
0.4899031
50
346.1879032
51
0.5059221
0
ARC
8
DEFAULT_255_1_388
10
4.6092295
20
5.5213763
40
0.3319729
50
310.8832219
51
346.5426612
0
ARC
8
DEFAULT_255_1_388
10
4.5745143
20
5.5682853
40
0.3901853
50
286.6925305
51
310.228778
0
ARC
8
DEFAULT_255_1_388
10
4.5104873
20
5.7696585
40
0.6014737
50
274.6848219
51
287.0247342
0
ARC
8
DEFAULT_255_1_388
10
4.4851422
20
6.0181088
40
0.8511785
50
269.8968222
51
275.0192639
0
ARC
8
DEFAULT_255_1_388
10
4.4882415
20
5.7843144
40
0.4755314
50
269.6596206
51
279.4150542
0
ARC
8
DEFAULT_255_1_388
10
4.5171873
20
5.6165945
40
0.3053379
50
279.2050006
51
294.9901776
0
ARC
8
DEFAULT_255_1_388
10
4.5498508
20
5.5437353
40
0.2255036
50
295.2886769
51
311.2912669
0
ARC
8
DEFAULT_255_1_388
10
4.5578249
20
5.5318938
40
0.2113522
50
311.7853512
51
347.2860549
0
ARC
8
DEFAULT_255_1_388
10
4.447141
20
5.560343
40
0.3256011
50
346.6891629
51
0.1057086
0
ARC
8
DEFAULT_255_1_388
10
4.354887
20
5.5636247
40
0.417863
50
359.63239
51
359.9961329
0
ARC
8
DEFAULT_255_1_388
10
4.4713475
20
5.5663987
40
0.3014155
50
359.4673371
51
15.5931159
0
ARC
8
DEFAULT_255_1_388
10
4.5416538
20
5.5853937
40
0.2285918
50
15.7441779
51
46.620186
0
ARC
8
DEFAULT_255_1_388
10
4.5250298
20
5.5662361
40
0.2539359
50
46.8628482
51
75.6676625
0
ARC
8
DEFAULT_255_1_388
10
4.4919354
20
5.4471243
40
0.3775415
50
75.2763152
51
88.2916439
0
ARC
8
DEFAULT_255_1_388
10
4.4853354
20
5.3469097
40
0.4779221
50
87.8589087
51
88.7986197
0
LINE
8
DEFAULT_255_1_388
10
5.8931699
20
5.3747516
11
5.8931699
21
5.2328919
0
LINE
8
DEFAULT_255_1_388
10
5.8931699
20
5.2328919
11
5.341092
21
5.2328919
0
LINE
8
DEFAULT_255_1_388
10
5.341092
20
5.2328919
11
5.341092
21
4.6519
0
LINE
8
DEFAULT_255_1_388
10
5.341092
20
4.6519
11
5.1676077
21
4.6519
0
LINE
8
DEFAULT_255_1_388
10
5.1676077
20
4.6519
11
5.1676077
21
5.9674898
0
LINE
8
DEFAULT_255_1_388
10
5.1676077
20
5.9674898
11
5.9826228
21
5.9674898
0
LINE
8
DEFAULT_255_1_388
10
5.9826228
20
5.9674898
11
5.9826228
21
5.8247267
0
LINE
8
DEFAULT_255_1_388
10
5.9826228
20
5.8247267
11
5.341092
21
5.8247267
0
LINE
8
DEFAULT_255_1_388
10
5.341092
20
5.8247267
11
5.341092
21
5.3747516
0
LINE
8
DEFAULT_255_1_388
10
5.341092
20
5.3747516
11
5.8931699
21
5.3747516
0
LINE
8
DEFAULT_255_1_388
10
6.6467427
20
4.6519
11
6.1904426
21
4.6519
0
LINE
8
DEFAULT_255_1_388
10
6.1904426
20
4.6519
11
6.1904426
21
5.9674898
0
LINE
8
DEFAULT_255_1_388
10
6.1904426
20
5.9674898
11
6.6205393
21
5.9674898
0
LINE
8
DEFAULT_255_1_388
10
6.6530676
20
5.2672274
11
6.363927
21
5.2672274
0
LINE
8
DEFAULT_255_1_388
10
6.363927
20
5.2672274
11
6.363927
21
4.7937596
0
LINE
8
DEFAULT_255_1_388
10
6.363927
20
4.7937596
11
6.6503569
21
4.7937596
0
LINE
8
DEFAULT_255_1_388
10
6.363927
20
5.8247267
11
6.363927
21
5.4063763
0
LINE
8
DEFAULT_255_1_388
10
6.363927
20
5.4063763
11
6.6259607
21
5.4063763
0
LINE
8
DEFAULT_255_1_388
10
6.6205393
20
5.8247267
11
6.363927
21
5.8247267
0
ARC
8
DEFAULT_255_1_388
10
6.6247813
20
5.1386824
40
0.8288183
50
82.1256322
51
90.2932506
0
ARC
8
DEFAULT_255_1_388
10
6.6685388
20
5.444459
40
0.5199321
50
69.9044202
51
82.2857574
0
ARC
8
DEFAULT_255_1_388
10
6.7327381
20
5.6179993
40
0.3348993
50
51.1840204
51
70.018125
0
ARC
8
DEFAULT_255_1_388
10
6.7614213
20
5.6596945
40
0.2844579
50
12.1018086
51
50.421322
0
ARC
8
DEFAULT_255_1_388
10
6.6057085
20
5.6205937
40
0.4449429
50
359.5252354
51
12.8212369
0
ARC
8
DEFAULT_255_1_388
10
6.7834515
20
5.6127943
40
0.2672162
50
323.4907456
51
0.8818258
0
ARC
8
DEFAULT_255_1_388
10
6.7363927
20
5.6491523
40
0.3266736
50
298.6824053
51
323.2758285
0
ARC
8
DEFAULT_255_1_388
10
6.6957219
20
5.7167509
40
0.4055105
50
293.1994739
51
299.139634
0
ARC
8
DEFAULT_255_1_388
10
6.7714168
20
5.0321651
40
0.3229926
50
54.0009997
51
74.9168635
0
ARC
8
DEFAULT_255_1_388
10
6.7845095
20
5.0543511
40
0.2973581
50
36.3578854
51
53.5293172
0
ARC
8
DEFAULT_255_1_388
10
6.7702463
20
5.044185
40
0.3148715
50
4.8189348
51
36.3090187
0
ARC
8
DEFAULT_255_1_388
10
6.6825487
20
5.0318383
40
0.4033265
50
359.9373213
51
5.5201284
0
ARC
8
DEFAULT_255_1_388
10
6.6460818
20
5.0272733
40
0.4398126
50
344.7479357
51
0.5372278
0
ARC
8
DEFAULT_255_1_388
10
6.7575716
20
4.9972205
40
0.3243441
50
311.1785587
51
344.6887681
0
ARC
8
DEFAULT_255_1_388
10
6.7247259
20
5.0381084
40
0.3767511
50
286.0417804
51
310.8440924
0
ARC
8
DEFAULT_255_1_388
10
6.6676669
20
5.2233885
40
0.5705957
50
274.1044074
51
286.4070149
0
ARC
8
DEFAULT_255_1_388
10
6.6477884
20
5.4351901
40
0.7832907
50
269.9235077
51
274.4458593
0
ARC
8
DEFAULT_255_1_388
10
6.6529602
20
5.1720462
40
0.3782955
50
269.6057074
51
281.3740795
0
ARC
8
DEFAULT_255_1_388
10
6.6789101
20
5.0490569
40
0.2526069
50
281.105298
51
302.5134029
0
ARC
8
DEFAULT_255_1_388
10
6.6954488
20
5.0193944
40
0.2187131
50
303.0365425
51
311.8818034
0
ARC
8
DEFAULT_255_1_388
10
6.7034665
20
5.0098602
40
0.2062624
50
311.9916937
51
351.7143773
0
ARC
8
DEFAULT_255_1_388
10
6.611569
20
5.0284271
40
0.2999202
50
350.7343295
51
0.2221526
0
ARC
8
DEFAULT_255_1_388
10
6.5994778
20
5.034787
40
0.3120525
50
359.045729
51
17.2295312
0
ARC
8
DEFAULT_255_1_388
10
6.7163809
20
5.0695155
40
0.1901144
50
17.6685208
51
78.9940245
0
ARC
8
DEFAULT_255_1_388
10
6.6582169
20
4.8607011
40
0.4065575
50
76.565218
51
90.7103392
0
LINE
8
DEFAULT_255_1_388
10
6.6531767
20
5.2672274
11
6.6530676
21
5.2672274
0
ARC
8
DEFAULT_255_1_388
10
6.6284995
20
5.7759949
40
0.3696273
50
269.6064514
51
281.4533785
0
ARC
8
DEFAULT_255_1_388
10
6.6535636
20
5.6577283
40
0.2487412
50
281.2044438
51
302.5143998
0
ARC
8
DEFAULT_255_1_388
10
6.668989
20
5.6299576
40
0.2170405
50
303.0211308
51
309.8378766
0
ARC
8
DEFAULT_255_1_388
10
6.6896007
20
5.6068486
40
0.1860946
50
309.5229446
51
356.9509628
0
ARC
8
DEFAULT_255_1_388
10
6.6150133
20
5.6175831
40
0.2612347
50
355.4699226
51
0.0498632
0
ARC
8
DEFAULT_255_1_388
10
6.5835807
20
5.6200789
40
0.2926762
50
359.5558955
51
11.2092924
0
ARC
8
DEFAULT_255_1_388
10
6.6912774
20
5.6423667
40
0.1827036
50
10.9185717
51
31.322519
0
ARC
8
DEFAULT_255_1_388
10
6.7234322
20
5.6602571
40
0.1459418
50
31.8850633
51
52.1415586
0
ARC
8
DEFAULT_255_1_388
10
6.6925752
20
5.6166674
40
0.1993088
50
52.8283418
51
71.9850132
0
ARC
8
DEFAULT_255_1_388
10
6.6502912
20
5.4922158
40
0.3307407
50
71.686634
51
82.8453416
0
ARC
8
DEFAULT_255_1_388
10
6.6233559
20
5.2886892
40
0.536039
50
82.6981895
51
90.1730083
0
ARC
8
DEFAULT_255_1_388
10
6.6208391
20
5.3765836
40
0.4481429
50
89.8851568
51
90.0383283
0
LINE
8
DEFAULT_255_1_388
10
8.2153306
20
5.5870892
11
8.0409426
21
5.5870892
0
LINE
8
DEFAULT_255_1_388
10
7.2620701
20
5.0332042
11
7.436458
21
5.0332042
0
ARC
8
DEFAULT_255_1_388
10
8.1150153
20
6.5934821
40
1.4087688
50
248.9196578
51
254.1442424
0
ARC
8
DEFAULT_255_1_388
10
7.9260034
20
6.1068805
40
0.8867498
50
241.6337352
51
249.0064643
0
ARC
8
DEFAULT_255_1_388
10
7.7540347
20
5.7917764
40
0.5277799
50
230.4982261
51
241.8087583
0
ARC
8
DEFAULT_255_1_388
10
7.6658118
20
5.6793686
40
0.3849419
50
227.4062979
51
229.9877433
0
ARC
8
DEFAULT_255_1_388
10
7.6109464
20
5.6258155
40
0.3084129
50
200.6782127
51
228.1765252
0
ARC
8
DEFAULT_255_1_388
10
7.6190833
20
5.6241277
40
0.315461
50
179.506278
51
199.8695278
0
ARC
8
DEFAULT_255_1_388
10
7.6180422
20
5.6324671
40
0.3144584
50
132.4834401
51
181.0242352
0
ARC
8
DEFAULT_255_1_388
10
7.6849626
20
5.5692788
40
0.4063094
50
129.2526113
51
133.4249077
0
ARC
8
DEFAULT_255_1_388
10
7.7015219
20
5.5444619
40
0.436014
50
101.9878945
51
128.8741833
0
ARC
8
DEFAULT_255_1_388
10
7.7463634
20
5.350836
40
0.6347415
50
89.5906376
51
102.3170567
0
ARC
8
DEFAULT_255_1_388
10
7.7542946
20
5.3866586
40
0.5989122
50
77.2359491
51
90.3248968
0
ARC
8
DEFAULT_255_1_388
10
7.7775877
20
5.4954554
40
0.4876594
50
63.8379856
51
77.0808925
0
ARC
8
DEFAULT_255_1_388
10
7.808841
20
5.5536882
40
0.4216191
50
45.9863127
51
64.1608798
0
ARC
8
DEFAULT_255_1_388
10
7.8381804
20
5.587199
40
0.3771394
50
32.2747934
51
45.6544796
0
ARC
8
DEFAULT_255_1_388
10
7.845661
20
5.5893426
40
0.3696765
50
359.6507495
51
32.6129943
0
ARC
8
DEFAULT_255_1_388
10
7.7395793
20
5.5898788
40
0.3013762
50
359.469654
51
14.983205
0
ARC
8
DEFAULT_255_1_388
10
7.8189045
20
5.6111288
40
0.2192542
50
14.9781954
51
48.2004799
0
ARC
8
DEFAULT_255_1_388
10
7.8004156
20
5.5878937
40
0.2489048
50
48.5926661
51
74.1242559
0
ARC
8
DEFAULT_255_1_388
10
7.7628959
20
5.4640607
40
0.3782845
50
73.7889321
51
86.6653996
0
ARC
8
DEFAULT_255_1_388
10
7.7513773
20
5.3282955
40
0.5145025
50
86.2642725
51
90.0533288
0
ARC
8
DEFAULT_255_1_388
10
7.7481866
20
5.3727376
40
0.4700681
50
89.669455
51
99.2313411
0
ARC
8
DEFAULT_255_1_388
10
7.7209026
20
5.5352401
40
0.3052945
50
99.0695987
51
113.7659242
0
ARC
8
DEFAULT_255_1_388
10
7.690102
20
5.6078772
40
0.226407
50
114.0402885
51
127.9848946
0
ARC
8
DEFAULT_255_1_388
10
7.6630496
20
5.6411884
40
0.1835045
50
127.7287217
51
176.7106493
0
ARC
8
DEFAULT_255_1_388
10
7.7394161
20
5.629821
40
0.2604907
50
175.1780759
51
180.0581213
0
ARC
8
DEFAULT_255_1_388
10
7.6445505
20
5.6284411
40
0.1656287
50
179.6140658
51
228.124674
0
ARC
8
DEFAULT_255_1_388
10
7.6942862
20
5.674494
40
0.2332038
50
226.5785315
51
230.8792476
0
ARC
8
DEFAULT_255_1_388
10
7.7472349
20
5.7447908
40
0.3211664
50
231.4636401
51
241.9261664
0
ARC
8
DEFAULT_255_1_388
10
7.8819132
20
5.9926349
40
0.6032345
50
241.7177136
51
248.3259138
0
ARC
8
DEFAULT_255_1_388
10
8.0377727
20
6.3787771
40
1.0196417
50
248.2007377
51
252.4527713
0
ARC
8
DEFAULT_255_1_388
10
8.1731254
20
6.7972092
40
1.4594143
50
252.3388938
51
254.347037
0
ARC
8
DEFAULT_255_1_388
10
7.3246554
20
3.7624095
40
1.6917621
50
71.0197462
51
74.4085467
0
ARC
8
DEFAULT_255_1_388
10
7.5153642
20
4.3129144
40
1.1091618
50
66.1845203
51
71.086519
0
ARC
8
DEFAULT_255_1_388
10
7.6904191
20
4.7070439
40
0.6779073
50
59.3537334
51
66.269255
0
ARC
8
DEFAULT_255_1_388
10
7.7903917
20
4.8761777
40
0.4814366
50
49.1021732
51
59.3294421
0
ARC
8
DEFAULT_255_1_388
10
7.8824905
20
4.9811575
40
0.3417875
50
32.7924183
51
49.2503526
0
ARC
8
DEFAULT_255_1_388
10
7.917452
20
5.0061311
40
0.2988789
50
31.121225
51
32.3977355
0
ARC
8
DEFAULT_255_1_388
10
7.9086698
20
5.0028728
40
0.3080861
50
8.1116803
51
30.7958224
0
ARC
8
DEFAULT_255_1_388
10
7.8175043
20
4.9873437
40
0.4005385
50
359.8390945
51
8.4707348
0
ARC
8
DEFAULT_255_1_388
10
7.8879091
20
4.9818751
40
0.3301608
50
337.4732479
51
0.7538283
0
ARC
8
DEFAULT_255_1_388
10
7.9080116
20
4.9796554
40
0.3107929
50
307.5917028
51
336.4313755
0
ARC
8
DEFAULT_255_1_388
10
7.8569174
20
5.0364509
40
0.3870096
50
307.6560665
51
308.4561779
0
ARC
8
DEFAULT_255_1_388
10
7.830339
20
5.0772832
40
0.435591
50
284.3733666
51
307.1426212
0
ARC
8
DEFAULT_255_1_388
10
7.7746284
20
5.2822391
40
0.6479685
50
272.4384566
51
284.6464689
0
ARC
8
DEFAULT_255_1_388
10
7.7603669
20
5.4846434
40
0.8508149
50
269.9708517
51
272.8180721
0
ARC
8
DEFAULT_255_1_388
10
7.7555352
20
5.2554283
40
0.6216151
50
248.2707343
51
270.4054609
0
ARC
8
DEFAULT_255_1_388
10
7.7494223
20
5.2339673
40
0.5994203
50
246.1380358
51
248.054058
0
ARC
8
DEFAULT_255_1_388
10
7.7023366
20
5.1350705
40
0.4899388
50
233.1671897
51
246.4951656
0
ARC
8
DEFAULT_255_1_388
10
7.6400001
20
5.0509137
40
0.3852115
50
215.3403381
51
233.084328
0
ARC
8
DEFAULT_255_1_388
10
7.6093365
20
5.0286093
40
0.3472969
50
179.2419235
51
215.2648426
0
ARC
8
DEFAULT_255_1_388
10
7.6956916
20
5.0301979
40
0.259251
50
179.3355796
51
199.1045873
0
ARC
8
DEFAULT_255_1_388
10
7.6583058
20
5.0204223
40
0.2207454
50
199.8830064
51
232.7061328
0
ARC
8
DEFAULT_255_1_388
10
7.7114332
20
5.0872456
40
0.306101
50
232.3736206
51
255.5136621
0
ARC
8
DEFAULT_255_1_388
10
7.7497838
20
5.2272177
40
0.4512213
50
255.2447928
51
267.5318292
0
ARC
8
DEFAULT_255_1_388
10
7.7596305
20
5.3658709
40
0.5901825
50
267.1564563
51
270.0294721
0
ARC
8
DEFAULT_255_1_388
10
7.762763
20
5.3159623
40
0.5402814
50
269.6999944
51
278.1662446
0
ARC
8
DEFAULT_255_1_388
10
7.7915658
20
5.1212974
40
0.3435003
50
278.0229022
51
290.6255326
0
ARC
8
DEFAULT_255_1_388
10
7.8306824
20
5.0169547
40
0.2320666
50
290.6616368
51
307.0374127
0
ARC
8
DEFAULT_255_1_388
10
7.8644724
20
4.975504
40
0.1786372
50
306.3942078
51
355.303191
0
ARC
8
DEFAULT_255_1_388
10
7.8069017
20
4.9841186
40
0.2367516
50
354.3662092
51
0.0709489
0
ARC
8
DEFAULT_255_1_388
10
7.8228886
20
4.9866561
40
0.2207761
50
359.4175379
51
16.1975911
0
ARC
8
DEFAULT_255_1_388
10
7.8741004
20
5.0006954
40
0.1676828
50
16.4721294
51
52.6261798
0
ARC
8
DEFAULT_255_1_388
10
7.7817512
20
4.8787606
40
0.3206412
50
52.7381828
51
62.4979144
0
ARC
8
DEFAULT_255_1_388
10
7.6259264
20
4.5855236
40
0.6527035
50
62.2517425
51
68.1219454
0
ARC
8
DEFAULT_255_1_388
10
7.4324752
20
4.1100951
40
1.1659797
50
68.006043
51
71.8055127
0
ARC
8
DEFAULT_255_1_388
10
7.230466
20
3.5042723
40
1.8045908
50
71.718361
51
73.9260743
0
LINE
8
DEFAULT_255_1_388
10
9.2589475
20
4.7883382
11
9.2589475
21
4.6519
0
LINE
8
DEFAULT_255_1_388
10
9.2589475
20
4.6519
11
8.396947
21
4.6519
0
LINE
8
DEFAULT_255_1_388
10
8.396947
20
4.6519
11
8.396947
21
4.7720741
0
LINE
8
DEFAULT_255_1_388
10
8.396947
20
4.7720741
11
8.8523435
21
5.2780702
0
LINE
8
DEFAULT_255_1_388
10
8.5388066
20
5.5798607
11
8.3716472
21
5.5798607
0
LINE
8
DEFAULT_255_1_388
10
8.950832
20
5.170546
11
8.5984419
21
4.7883382
0
LINE
8
DEFAULT_255_1_388
10
8.5984419
20
4.7883382
11
9.2589475
21
4.7883382
0
ARC
8
DEFAULT_255_1_388
10
7.3347495
20
6.6200983
40
2.0258655
50
318.5132526
51
320.7829045
0
ARC
8
DEFAULT_255_1_388
10
7.9295452
20
6.1359929
40
1.2589638
50
320.7372878
51
323.9739031
0
ARC
8
DEFAULT_255_1_388
10
8.3704383
20
5.8165554
40
0.7145141
50
323.8962701
51
328.64194
0
ARC
8
DEFAULT_255_1_388
10
8.6006641
20
5.6745545
40
0.4440242
50
328.8294576
51
331.7891185
0
ARC
8
DEFAULT_255_1_388
10
8.7128961
20
5.6166374
40
0.3177517
50
331.4254512
51
352.9365785
0
ARC
8
DEFAULT_255_1_388
10
8.7281961
20
5.613205
40
0.3021496
50
353.2257659
51
0.0166158
0
ARC
8
DEFAULT_255_1_388
10
8.7518721
20
5.6157894
40
0.2784847
50
359.486299
51
15.9343185
0
ARC
8
DEFAULT_255_1_388
10
8.8088988
20
5.6311269
40
0.2194403
50
16.1712913
51
43.5286088
0
ARC
8
DEFAULT_255_1_388
10
8.8175933
20
5.6398191
40
0.2071504
50
43.4417391
51
83.1661095
0
ARC
8
DEFAULT_255_1_388
10
8.8025094
20
5.5569316
40
0.2912888
50
82.160179
51
90.1505708
0
ARC
8
DEFAULT_255_1_388
10
8.7989576
20
5.4965279
40
0.3517025
50
89.5460741
51
102.5418361
0
ARC
8
DEFAULT_255_1_388
10
8.7716296
20
5.6124933
40
0.2325748
50
102.1738499
51
129.206123
0
ARC
8
DEFAULT_255_1_388
10
8.7627749
20
5.6264664
40
0.2161591
50
129.72865
51
135.753947
0
ARC
8
DEFAULT_255_1_388
10
8.7764231
20
5.6155728
40
0.2335433
50
136.1757367
51
166.3673339
0
ARC
8
DEFAULT_255_1_388
10
8.889692
20
5.5852148
40
0.3507873
50
165.9090694
51
178.8684636
0
ARC
8
DEFAULT_255_1_388
10
8.9872691
20
5.5799263
40
0.4484624
50
178.4391136
51
180.0083808
0
ARC
8
DEFAULT_255_1_388
10
8.8293393
20
5.5843197
40
0.4577138
50
163.2878482
51
180.5581842
0
ARC
8
DEFAULT_255_1_388
10
8.7391434
20
5.6091393
40
0.3641968
50
133.4540601
51
162.947111
0
ARC
8
DEFAULT_255_1_388
10
8.7592315
20
5.5877789
40
0.3935189
50
100.7869829
51
133.4382499
0
ARC
8
DEFAULT_255_1_388
10
8.798356
20
5.4135399
40
0.5720313
50
89.660664
51
101.3702276
0
ARC
8
DEFAULT_255_1_388
10
8.8058169
20
5.4204263
40
0.5651495
50
78.2172678
51
90.412935
0
ARC
8
DEFAULT_255_1_388
10
8.8457635
20
5.6031511
40
0.378122
50
55.9269121
51
78.4888449
0
ARC
8
DEFAULT_255_1_388
10
8.867835
20
5.6412187
40
0.3342379
50
47.929771
51
55.4049217
0
ARC
8
DEFAULT_255_1_388
10
8.8792881
20
5.6528618
40
0.3179217
50
4.334829
51
48.0560205
0
ARC
8
DEFAULT_255_1_388
10
8.7560682
20
5.6337487
40
0.442341
50
359.9251713
51
5.5971671
0
ARC
8
DEFAULT_255_1_388
10
8.8042837
20
5.6400728
40
0.3941854
50
337.8914027
51
358.9967534
0
ARC
8
DEFAULT_255_1_388
10
8.4990407
20
5.7578295
40
0.7213271
50
326.9132501
51
338.3508308
0
ARC
8
DEFAULT_255_1_388
10
8.0506519
20
6.0452105
40
1.2538973
50
319.6471833
51
327.0959558
0
ARC
8
DEFAULT_255_1_388
10
7.6193177
20
6.401005
40
1.8129975
50
317.2588228
51
319.9045804
0
LINE
8
DEFAULT_255_1_388
10
4.4755094
20
13.1044317
11
4.1655868
21
13.1044317
0
LINE
8
DEFAULT_255_1_388
10
4.1655868
20
13.1044317
11
4.1655868
21
12.5894
0
LINE
8
DEFAULT_255_1_388
10
4.1655868
20
12.5894
11
3.9921024
21
12.5894
0
LINE
8
DEFAULT_255_1_388
10
3.9921024
20
12.5894
11
3.9921024
21
13.9049898
0
LINE
8
DEFAULT_255_1_388
10
3.9921024
20
13.9049898
11
4.4773165
21
13.9049898
0
LINE
8
DEFAULT_255_1_388
10
4.1655868
20
13.7622267
11
4.1655868
21
13.2462914
0
LINE
8
DEFAULT_255_1_388
10
4.1655868
20
13.2462914
11
4.4773165
21
13.2462914
0
LINE
8
DEFAULT_255_1_388
10
4.4872557
20
13.7622267
11
4.1655868
21
13.7622267
0
ARC
8
DEFAULT_255_1_388
10
4.4820538
20
13.2233334
40
0.6816729
50
78.8380084
51
90.398184
0
ARC
8
DEFAULT_255_1_388
10
4.5288569
20
13.4506796
40
0.449571
50
58.9633273
51
79.0810717
0
ARC
8
DEFAULT_255_1_388
10
4.5627953
20
13.5136823
40
0.3781049
50
48.0194715
51
58.4475592
0
ARC
8
DEFAULT_255_1_388
10
4.5727773
20
13.5232818
40
0.3642936
50
3.3374546
51
48.1766642
0
ARC
8
DEFAULT_255_1_388
10
4.434258
20
13.5033581
40
0.5038766
50
359.9483251
51
4.6822857
0
ARC
8
DEFAULT_255_1_388
10
4.4482503
20
13.4985779
40
0.4899031
50
346.1879032
51
0.5059221
0
ARC
8
DEFAULT_255_1_388
10
4.6011295
20
13.4588763
40
0.3319729
50
310.8832219
51
346.5426612
0
ARC
8
DEFAULT_255_1_388
10
4.5664143
20
13.5057853
40
0.3901853
50
286.6925305
51
310.228778
0
ARC
8
DEFAULT_255_1_388
10
4.5023873
20
13.7071585
40
0.6014737
50
274.6848219
51
287.0247342
0
ARC
8
DEFAULT_255_1_388
10
4.4770422
20
13.9556088
40
0.8511785
50
269.8968222
51
275.0192639
0
ARC
8
DEFAULT_255_1_388
10
4.4801415
20
13.7218144
40
0.4755314
50
269.6596206
51
279.4150542
0
ARC
8
DEFAULT_255_1_388
10
4.5090873
20
13.5540945
40
0.3053379
50
279.2050006
51
294.9901776
0
ARC
8
DEFAULT_255_1_388
10
4.5417508
20
13.4812353
40
0.2255036
50
295.2886769
51
311.2912669
0
ARC
8
DEFAULT_255_1_388
10
4.5497249
20
13.4693938
40
0.2113522
50
311.7853512
51
347.2860549
0
ARC
8
DEFAULT_255_1_388
10
4.439041
20
13.497843
40
0.3256011
50
346.6891629
51
0.1057086
0
ARC
8
DEFAULT_255_1_388
10
4.346787
20
13.5011247
40
0.417863
50
359.63239
51
359.9961329
0
ARC
8
DEFAULT_255_1_388
10
4.4632475
20
13.5038987
40
0.3014155
50
359.4673371
51
15.5931159
0
ARC
8
DEFAULT_255_1_388
10
4.5335538
20
13.5228937
40
0.2285918
50
15.7441779
51
46.620186
0
ARC
8
DEFAULT_255_1_388
10
4.5169298
20
13.5037361
40
0.2539359
50
46.8628482
51
75.6676625
0
ARC
8
DEFAULT_255_1_388
10
4.4838354
20
13.3846243
40
0.3775415
50
75.2763152
51
88.2916439
0
ARC
8
DEFAULT_255_1_388
10
4.4772354
20
13.2844097
40
0.4779221
50
87.8589087
51
88.7986197
0
LINE
8
DEFAULT_255_1_388
10
5.8850699
20
13.3122516
11
5.8850699
21
13.1703919
0
LINE
8
DEFAULT_255_1_388
10
5.8850699
20
13.1703919
11
5.332992
21
13.1703919
0
LINE
8
DEFAULT_255_1_388
10
5.332992
20
13.1703919
11
5.332992
21
12.5894
0
LINE
8
DEFAULT_255_1_388
10
5.332992
20
12.5894
11
5.1595077
21
12.5894
0
LINE
8
DEFAULT_255_1_388
10
5.1595077
20
12.5894
11
5.1595077
21
13.9049898
0
LINE
8
DEFAULT_255_1_388
10
5.1595077
20
13.9049898
11
5.9745228
21
13.9049898
0
LINE
8
DEFAULT_255_1_388
10
5.9745228
20
13.9049898
11
5.9745228
21
13.7622267
0
LINE
8
DEFAULT_255_1_388
10
5.9745228
20
13.7622267
11
5.332992
21
13.7622267
0
LINE
8
DEFAULT_255_1_388
10
5.332992
20
13.7622267
11
5.332992
21
13.3122516
0
LINE
8
DEFAULT_255_1_388
10
5.332992
20
13.3122516
11
5.8850699
21
13.3122516
0
LINE
8
DEFAULT_255_1_388
10
6.6386427
20
12.5894
11
6.1823426
21
12.5894
0
LINE
8
DEFAULT_255_1_388
10
6.1823426
20
12.5894
11
6.1823426
21
13.9049898
0
LINE
8
DEFAULT_255_1_388
10
6.1823426
20
13.9049898
11
6.6124393
21
13.9049898
0
LINE
8
DEFAULT_255_1_388
10
6.6449676
20
13.2047274
11
6.355827
21
13.2047274
0
LINE
8
DEFAULT_255_1_388
10
6.355827
20
13.2047274
11
6.355827
21
12.7312596
0
LINE
8
DEFAULT_255_1_388
10
6.355827
20
12.7312596
11
6.6422569
21
12.7312596
0
LINE
8
DEFAULT_255_1_388
10
6.355827
20
13.7622267
11
6.355827
21
13.3438763
0
LINE
8
DEFAULT_255_1_388
10
6.355827
20
13.3438763
11
6.6178607
21
13.3438763
0
LINE
8
DEFAULT_255_1_388
10
6.6124393
20
13.7622267
11
6.355827
21
13.7622267
0
ARC
8
DEFAULT_255_1_388
10
6.6166813
20
13.0761824
40
0.8288183
50
82.1256322
51
90.2932506
0
ARC
8
DEFAULT_255_1_388
10
6.6604388
20
13.381959
40
0.5199321
50
69.9044202
51
82.2857574
0
ARC
8
DEFAULT_255_1_388
10
6.7246381
20
13.5554993
40
0.3348993
50
51.1840204
51
70.018125
0
ARC
8
DEFAULT_255_1_388
10
6.7533213
20
13.5971945
40
0.2844579
50
12.1018086
51
50.421322
0
ARC
8
DEFAULT_255_1_388
10
6.5976085
20
13.5580937
40
0.4449429
50
359.5252354
51
12.8212369
0
ARC
8
DEFAULT_255_1_388
10
6.7753515
20
13.5502943
40
0.2672162
50
323.4907456
51
0.8818258
0
ARC
8
DEFAULT_255_1_388
10
6.7282927
20
13.5866523
40
0.3266736
50
298.6824053
51
323.2758285
0
ARC
8
DEFAULT_255_1_388
10
6.6876219
20
13.6542509
40
0.4055105
50
293.1994739
51
299.139634
0
ARC
8
DEFAULT_255_1_388
10
6.7633168
20
12.9696651
40
0.3229926
50
54.0009997
51
74.9168635
0
ARC
8
DEFAULT_255_1_388
10
6.7764095
20
12.9918511
40
0.2973581
50
36.3578854
51
53.5293172
0
ARC
8
DEFAULT_255_1_388
10
6.7621463
20
12.981685
40
0.3148715
50
4.8189348
51
36.3090187
0
ARC
8
DEFAULT_255_1_388
10
6.6744487
20
12.9693383
40
0.4033265
50
359.9373213
51
5.5201284
0
ARC
8
DEFAULT_255_1_388
10
6.6379818
20
12.9647733
40
0.4398126
50
344.7479357
51
0.5372278
0
ARC
8
DEFAULT_255_1_388
10
6.7494716
20
12.9347205
40
0.3243441
50
311.1785587
51
344.6887681
0
ARC
8
DEFAULT_255_1_388
10
6.7166259
20
12.9756084
40
0.3767511
50
286.0417804
51
310.8440924
0
ARC
8
DEFAULT_255_1_388
10
6.6595669
20
13.1608885
40
0.5705957
50
274.1044074
51
286.4070149
0
ARC
8
DEFAULT_255_1_388
10
6.6396884
20
13.3726901
40
0.7832907
50
269.9235077
51
274.4458593
0
ARC
8
DEFAULT_255_1_388
10
6.6448602
20
13.1095462
40
0.3782955
50
269.6057074
51
281.3740795
0
ARC
8
DEFAULT_255_1_388
10
6.6708101
20
12.9865569
40
0.2526069
50
281.105298
51
302.5134029
0
ARC
8
DEFAULT_255_1_388
10
6.6873488
20
12.9568944
40
0.2187131
50
303.0365425
51
311.8818034
0
ARC
8
DEFAULT_255_1_388
10
6.6953665
20
12.9473602
40
0.2062624
50
311.9916937
51
351.7143773
0
ARC
8
DEFAULT_255_1_388
10
6.603469
20
12.9659271
40
0.2999202
50
350.7343295
51
0.2221526
0
ARC
8
DEFAULT_255_1_388
10
6.5913778
20
12.972287
40
0.3120525
50
359.045729
51
17.2295312
0
ARC
8
DEFAULT_255_1_388
10
6.7082809
20
13.0070155
40
0.1901144
50
17.6685208
51
78.9940245
0
ARC
8
DEFAULT_255_1_388
10
6.6501169
20
12.7982011
40
0.4065575
50
76.565218
51
90.7103392
0
LINE
8
DEFAULT_255_1_388
10
6.6450767
20
13.2047274
11
6.6449676
21
13.2047274
0
ARC
8
DEFAULT_255_1_388
10
6.6203995
20
13.7134949
40
0.3696273
50
269.6064514
51
281.4533785
0
ARC
8
DEFAULT_255_1_388
10
6.6454636
20
13.5952283
40
0.2487412
50
281.2044438
51
302.5143998
0
ARC
8
DEFAULT_255_1_388
10
6.660889
20
13.5674576
40
0.2170405
50
303.0211308
51
309.8378766
0
ARC
8
DEFAULT_255_1_388
10
6.6815007
20
13.5443486
40
0.1860946
50
309.5229446
51
356.9509628
0
ARC
8
DEFAULT_255_1_388
10
6.6069133
20
13.5550831
40
0.2612347
50
355.4699226
51
0.0498632
0
ARC
8
DEFAULT_255_1_388
10
6.5754807
20
13.5575789
40
0.2926762
50
359.5558955
51
11.2092924
0
ARC
8
DEFAULT_255_1_388
10
6.6831774
20
13.5798667
40
0.1827036
50
10.9185717
51
31.322519
0
ARC
8
DEFAULT_255_1_388
10
6.7153322
20
13.5977571
40
0.1459418
50
31.8850633
51
52.1415586
0
ARC
8
DEFAULT_255_1_388
10
6.6844752
20
13.5541674
40
0.1993088
50
52.8283418
51
71.9850132
0
ARC
8
DEFAULT_255_1_388
10
6.6421912
20
13.4297158
40
0.3307407
50
71.686634
51
82.8453416
0
ARC
8
DEFAULT_255_1_388
10
6.6152559
20
13.2261892
40
0.536039
50
82.6981895
51
90.1730083
0
ARC
8
DEFAULT_255_1_388
10
6.6127391
20
13.3140836
40
0.4481429
50
89.8851568
51
90.0383283
0
LINE
8
DEFAULT_255_1_388
10
8.2072306
20
13.5245892
11
8.0328426
21
13.5245892
0
LINE
8
DEFAULT_255_1_388
10
7.2539701
20
12.9707042
11
7.428358
21
12.9707042
0
ARC
8
DEFAULT_255_1_388
10
8.1069153
20
14.5309821
40
1.4087688
50
248.9196578
51
254.1442424
0
ARC
8
DEFAULT_255_1_388
10
7.9179034
20
14.0443805
40
0.8867498
50
241.6337352
51
249.0064643
0
ARC
8
DEFAULT_255_1_388
10
7.7459347
20
13.7292764
40
0.5277799
50
230.4982261
51
241.8087583
0
ARC
8
DEFAULT_255_1_388
10
7.6577118
20
13.6168686
40
0.3849419
50
227.4062979
51
229.9877433
0
ARC
8
DEFAULT_255_1_388
10
7.6028464
20
13.5633155
40
0.3084129
50
200.6782127
51
228.1765252
0
ARC
8
DEFAULT_255_1_388
10
7.6109833
20
13.5616277
40
0.315461
50
179.506278
51
199.8695278
0
ARC
8
DEFAULT_255_1_388
10
7.6099422
20
13.5699671
40
0.3144584
50
132.4834401
51
181.0242352
0
ARC
8
DEFAULT_255_1_388
10
7.6768626
20
13.5067788
40
0.4063094
50
129.2526113
51
133.4249077
0
ARC
8
DEFAULT_255_1_388
10
7.6934219
20
13.4819619
40
0.436014
50
101.9878945
51
128.8741833
0
ARC
8
DEFAULT_255_1_388
10
7.7382634
20
13.288336
40
0.6347415
50
89.5906376
51
102.3170567
0
ARC
8
DEFAULT_255_1_388
10
7.7461946
20
13.3241586
40
0.5989122
50
77.2359491
51
90.3248968
0
ARC
8
DEFAULT_255_1_388
10
7.7694877
20
13.4329554
40
0.4876594
50
63.8379856
51
77.0808925
0
ARC
8
DEFAULT_255_1_388
10
7.800741
20
13.4911882
40
0.4216191
50
45.9863127
51
64.1608798
0
ARC
8
DEFAULT_255_1_388
10
7.8300804
20
13.524699
40
0.3771394
50
32.2747934
51
45.6544796
0
ARC
8
DEFAULT_255_1_388
10
7.837561
20
13.5268426
40
0.3696765
50
359.6507495
51
32.6129943
0
ARC
8
DEFAULT_255_1_388
10
7.7314793
20
13.5273788
40
0.3013762
50
359.469654
51
14.983205
0
ARC
8
DEFAULT_255_1_388
10
7.8108045
20
13.5486288
40
0.2192542
50
14.9781954
51
48.2004799
0
ARC
8
DEFAULT_255_1_388
10
7.7923156
20
13.5253937
40
0.2489048
50
48.5926661
51
74.1242559
0
ARC
8
DEFAULT_255_1_388
10
7.7547959
20
13.4015607
40
0.3782845
50
73.7889321
51
86.6653996
0
ARC
8
DEFAULT_255_1_388
10
7.7432773
20
13.2657955
40
0.5145025
50
86.2642725
51
90.0533288
0
ARC
8
DEFAULT_255_1_388
10
7.7400866
20
13.3102376
40
0.4700681
50
89.669455
51
99.2313411
0
ARC
8
DEFAULT_255_1_388
10
7.7128026
20
13.4727401
40
0.3052945
50
99.0695987
51
113.7659242
0
ARC
8
DEFAULT_255_1_388
10
7.682002
20
13.5453772
40
0.226407
50
114.0402885
51
127.9848946
0
ARC
8
DEFAULT_255_1_388
10
7.6549496
20
13.5786884
40
0.1835045
50
127.7287217
51
176.7106493
0
ARC
8
DEFAULT_255_1_388
10
7.7313161
20
13.567321
40
0.2604907
50
175.1780759
51
180.0581213
0
ARC
8
DEFAULT_255_1_388
10
7.6364505
20
13.5659411
40
0.1656287
50
179.6140658
51
228.124674
0
ARC
8
DEFAULT_255_1_388
10
7.6861862
20
13.611994
40
0.2332038
50
226.5785315
51
230.8792476
0
ARC
8
DEFAULT_255_1_388
10
7.7391349
20
13.6822908
40
0.3211664
50
231.4636401
51
241.9261664
0
ARC
8
DEFAULT_255_1_388
10
7.8738132
20
13.9301349
40
0.6032345
50
241.7177136
51
248.3259138
0
ARC
8
DEFAULT_255_1_388
10
8.0296727
20
14.3162771
40
1.0196417
50
248.2007377
51
252.4527713
0
ARC
8
DEFAULT_255_1_388
10
8.1650254
20
14.7347092
40
1.4594143
50
252.3388938
51
254.347037
0
ARC
8
DEFAULT_255_1_388
10
7.3165554
20
11.6999095
40
1.6917621
50
71.0197462
51
74.4085467
0
ARC
8
DEFAULT_255_1_388
10
7.5072642
20
12.2504144
40
1.1091618
50
66.1845203
51
71.086519
0
ARC
8
DEFAULT_255_1_388
10
7.6823191
20
12.6445439
40
0.6779073
50
59.3537334
51
66.269255
0
ARC
8
DEFAULT_255_1_388
10
7.7822917
20
12.8136777
40
0.4814366
50
49.1021732
51
59.3294421
0
ARC
8
DEFAULT_255_1_388
10
7.8743905
20
12.9186575
40
0.3417875
50
32.7924183
51
49.2503526
0
ARC
8
DEFAULT_255_1_388
10
7.909352
20
12.9436311
40
0.2988789
50
31.121225
51
32.3977355
0
ARC
8
DEFAULT_255_1_388
10
7.9005698
20
12.9403728
40
0.3080861
50
8.1116803
51
30.7958224
0
ARC
8
DEFAULT_255_1_388
10
7.8094043
20
12.9248437
40
0.4005385
50
359.8390945
51
8.4707348
0
ARC
8
DEFAULT_255_1_388
10
7.8798091
20
12.9193751
40
0.3301608
50
337.4732479
51
0.7538283
0
ARC
8
DEFAULT_255_1_388
10
7.8999116
20
12.9171554
40
0.3107929
50
307.5917028
51
336.4313755
0
ARC
8
DEFAULT_255_1_388
10
7.8488174
20
12.9739509
40
0.3870096
50
307.6560665
51
308.4561779
0
ARC
8
DEFAULT_255_1_388
10
7.822239
20
13.0147832
40
0.435591
50
284.3733666
51
307.1426212
0
ARC
8
DEFAULT_255_1_388
10
7.7665284
20
13.2197391
40
0.6479685
50
272.4384566
51
284.6464689
0
ARC
8
DEFAULT_255_1_388
10
7.7522669
20
13.4221434
40
0.8508149
50
269.9708517
51
272.8180721
0
ARC
8
DEFAULT_255_1_388
10
7.7474352
20
13.1929283
40
0.6216151
50
248.2707343
51
270.4054609
0
ARC
8
DEFAULT_255_1_388
10
7.7413223
20
13.1714673
40
0.5994203
50
246.1380358
51
248.054058
0
ARC
8
DEFAULT_255_1_388
10
7.6942366
20
13.0725705
40
0.4899388
50
233.1671897
51
246.4951656
0
ARC
8
DEFAULT_255_1_388
10
7.6319001
20
12.9884137
40
0.3852115
50
215.3403381
51
233.084328
0
ARC
8
DEFAULT_255_1_388
10
7.6012365
20
12.9661093
40
0.3472969
50
179.2419235
51
215.2648426
0
ARC
8
DEFAULT_255_1_388
10
7.6875916
20
12.9676979
40
0.259251
50
179.3355796
51
199.1045873
0
ARC
8
DEFAULT_255_1_388
10
7.6502058
20
12.9579223
40
0.2207454
50
199.8830064
51
232.7061328
0
ARC
8
DEFAULT_255_1_388
10
7.7033332
20
13.0247456
40
0.306101
50
232.3736206
51
255.5136621
0
ARC
8
DEFAULT_255_1_388
10
7.7416838
20
13.1647177
40
0.4512213
50
255.2447928
51
267.5318292
0
ARC
8
DEFAULT_255_1_388
10
7.7515305
20
13.3033709
40
0.5901825
50
267.1564563
51
270.0294721
0
ARC
8
DEFAULT_255_1_388
10
7.754663
20
13.2534623
40
0.5402814
50
269.6999944
51
278.1662446
0
ARC
8
DEFAULT_255_1_388
10
7.7834658
20
13.0587974
40
0.3435003
50
278.0229022
51
290.6255326
0
ARC
8
DEFAULT_255_1_388
10
7.8225824
20
12.9544547
40
0.2320666
50
290.6616368
51
307.0374127
0
ARC
8
DEFAULT_255_1_388
10
7.8563724
20
12.913004
40
0.1786372
50
306.3942078
51
355.303191
0
ARC
8
DEFAULT_255_1_388
10
7.7988017
20
12.9216186
40
0.2367516
50
354.3662092
51
0.0709489
0
ARC
8
DEFAULT_255_1_388
10
7.8147886
20
12.9241561
40
0.2207761
50
359.4175379
51
16.1975911
0
ARC
8
DEFAULT_255_1_388
10
7.8660004
20
12.9381954
40
0.1676828
50
16.4721294
51
52.6261798
0
ARC
8
DEFAULT_255_1_388
10
7.7736512
20
12.8162606
40
0.3206412
50
52.7381828
51
62.4979144
0
ARC
8
DEFAULT_255_1_388
10
7.6178264
20
12.5230236
40
0.6527035
50
62.2517425
51
68.1219454
0
ARC
8
DEFAULT_255_1_388
10
7.4243752
20
12.0475951
40
1.1659797
50
68.006043
51
71.8055127
0
ARC
8
DEFAULT_255_1_388
10
7.222366
20
11.4417723
40
1.8045908
50
71.718361
51
73.9260743
0
LINE
8
DEFAULT_255_1_388
10
8.9382142
20
13.9113148
11
8.9382142
21
12.5894
0
LINE
8
DEFAULT_255_1_388
10
8.9382142
20
12.5894
11
8.7701512
21
12.5894
0
LINE
8
DEFAULT_255_1_388
10
8.7701512
20
12.5894
11
8.7701512
21
13.703495
0
LINE
8
DEFAULT_255_1_388
10
8.7701512
20
13.703495
11
8.4331217
21
13.5797066
0
LINE
8
DEFAULT_255_1_388
10
8.4331217
20
13.5797066
11
8.4331217
21
13.7315055
0
LINE
8
DEFAULT_255_1_388
10
8.4331217
20
13.7315055
11
8.9120108
21
13.9113148
0
LINE
8
DEFAULT_255_1_388
10
8.9120108
20
13.9113148
11
8.9382142
21
13.9113148
0
LINE
8
DEFAULT_255_1_388
10
23.1196856
20
21.304869
11
23.1196856
21
21.0880135
0
LINE
8
DEFAULT_255_1_388
10
22.2893099
20
21.0654244
11
22.2893099
21
21.2886048
0
LINE
8
DEFAULT_255_1_388
10
22.9525262
20
21.0428353
11
22.9525262
21
21.3166153
0
LINE
8
DEFAULT_255_1_388
10
22.4564693
20
21.3292652
11
22.4564693
21
21.0618102
0
ARC
8
DEFAULT_255_1_388
10
21.741919
20
21.0825118
40
1.3777776
50
353.8440855
51
0.2287917
0
ARC
8
DEFAULT_255_1_388
10
22.2638208
20
21.0242414
40
0.852639
50
344.4934746
51
353.9763743
0
ARC
8
DEFAULT_255_1_388
10
22.6005015
20
20.9285191
40
0.5026273
50
329.2803599
51
344.7473406
0
ARC
8
DEFAULT_255_1_388
10
22.7120511
20
20.8673038
40
0.3754848
50
324.9361395
51
328.6153007
0
ARC
8
DEFAULT_255_1_388
10
22.7546161
20
20.8375586
40
0.3235566
50
280.5801797
51
324.9173226
0
ARC
8
DEFAULT_255_1_388
10
22.7094789
20
21.0255236
40
0.5167077
50
269.5979457
51
281.6732777
0
ARC
8
DEFAULT_255_1_388
10
22.7013693
20
21.0120113
40
0.5032026
50
256.6228565
51
270.5105488
0
ARC
8
DEFAULT_255_1_388
10
22.6561435
20
20.8378345
40
0.3233092
50
215.8618351
51
257.2787793
0
ARC
8
DEFAULT_255_1_388
10
22.7710142
20
20.9149106
40
0.4615831
50
197.9695203
51
215.2622745
0
ARC
8
DEFAULT_255_1_388
10
23.0505818
20
21.0092641
40
0.7566307
50
187.8816486
51
198.2346584
0
ARC
8
DEFAULT_255_1_388
10
23.4959056
20
21.0735453
40
1.2065653
50
180.8977266
51
188.0054894
0
ARC
8
DEFAULT_255_1_388
10
23.800927
20
21.08504
40
1.5117443
50
180.7434591
51
181.152202
0
ARC
8
DEFAULT_255_1_388
10
23.6334266
20
21.2940371
40
1.3441277
50
173.7674302
51
180.2315596
0
ARC
8
DEFAULT_255_1_388
10
23.1252135
20
21.3514779
40
0.8326847
50
164.3058537
51
173.9000553
0
ARC
8
DEFAULT_255_1_388
10
22.7976135
20
21.4458652
40
0.4917711
50
148.7922028
51
164.5682288
0
ARC
8
DEFAULT_255_1_388
10
22.6906872
20
21.5055457
40
0.3694204
50
144.5883979
51
148.1161588
0
ARC
8
DEFAULT_255_1_388
10
22.6519618
20
21.5325667
40
0.322202
50
101.6440149
51
144.5142619
0
ARC
8
DEFAULT_255_1_388
10
22.699781
20
21.3425337
40
0.5180451
50
89.528284
51
102.5820197
0
ARC
8
DEFAULT_255_1_388
10
22.7086802
20
21.3381376
40
0.5224441
50
77.0437914
51
90.508231
0
ARC
8
DEFAULT_255_1_388
10
22.7539055
20
21.5229272
40
0.3322297
50
48.2777708
51
77.4996087
0
ARC
8
DEFAULT_255_1_388
10
22.7620795
20
21.5374557
40
0.315966
50
36.3141586
51
47.6307332
0
ARC
8
DEFAULT_255_1_388
10
22.6643518
20
21.4716159
40
0.4337313
50
18.2931065
51
35.6770203
0
ARC
8
DEFAULT_255_1_388
10
22.3782358
20
21.3734107
40
0.7362203
50
8.0246996
51
18.5605636
0
ARC
8
DEFAULT_255_1_388
10
21.9098714
20
21.3042432
40
1.2096583
50
1.127539
51
8.1718423
0
ARC
8
DEFAULT_255_1_388
10
21.5449847
20
21.2899374
40
1.5747719
50
0.5432713
51
1.38669
0
ARC
8
DEFAULT_255_1_388
10
21.7507226
20
21.3206163
40
1.2018103
50
359.8092569
51
4.9408001
0
ARC
8
DEFAULT_255_1_388
10
22.2243807
20
21.36289
40
0.7262727
50
4.8364937
51
12.2906017
0
ARC
8
DEFAULT_255_1_388
10
22.5343272
20
21.4319485
40
0.4087324
50
12.0806994
51
23.8171225
0
ARC
8
DEFAULT_255_1_388
10
22.6663668
20
21.4878508
40
0.2653719
50
24.2874621
51
31.3934353
0
ARC
8
DEFAULT_255_1_388
10
22.7254104
20
21.5264822
40
0.1948607
50
30.7407708
51
82.4658033
0
ARC
8
DEFAULT_255_1_388
10
22.7051765
20
21.4271017
40
0.2961198
50
81.1057101
51
90.2187368
0
ARC
8
DEFAULT_255_1_388
10
22.7011577
20
21.4561421
40
0.2670929
50
89.380395
51
105.6763916
0
ARC
8
DEFAULT_255_1_388
10
22.6805299
20
21.531132
40
0.1893189
50
105.7980655
51
149.7387869
0
ARC
8
DEFAULT_255_1_388
10
22.8002439
20
21.4591719
40
0.3289892
50
149.4208441
51
163.628295
0
ARC
8
DEFAULT_255_1_388
10
23.0354668
20
21.3874345
40
0.5749004
50
163.3764549
51
172.141138
0
ARC
8
DEFAULT_255_1_388
10
23.406739
20
21.3342582
40
0.9499585
50
172.0258462
51
178.0705453
0
ARC
8
DEFAULT_255_1_388
10
23.7488943
20
21.3180682
40
1.2924734
50
177.8639301
51
179.5036263
0
ARC
8
DEFAULT_255_1_388
10
23.6269961
20
21.0577151
40
1.170534
50
179.7995545
51
185.246089
0
ARC
8
DEFAULT_255_1_388
10
23.1721554
20
21.0146404
40
0.7136613
50
185.1411911
51
193.0082205
0
ARC
8
DEFAULT_255_1_388
10
22.8747815
20
20.9443441
40
0.4080987
50
192.7897338
51
205.2507384
0
ARC
8
DEFAULT_255_1_388
10
22.7570025
20
20.8917538
40
0.2791522
50
205.8001921
51
211.2545876
0
ARC
8
DEFAULT_255_1_388
10
22.6981564
20
20.8523132
40
0.2084074
50
210.3789935
51
238.4007996
0
ARC
8
DEFAULT_255_1_388
10
22.695965
20
20.8575786
40
0.2117943
50
239.6521916
51
265.9793852
0
ARC
8
DEFAULT_255_1_388
10
22.7055499
20
20.9332358
40
0.2879689
50
265.1324455
51
270.0603288
0
ARC
8
DEFAULT_255_1_388
10
22.7087876
20
20.8967418
40
0.2514919
50
269.3314378
51
287.2180039
0
ARC
8
DEFAULT_255_1_388
10
22.7242958
20
20.8401291
40
0.1928357
50
287.7957942
51
329.0808983
0
ARC
8
DEFAULT_255_1_388
10
22.6165715
20
20.9073651
40
0.319808
50
328.6635261
51
343.3325043
0
ARC
8
DEFAULT_255_1_388
10
22.3721174
20
20.9835195
40
0.5758408
50
343.0498092
51
351.9392499
0
ARC
8
DEFAULT_255_1_388
10
21.9820496
20
21.0410205
40
0.9701202
50
351.8071632
51
357.7957897
0
ARC
8
DEFAULT_255_1_388
10
21.6185973
20
21.0598724
40
1.3340376
50
357.5870923
51
359.2682493
0
LINE
8
DEFAULT_255_1_388
10
23.4386439
20
21.8424898
11
23.8127196
21
20.7573089
0
LINE
8
DEFAULT_255_1_388
10
23.8127196
20
20.7573089
11
24.1886024
21
21.8424898
0
LINE
8
DEFAULT_255_1_388
10
24.1886024
20
21.8424898
11
24.3783509
21
21.8424898
0
LINE
8
DEFAULT_255_1_388
10
24.3783509
20
21.8424898
11
23.8904261
21
20.5269
0
LINE
8
DEFAULT_255_1_388
10
23.8904261
20
20.5269
11
23.7368202
21
20.5269
0
LINE
8
DEFAULT_255_1_388
10
23.7368202
20
20.5269
11
23.2497989
21
21.8424898
0
LINE
8
DEFAULT_255_1_388
10
23.2497989
20
21.8424898
11
23.4386439
21
21.8424898
0
ENDSEC
0
EOF