0
SECTION
2
HEADER
9
$MEASUREMENT
70
1
0
ENDSEC
0
SECTION
2
TABLES
0
TABLE
2
LTYPE
0
LTYPE
72
65
70
64
2
CONTINUOUS
3
______
73
0
40
0
0
ENDTAB
0
TABLE
2
LAYER
0
LAYER
2
DEFAULT_255_2_778
70
0
62
255
6
CONTINUOUS
0
LAYER
2
DEFAULT_255_1_388
70
0
62
255
6
CONTINUOUS
0
ENDTAB
0
ENDSEC
0
SECTION
2
ENTITIES
0
ARC
8
DEFAULT_255_2_778
10
3.5700693
20
28.1802037
40
0.7914215
50
129.1312896
51
180.1450914
0
ARC
8
DEFAULT_255_2_778
10
3.5703345
20
28.1806908
40
0.7912112
50
89.854026
51
129.1684493
0
ARC
8
DEFAULT_255_2_778
10
25.7993937
20
28.1803773
40
0.7915249
50
39.4792447
51
90.147911
0
ARC
8
DEFAULT_255_2_778
10
25.7999935
20
28.180224
40
0.7911595
50
359.8533901
51
39.5154338
0
ARC
8
DEFAULT_255_2_778
10
25.7996693
20
-1.9863486
40
0.7914836
50
309.4761667
51
0.1482649
0
ARC
8
DEFAULT_255_2_778
10
25.799398
20
-1.9867797
40
0.7913235
50
269.8517415
51
309.511178
0
ARC
8
DEFAULT_255_2_778
10
3.570342
20
-1.9867215
40
0.7913815
50
219.1282118
51
270.1454017
0
ARC
8
DEFAULT_255_2_778
10
3.5700247
20
-1.986339
40
0.7913769
50
179.8524075
51
219.1641908
0
LINE
8
DEFAULT_255_2_778
10
3.5723503
20
28.9718996
11
25.7973503
21
28.9718996
0
LINE
8
DEFAULT_255_2_778
10
26.5911503
20
28.1781996
11
26.5911503
21
-1.9843004
0
LINE
8
DEFAULT_255_2_778
10
25.7973503
20
-2.7781004
11
3.5723503
21
-2.7781004
0
LINE
8
DEFAULT_255_2_778
10
2.7786503
20
-1.9843004
11
2.7786503
21
28.1781996
0
LINE
8
DEFAULT_255_1_388
10
8.321132
20
-0.2223532
11
8.4955199
21
-0.2223532
0
LINE
8
DEFAULT_255_1_388
10
7.4826242
20
-0.0434475
11
7.4826242
21
0.0830516
0
LINE
8
DEFAULT_255_1_388
10
8.4955199
20
0.2529217
11
8.321132
21
0.2529217
0
LINE
8
DEFAULT_255_1_388
10
7.6570121
20
0.0785337
11
7.6570121
21
-0.0488688
0
ARC
8
DEFAULT_255_1_388
10
7.8789433
20
-0.1551671
40
0.6202263
50
340.1774904
51
353.7812217
0
ARC
8
DEFAULT_255_1_388
10
8.0557286
20
-0.2210107
40
0.4315926
50
311.4560052
51
340.4420756
0
ARC
8
DEFAULT_255_1_388
10
8.0519826
20
-0.2085335
40
0.4434573
50
282.4332229
51
310.7514507
0
ARC
8
DEFAULT_255_1_388
10
8.0025644
20
-0.0043297
40
0.6535262
50
269.9358869
51
282.8096729
0
ARC
8
DEFAULT_255_1_388
10
7.9967583
20
0.1469329
40
0.8048043
50
269.9995752
51
270.3612856
0
ARC
8
DEFAULT_255_1_388
10
7.9908073
20
-0.1329219
40
0.5249831
50
250.7885263
51
270.6488451
0
ARC
8
DEFAULT_255_1_388
10
7.9718898
20
-0.2046147
40
0.4510942
50
219.3628377
51
250.0611024
0
ARC
8
DEFAULT_255_1_388
10
8.0651772
20
-0.1253347
40
0.5735046
50
193.5480293
51
219.5755675
0
ARC
8
DEFAULT_255_1_388
10
8.3319981
20
-0.056048
40
0.849146
50
181.1220183
51
193.8754971
0
ARC
8
DEFAULT_255_1_388
10
8.5643214
20
-0.0436086
40
1.0816971
50
179.9914644
51
181.5398227
0
ARC
8
DEFAULT_255_1_388
10
8.3566525
20
0.0872586
40
0.8740384
50
169.5837606
51
180.275782
0
ARC
8
DEFAULT_255_1_388
10
8.1499873
20
0.1254439
40
0.6638751
50
155.0367033
51
169.6002779
0
ARC
8
DEFAULT_255_1_388
10
8.0222331
20
0.1870336
40
0.5220662
50
136.7831557
51
155.2472983
0
ARC
8
DEFAULT_255_1_388
10
7.9784122
20
0.2242577
40
0.4646502
50
121.7633063
51
136.4281161
0
ARC
8
DEFAULT_255_1_388
10
7.9935962
20
0.1962049
40
0.4964979
50
95.6460018
51
121.5489589
0
ARC
8
DEFAULT_255_1_388
10
8.0112936
20
0.0714704
40
0.6223912
50
89.9245727
51
96.1375919
0
ARC
8
DEFAULT_255_1_388
10
8.0169641
20
0.0848721
40
0.6090084
50
76.6779212
51
90.456405
0
ARC
8
DEFAULT_255_1_388
10
8.0612454
20
0.263806
40
0.42469
50
47.4858803
51
76.9287069
0
ARC
8
DEFAULT_255_1_388
10
8.0447068
20
0.2525623
40
0.4441778
50
16.5424081
51
46.8934505
0
ARC
8
DEFAULT_255_1_388
10
7.8638118
20
0.1931265
40
0.6345318
50
5.4072971
51
17.0363711
0
ARC
8
DEFAULT_255_1_388
10
7.7019843
20
0.1671304
40
0.6250632
50
7.8888693
51
15.9242022
0
ARC
8
DEFAULT_255_1_388
10
7.9254828
20
0.2320309
40
0.3923364
50
15.7650676
51
27.9410069
0
ARC
8
DEFAULT_255_1_388
10
8.0496997
20
0.2985317
40
0.2514401
50
27.8167196
51
46.4007942
0
ARC
8
DEFAULT_255_1_388
10
8.0552839
20
0.2978882
40
0.2480958
50
47.4372362
51
75.0695672
0
ARC
8
DEFAULT_255_1_388
10
8.0205675
20
0.1770277
40
0.3738281
50
74.7009379
51
87.8124314
0
ARC
8
DEFAULT_255_1_388
10
8.0123292
20
0.0586659
40
0.4924321
50
87.3802571
51
90.0251599
0
ARC
8
DEFAULT_255_1_388
10
8.0079939
20
0.1906997
40
0.3604218
50
89.3451886
51
108.5744412
0
ARC
8
DEFAULT_255_1_388
10
7.9925931
20
0.2484836
40
0.3007661
50
109.2998307
51
143.3037387
0
ARC
8
DEFAULT_255_1_388
10
8.0783221
20
0.1825584
40
0.4089031
50
143.075267
51
163.1918576
0
ARC
8
DEFAULT_255_1_388
10
8.2979055
20
0.1132652
40
0.6391492
50
162.9375929
51
174.6208776
0
ARC
8
DEFAULT_255_1_388
10
8.5933437
20
0.0808711
40
0.9363344
50
174.342123
51
180.1430283
0
ARC
8
DEFAULT_255_1_388
10
8.4885978
20
-0.0534883
40
0.8315986
50
179.6817261
51
189.150555
0
ARC
8
DEFAULT_255_1_388
10
8.2072727
20
-0.1003441
40
0.5464044
50
188.9911061
51
203.5772363
0
ARC
8
DEFAULT_255_1_388
10
8.0858019
20
-0.1507461
40
0.4149206
50
203.9075402
51
215.1312435
0
ARC
8
DEFAULT_255_1_388
10
7.9819817
20
-0.2312093
40
0.2837747
50
213.9071511
51
263.8848919
0
ARC
8
DEFAULT_255_1_388
10
7.996081
20
-0.1429481
40
0.3730641
50
263.1757928
51
270.1031044
0
ARC
8
DEFAULT_255_1_388
10
7.999689
20
-0.0026489
40
0.5133712
50
269.6722503
51
279.0606936
0
ARC
8
DEFAULT_255_1_388
10
8.0297045
20
-0.184085
40
0.3294739
50
278.8749101
51
293.6349581
0
ARC
8
DEFAULT_255_1_388
10
8.0657249
20
-0.2686749
40
0.2375405
50
293.8553806
51
310.0518171
0
ARC
8
DEFAULT_255_1_388
10
8.0662758
20
-0.2756979
40
0.2318463
50
311.0644687
51
332.0111037
0
ARC
8
DEFAULT_255_1_388
10
7.9321431
20
-0.2017298
40
0.3850112
50
331.6586806
51
343.2877423
0
ARC
8
DEFAULT_255_1_388
10
7.7000896
20
-0.1304194
40
0.6277712
50
343.1446576
51
351.0103568
0
ARC
8
DEFAULT_255_1_388
10
7.536822
20
-0.1004127
40
0.7937327
50
350.71248
51
351.1626997
0
LINE
8
DEFAULT_255_1_388
10
8.7322538
20
0.6757898
11
8.9563378
21
0.6757898
0
LINE
8
DEFAULT_255_1_388
10
8.9563378
20
0.6757898
11
9.3864345
21
-0.3976447
0
LINE
8
DEFAULT_255_1_388
10
9.3864345
20
-0.3976447
11
9.8165312
21
0.6757898
0
LINE
8
DEFAULT_255_1_388
10
9.8165312
20
0.6757898
11
10.0415187
21
0.6757898
0
LINE
8
DEFAULT_255_1_388
10
10.0415187
20
0.6757898
11
10.0415187
21
-0.6398
0
LINE
8
DEFAULT_255_1_388
10
10.0415187
20
-0.6398
11
9.8680343
21
-0.6398
0
LINE
8
DEFAULT_255_1_388
10
9.8680343
20
-0.6398
11
9.8680343
21
-0.127479
0
LINE
8
DEFAULT_255_1_388
10
9.8680343
20
-0.127479
11
9.8842985
21
0.4255025
0
LINE
8
DEFAULT_255_1_388
10
9.8842985
20
0.4255025
11
9.4523947
21
-0.6398
0
LINE
8
DEFAULT_255_1_388
10
9.4523947
20
-0.6398
11
9.3195707
21
-0.6398
0
LINE
8
DEFAULT_255_1_388
10
9.3195707
20
-0.6398
11
8.8885705
21
0.4227918
0
LINE
8
DEFAULT_255_1_388
10
8.8885705
20
0.4227918
11
8.9057382
21
-0.127479
0
LINE
8
DEFAULT_255_1_388
10
8.9057382
20
-0.127479
11
8.9057382
21
-0.6398
0
LINE
8
DEFAULT_255_1_388
10
8.9057382
20
-0.6398
11
8.7322538
21
-0.6398
0
LINE
8
DEFAULT_255_1_388
10
8.7322538
20
-0.6398
11
8.7322538
21
0.6757898
0
LINE
8
DEFAULT_255_1_388
10
10.5149865
20
-0.0145334
11
10.3812589
21
0.0198021
0
LINE
8
DEFAULT_255_1_388
10
10.3812589
20
0.0198021
11
10.4481227
21
0.6757898
0
LINE
8
DEFAULT_255_1_388
10
10.4481227
20
0.6757898
11
11.1221818
21
0.6757898
0
LINE
8
DEFAULT_255_1_388
10
11.1221818
20
0.6757898
11
11.1221818
21
0.5212803
0
LINE
8
DEFAULT_255_1_388
10
11.1221818
20
0.5212803
11
10.5899823
21
0.5212803
0
LINE
8
DEFAULT_255_1_388
10
10.5899823
20
0.5212803
11
10.5502255
21
0.1625652
0
LINE
8
DEFAULT_255_1_388
10
10.3342736
20
-0.2937348
11
10.4923974
21
-0.2937348
0
LINE
8
DEFAULT_255_1_388
10
10.5592611
20
0.0216092
11
10.5149865
21
-0.0145334
0
ARC
8
DEFAULT_255_1_388
10
10.7588868
20
-0.1951759
40
0.4141476
50
93.7181681
51
120.253934
0
ARC
8
DEFAULT_255_1_388
10
10.7694921
20
-0.2860716
40
0.5055616
50
89.9660471
51
94.2495185
0
ARC
8
DEFAULT_255_1_388
10
10.7740742
20
-0.2197846
40
0.4392953
50
73.8045384
51
90.5585736
0
ARC
8
DEFAULT_255_1_388
10
10.8005
20
-0.123248
40
0.3392225
50
41.3071072
51
73.543002
0
ARC
8
DEFAULT_255_1_388
10
10.753682
20
-0.1635539
40
0.4009977
50
13.5075837
51
41.2174839
0
ARC
8
DEFAULT_255_1_388
10
10.5689918
20
-0.2119093
40
0.5918864
50
1.1330171
51
13.8830737
0
ARC
8
DEFAULT_255_1_388
10
10.4093563
20
-0.2204478
40
0.7516787
50
359.9925091
51
1.5431298
0
ARC
8
DEFAULT_255_1_388
10
10.5538178
20
-0.2250973
40
0.6072343
50
347.8572712
51
0.4294349
0
ARC
8
DEFAULT_255_1_388
10
10.7507313
20
-0.2697102
40
0.4053482
50
323.6727442
51
348.1674594
0
ARC
8
DEFAULT_255_1_388
10
10.7838278
20
-0.2898825
40
0.3667495
50
316.8171818
51
323.1486802
0
ARC
8
DEFAULT_255_1_388
10
10.7907401
20
-0.2940388
40
0.358869
50
281.839603
51
316.5458142
0
ARC
8
DEFAULT_255_1_388
10
10.7484689
20
-0.1190637
40
0.5388223
50
269.5770964
51
282.4214641
0
ARC
8
DEFAULT_255_1_388
10
10.740461
20
-0.143107
40
0.5147801
50
256.2425863
51
270.4486481
0
ARC
8
DEFAULT_255_1_388
10
10.7068137
20
-0.2780876
40
0.3756708
50
228.9024379
51
256.33135
0
ARC
8
DEFAULT_255_1_388
10
10.6985118
20
-0.2911946
40
0.360344
50
193.7536029
51
228.5272638
0
ARC
8
DEFAULT_255_1_388
10
10.8377683
20
-0.2503537
40
0.5053599
50
184.9244437
51
194.4976052
0
ARC
8
DEFAULT_255_1_388
10
10.8594324
20
-0.2463278
40
0.3700839
50
187.3596909
51
198.6733728
0
ARC
8
DEFAULT_255_1_388
10
10.7413567
20
-0.2872627
40
0.2451195
50
198.4453795
51
217.7945479
0
ARC
8
DEFAULT_255_1_388
10
10.708074
20
-0.3108437
40
0.2043754
50
218.2887146
51
228.5613203
0
ARC
8
DEFAULT_255_1_388
10
10.7190747
20
-0.2960098
40
0.2227819
50
228.9652423
51
258.1237049
0
ARC
8
DEFAULT_255_1_388
10
10.7422184
20
-0.1969036
40
0.3245374
50
257.7260585
51
270.4013717
0
ARC
8
DEFAULT_255_1_388
10
10.7472682
20
-0.2469745
40
0.2744726
50
269.4204315
51
286.420998
0
ARC
8
DEFAULT_255_1_388
10
10.7639738
20
-0.3076295
40
0.2115721
50
286.7250065
51
320.6004665
0
ARC
8
DEFAULT_255_1_388
10
10.7208653
20
-0.2726473
40
0.2670878
50
320.6712228
51
344.5440474
0
ARC
8
DEFAULT_255_1_388
10
10.5907367
20
-0.2344606
40
0.4026927
50
344.241448
51
356.735803
0
ARC
8
DEFAULT_255_1_388
10
10.4503674
20
-0.2228344
40
0.5435085
50
356.3547471
51
0.0507222
0
ARC
8
DEFAULT_255_1_388
10
10.6005939
20
-0.2193188
40
0.3932934
50
359.5579289
51
12.9534322
0
ARC
8
DEFAULT_255_1_388
10
10.7192779
20
-0.1905414
40
0.2711827
50
12.6489751
51
41.608121
0
ARC
8
DEFAULT_255_1_388
10
10.7451939
20
-0.1685054
40
0.2371737
50
41.7851122
51
85.9892156
0
ARC
8
DEFAULT_255_1_388
10
10.7313249
20
-0.2600262
40
0.3295244
50
84.6965848
51
90.0672125
0
ARC
8
DEFAULT_255_1_388
10
10.7286817
20
-0.3351882
40
0.4046926
50
89.6804991
51
99.161352
0
ARC
8
DEFAULT_255_1_388
10
10.7055826
20
-0.1971152
40
0.2647044
50
98.9836248
51
113.8905702
0
ARC
8
DEFAULT_255_1_388
10
10.6797501
20
-0.1361882
40
0.1985386
50
114.195234
51
127.3641866
0
LINE
8
DEFAULT_255_1_388
10
12.1929057
20
0.6757898
11
12.1929057
21
0.5818191
0
LINE
8
DEFAULT_255_1_388
10
12.1929057
20
0.5818191
11
11.6480563
21
-0.6398
0
LINE
8
DEFAULT_255_1_388
10
11.6480563
20
-0.6398
11
11.4727648
21
-0.6398
0
LINE
8
DEFAULT_255_1_388
10
11.4727648
20
-0.6398
11
12.015807
21
0.538448
0
LINE
8
DEFAULT_255_1_388
10
12.015807
20
0.538448
11
11.3037982
21
0.538448
0
LINE
8
DEFAULT_255_1_388
10
11.3037982
20
0.538448
11
11.3037982
21
0.6757898
0
LINE
8
DEFAULT_255_1_388
10
11.3037982
20
0.6757898
11
12.1929057
21
0.6757898
0
LINE
8
DEFAULT_255_1_388
10
13.1913444
20
0.1499153
11
13.1913444
21
0.1011229
0
LINE
8
DEFAULT_255_1_388
10
12.5814384
20
-0.6407036
11
12.5489101
21
-0.6407036
0
LINE
8
DEFAULT_255_1_388
10
12.5489101
20
-0.6407036
11
12.5489101
21
-0.4997475
0
LINE
8
DEFAULT_255_1_388
10
12.5489101
20
-0.4997475
11
12.5841491
21
-0.4997475
0
LINE
8
DEFAULT_255_1_388
10
13.024185
20
0.117387
11
13.024185
21
0.1842508
0
ARC
8
DEFAULT_255_1_388
10
12.7098942
20
0.2012877
40
0.4089973
50
297.4036461
51
320.0168133
0
ARC
8
DEFAULT_255_1_388
10
12.7425122
20
0.1386072
40
0.3383378
50
270.2631886
51
297.3852322
0
ARC
8
DEFAULT_255_1_388
10
12.7386798
20
0.1923343
40
0.3920983
50
269.9969069
51
270.7871389
0
ARC
8
DEFAULT_255_1_388
10
12.7358121
20
0.1905737
40
0.3903482
50
254.5997295
51
270.4178147
0
ARC
8
DEFAULT_255_1_388
10
12.7197653
20
0.1270693
40
0.3248657
50
236.4717231
51
254.3539376
0
ARC
8
DEFAULT_255_1_388
10
12.7373384
20
0.1506999
40
0.3542746
50
208.4727261
51
236.2134628
0
ARC
8
DEFAULT_255_1_388
10
12.8092148
20
0.1946676
40
0.4384402
50
204.3450776
51
209.0455365
0
ARC
8
DEFAULT_255_1_388
10
12.8856524
20
0.22708
40
0.5214459
50
183.9375459
51
204.1275509
0
ARC
8
DEFAULT_255_1_388
10
12.987883
20
0.2380863
40
0.6242037
50
179.9652726
51
184.3010611
0
ARC
8
DEFAULT_255_1_388
10
12.9608375
20
0.2418004
40
0.5971675
50
166.7585952
51
180.3200491
0
ARC
8
DEFAULT_255_1_388
10
12.8656183
20
0.2624979
40
0.4997418
50
154.6954866
51
166.5679151
0
ARC
8
DEFAULT_255_1_388
10
12.7696423
20
0.3108411
40
0.3923208
50
136.3325251
51
155.0871367
0
ARC
8
DEFAULT_255_1_388
10
12.7380343
20
0.3379271
40
0.3507618
50
121.2365985
51
135.9680081
0
ARC
8
DEFAULT_255_1_388
10
12.7538407
20
0.3086541
40
0.3839917
50
96.8454764
51
120.9881329
0
ARC
8
DEFAULT_255_1_388
10
12.7702213
20
0.2033942
40
0.4904679
50
89.887204
51
97.2797758
0
ARC
8
DEFAULT_255_1_388
10
12.7761186
20
0.2751652
40
0.418725
50
70.6505767
51
90.6748382
0
ARC
8
DEFAULT_255_1_388
10
12.7908883
20
0.3329091
40
0.3593866
50
36.7493297
51
69.8220487
0
ARC
8
DEFAULT_255_1_388
10
12.678523
20
0.2453446
40
0.5018201
50
15.3958155
51
37.0841102
0
ARC
8
DEFAULT_255_1_388
10
12.4389515
20
0.1755111
40
0.7513436
50
3.9487796
51
15.6798517
0
ARC
8
DEFAULT_255_1_388
10
12.1688157
20
0.151181
40
1.0225293
50
359.9290791
51
4.266464
0
ARC
8
DEFAULT_255_1_388
10
11.6507074
20
0.0936372
40
1.5406551
50
352.8365702
51
0.2783851
0
ARC
8
DEFAULT_255_1_388
10
12.2455305
20
0.0163664
40
0.9408425
50
341.8359339
51
352.9884057
0
ARC
8
DEFAULT_255_1_388
10
12.6076292
20
-0.1056856
40
0.5587481
50
322.8579243
51
342.1527461
0
ARC
8
DEFAULT_255_1_388
10
12.7047984
20
-0.171965
40
0.4413099
50
319.3348471
51
322.100194
0
ARC
8
DEFAULT_255_1_388
10
12.6699916
20
-0.1370186
40
0.4904992
50
285.954114
51
318.8878716
0
ARC
8
DEFAULT_255_1_388
10
12.5882353
20
0.1228865
40
0.7628991
50
272.9280841
51
286.4924389
0
ARC
8
DEFAULT_255_1_388
10
12.5668657
20
0.376324
40
1.017132
50
270.8209173
51
273.4010121
0
ARC
8
DEFAULT_255_1_388
10
12.576868
20
0.1715073
40
0.6712943
50
270.6214576
51
281.4062333
0
ARC
8
DEFAULT_255_1_388
10
12.6252405
20
-0.059775
40
0.4350167
50
281.1852583
51
299.0622058
0
ARC
8
DEFAULT_255_1_388
10
12.667265
20
-0.1408862
40
0.3437146
50
299.5068171
51
313.1200142
0
ARC
8
DEFAULT_255_1_388
10
12.6697387
20
-0.1498041
40
0.3355418
50
313.8525725
51
338.5989631
0
ARC
8
DEFAULT_255_1_388
10
12.4870515
20
-0.0747424
40
0.5330317
50
338.2523315
51
351.2431701
0
ARC
8
DEFAULT_255_1_388
10
12.2158266
20
-0.0286506
40
0.8081235
50
350.940933
51
357.6690137
0
ARC
8
DEFAULT_255_1_388
10
12.7660146
20
0.1966048
40
0.2581236
50
269.9447107
51
306.8249644
0
ARC
8
DEFAULT_255_1_388
10
12.7393448
20
0.244206
40
0.3122948
50
305.5071046
51
327.0773808
0
ARC
8
DEFAULT_255_1_388
10
12.75265
20
0.2335445
40
0.2953369
50
327.4106457
51
336.8396801
0
ARC
8
DEFAULT_255_1_388
10
12.4046213
20
0.1878932
40
0.6195743
50
359.663158
51
10.1176387
0
ARC
8
DEFAULT_255_1_388
10
12.6018976
20
0.2243922
40
0.4189561
50
9.9431549
51
26.7699242
0
ARC
8
DEFAULT_255_1_388
10
12.6690962
20
0.2553796
40
0.3450125
50
27.2018067
51
34.6833639
0
ARC
8
DEFAULT_255_1_388
10
12.7241575
20
0.296756
40
0.2762035
50
34.124913
51
50.30709
0
ARC
8
DEFAULT_255_1_388
10
12.7744058
20
0.3568741
40
0.1978518
50
50.3850304
51
90.6705051
0
ARC
8
DEFAULT_255_1_388
10
12.7691452
20
0.3226074
40
0.2321235
50
89.2729817
51
111.9140267
0
ARC
8
DEFAULT_255_1_388
10
12.7669539
20
0.3384308
40
0.2166604
50
112.9381864
51
142.5320936
0
ARC
8
DEFAULT_255_1_388
10
12.8284028
20
0.2885392
40
0.2957902
50
142.1024021
51
166.3835244
0
ARC
8
DEFAULT_255_1_388
10
12.9612998
20
0.2542213
40
0.4330361
50
166.1100968
51
178.6653563
0
ARC
8
DEFAULT_255_1_388
10
13.0794924
20
0.2476061
40
0.5513642
50
178.2641888
51
180.010994
0
ARC
8
DEFAULT_255_1_388
10
12.9889425
20
0.2444136
40
0.4608248
50
179.6162225
51
191.8786013
0
ARC
8
DEFAULT_255_1_388
10
12.8516735
20
0.214059
40
0.3202502
50
191.6192934
51
215.2970746
0
ARC
8
DEFAULT_255_1_388
10
12.827739
20
0.1997963
40
0.2924827
50
215.7258926
51
216.5355437
0
ARC
8
DEFAULT_255_1_388
10
12.7689011
20
0.1524919
40
0.2170661
50
215.7486606
51
239.9728403
0
ARC
8
DEFAULT_255_1_388
10
12.7610176
20
0.1467838
40
0.208217
50
241.065081
51
269.280972
0
ARC
8
DEFAULT_255_1_388
10
12.7657335
20
0.2023327
40
0.2638514
50
268.4083352
51
270.0069622
0
LINE
8
DEFAULT_255_1_388
10
13.7867934
20
-0.0127263
11
13.7867934
21
-0.1491645
0
LINE
8
DEFAULT_255_1_388
10
13.7867934
20
-0.1491645
11
13.3458539
21
-0.1491645
0
LINE
8
DEFAULT_255_1_388
10
13.3458539
20
-0.1491645
11
13.3458539
21
-0.0127263
0
LINE
8
DEFAULT_255_1_388
10
13.3458539
20
-0.0127263
11
13.7867934
21
-0.0127263
0
LINE
8
DEFAULT_255_1_388
10
14.4590453
20
-0.1247683
11
14.1491227
21
-0.1247683
0
LINE
8
DEFAULT_255_1_388
10
14.1491227
20
-0.1247683
11
14.1491227
21
-0.6398
0
LINE
8
DEFAULT_255_1_388
10
14.1491227
20
-0.6398
11
13.9756383
21
-0.6398
0
LINE
8
DEFAULT_255_1_388
10
13.9756383
20
-0.6398
11
13.9756383
21
0.6757898
0
LINE
8
DEFAULT_255_1_388
10
13.9756383
20
0.6757898
11
14.4608524
21
0.6757898
0
LINE
8
DEFAULT_255_1_388
10
14.1491227
20
0.5330267
11
14.1491227
21
0.0170914
0
LINE
8
DEFAULT_255_1_388
10
14.1491227
20
0.0170914
11
14.4608524
21
0.0170914
0
LINE
8
DEFAULT_255_1_388
10
14.4707917
20
0.5330267
11
14.1491227
21
0.5330267
0
ARC
8
DEFAULT_255_1_388
10
14.4655898
20
-0.0058666
40
0.6816729
50
78.8380084
51
90.398184
0
ARC
8
DEFAULT_255_1_388
10
14.5123928
20
0.2214796
40
0.449571
50
58.9633273
51
79.0810717
0
ARC
8
DEFAULT_255_1_388
10
14.5463313
20
0.2844823
40
0.3781049
50
48.0194715
51
58.4475592
0
ARC
8
DEFAULT_255_1_388
10
14.5563133
20
0.2940818
40
0.3642936
50
3.3374546
51
48.1766642
0
ARC
8
DEFAULT_255_1_388
10
14.4177939
20
0.2741581
40
0.5038766
50
359.9483251
51
4.6822857
0
ARC
8
DEFAULT_255_1_388
10
14.4317863
20
0.2693779
40
0.4899031
50
346.1879032
51
0.5059221
0
ARC
8
DEFAULT_255_1_388
10
14.5846654
20
0.2296763
40
0.3319729
50
310.8832219
51
346.5426612
0
ARC
8
DEFAULT_255_1_388
10
14.5499502
20
0.2765853
40
0.3901853
50
286.6925305
51
310.228778
0
ARC
8
DEFAULT_255_1_388
10
14.4859232
20
0.4779585
40
0.6014737
50
274.6848219
51
287.0247342
0
ARC
8
DEFAULT_255_1_388
10
14.4605781
20
0.7264088
40
0.8511785
50
269.8968222
51
275.0192639
0
ARC
8
DEFAULT_255_1_388
10
14.4636774
20
0.4926144
40
0.4755314
50
269.6596206
51
279.4150542
0
ARC
8
DEFAULT_255_1_388
10
14.4926232
20
0.3248945
40
0.3053379
50
279.2050006
51
294.9901776
0
ARC
8
DEFAULT_255_1_388
10
14.5252867
20
0.2520353
40
0.2255036
50
295.2886769
51
311.2912669
0
ARC
8
DEFAULT_255_1_388
10
14.5332608
20
0.2401938
40
0.2113522
50
311.7853512
51
347.2860549
0
ARC
8
DEFAULT_255_1_388
10
14.422577
20
0.268643
40
0.3256011
50
346.6891629
51
0.1057086
0
ARC
8
DEFAULT_255_1_388
10
14.3303229
20
0.2719247
40
0.417863
50
359.63239
51
359.9961329
0
ARC
8
DEFAULT_255_1_388
10
14.4467835
20
0.2746987
40
0.3014155
50
359.4673371
51
15.5931159
0
ARC
8
DEFAULT_255_1_388
10
14.5170897
20
0.2936937
40
0.2285918
50
15.7441779
51
46.620186
0
ARC
8
DEFAULT_255_1_388
10
14.5004657
20
0.2745361
40
0.2539359
50
46.8628482
51
75.6676625
0
ARC
8
DEFAULT_255_1_388
10
14.4673714
20
0.1554243
40
0.3775415
50
75.2763152
51
88.2916439
0
ARC
8
DEFAULT_255_1_388
10
14.4607713
20
0.0552097
40
0.4779221
50
87.8589087
51
88.7986197
0
LINE
8
DEFAULT_255_1_388
10
16.1541322
20
0.6757898
11
16.1541322
21
-0.6398
0
LINE
8
DEFAULT_255_1_388
10
16.1541322
20
-0.6398
11
15.9797443
21
-0.6398
0
LINE
8
DEFAULT_255_1_388
10
15.9797443
20
-0.6398
11
15.3174315
21
0.3739993
0
LINE
8
DEFAULT_255_1_388
10
15.3174315
20
0.3739993
11
15.3174315
21
-0.6398
0
LINE
8
DEFAULT_255_1_388
10
15.3174315
20
-0.6398
11
15.1430436
21
-0.6398
0
LINE
8
DEFAULT_255_1_388
10
15.1430436
20
-0.6398
11
15.1430436
21
0.6757898
0
LINE
8
DEFAULT_255_1_388
10
15.1430436
20
0.6757898
11
15.3174315
21
0.6757898
0
LINE
8
DEFAULT_255_1_388
10
15.3174315
20
0.6757898
11
15.9815514
21
-0.3425273
0
LINE
8
DEFAULT_255_1_388
10
15.9815514
20
-0.3425273
11
15.9815514
21
0.6757898
0
LINE
8
DEFAULT_255_1_388
10
15.9815514
20
0.6757898
11
16.1541322
21
0.6757898
0
LINE
8
DEFAULT_255_1_388
10
16.648382
20
0.6757898
11
16.648382
21
-0.6398
0
LINE
8
DEFAULT_255_1_388
10
16.648382
20
-0.6398
11
16.4748976
21
-0.6398
0
LINE
8
DEFAULT_255_1_388
10
16.4748976
20
-0.6398
11
16.4748976
21
0.6757898
0
LINE
8
DEFAULT_255_1_388
10
16.4748976
20
0.6757898
11
16.648382
21
0.6757898
0
LINE
8
DEFAULT_255_1_388
10
17.9775253
20
0.0586553
11
17.9775253
21
-0.0244726
0
LINE
8
DEFAULT_255_1_388
10
16.9194513
20
-0.0362189
11
16.9194513
21
0.0586553
0
LINE
8
DEFAULT_255_1_388
10
17.8049445
20
-0.0371225
11
17.8049445
21
0.0604625
0
LINE
8
DEFAULT_255_1_388
10
17.0920321
20
0.0722088
11
17.0920321
21
-0.0244726
0
ARC
8
DEFAULT_255_1_388
10
17.0052991
20
-0.0289274
40
0.9722364
50
350.4878118
51
0.2625322
0
ARC
8
DEFAULT_255_1_388
10
17.2632951
20
-0.0733006
40
0.7104556
50
336.0277991
51
350.5787241
0
ARC
8
DEFAULT_255_1_388
10
17.4146058
20
-0.1416757
40
0.544417
50
319.887443
51
336.1331163
0
ARC
8
DEFAULT_255_1_388
10
17.482387
20
-0.1959267
40
0.4576311
50
302.4806296
51
319.6144102
0
ARC
8
DEFAULT_255_1_388
10
17.4694491
20
-0.1709933
40
0.4856183
50
275.8196423
51
302.1885521
0
ARC
8
DEFAULT_255_1_388
10
17.4507353
20
-0.0424534
40
0.6154183
50
269.9169897
51
276.339506
0
ARC
8
DEFAULT_255_1_388
10
17.4456954
20
-0.119632
40
0.5382553
50
252.5221437
51
270.441579
0
ARC
8
DEFAULT_255_1_388
10
17.4295204
20
-0.1802954
40
0.4755426
50
237.5349961
51
252.1858334
0
ARC
8
DEFAULT_255_1_388
10
17.439558
20
-0.167488
40
0.4917393
50
209.0632754
51
237.3492577
0
ARC
8
DEFAULT_255_1_388
10
17.5374906
20
-0.1059896
40
0.6072464
50
205.118533
51
209.6465345
0
ARC
8
DEFAULT_255_1_388
10
17.6270908
20
-0.0679826
40
0.7045164
50
188.7216633
51
204.8239753
0
ARC
8
DEFAULT_255_1_388
10
17.8517683
20
-0.0301613
40
0.9323368
50
180.3722704
51
188.9253909
0
ARC
8
DEFAULT_255_1_388
10
17.8487245
20
0.0631416
40
0.929284
50
169.5253055
51
180.2766048
0
ARC
8
DEFAULT_255_1_388
10
17.6347044
20
0.1025024
40
0.7116745
50
155.8314601
51
169.5088611
0
ARC
8
DEFAULT_255_1_388
10
17.4906507
20
0.1693312
40
0.5528904
50
139.6259579
51
156.0379072
0
ARC
8
DEFAULT_255_1_388
10
17.4243041
20
0.2227143
40
0.4677708
50
122.6414784
51
139.3431662
0
ARC
8
DEFAULT_255_1_388
10
17.4356295
20
0.2020787
40
0.4912586
50
93.0224537
51
122.4556091
0
ARC
8
DEFAULT_255_1_388
10
17.4477816
20
0.0934776
40
0.6003837
50
89.9756766
51
93.6340839
0
ARC
8
DEFAULT_255_1_388
10
17.4521414
20
0.1383879
40
0.5554884
50
73.7463329
51
90.4234008
0
ARC
8
DEFAULT_255_1_388
10
17.4718887
20
0.2148772
40
0.4765353
50
57.663051
51
73.4516911
0
ARC
8
DEFAULT_255_1_388
10
17.4709925
20
0.2173108
40
0.4749629
50
29.1441355
51
57.4146687
0
ARC
8
DEFAULT_255_1_388
10
17.3657736
20
0.1516046
40
0.5988917
50
24.0985653
51
29.732054
0
ARC
8
DEFAULT_255_1_388
10
17.2495368
20
0.1034154
40
0.7246823
50
8.6654943
51
23.8241215
0
ARC
8
DEFAULT_255_1_388
10
16.9981787
20
0.0624037
40
0.9793537
50
359.7807044
51
8.8218476
0
ARC
8
DEFAULT_255_1_388
10
16.8691491
20
0.0652731
40
0.9358078
50
359.7054632
51
8.0359751
0
ARC
8
DEFAULT_255_1_388
10
17.2066542
20
0.1144252
40
0.5947474
50
7.8926278
51
20.2962188
0
ARC
8
DEFAULT_255_1_388
10
17.3897393
20
0.1819367
40
0.3996117
50
20.3231056
51
36.4990255
0
ARC
8
DEFAULT_255_1_388
10
17.466869
20
0.2413399
40
0.3022818
50
36.1436715
51
85.6627846
0
ARC
8
DEFAULT_255_1_388
10
17.4485945
20
0.1243881
40
0.4203853
50
84.3845912
51
90.076054
0
ARC
8
DEFAULT_255_1_388
10
17.44383
20
0.1986416
40
0.346157
50
89.3037228
51
109.9046209
0
ARC
8
DEFAULT_255_1_388
10
17.4334133
20
0.2416379
40
0.3022217
50
110.8229774
51
143.917961
0
ARC
8
DEFAULT_255_1_388
10
17.5384493
20
0.1614455
40
0.434348
50
143.5289166
51
163.2980252
0
ARC
8
DEFAULT_255_1_388
10
17.753078
20
0.0939685
40
0.659321
50
163.0418884
51
174.3139873
0
ARC
8
DEFAULT_255_1_388
10
18.0235744
20
0.0627378
40
0.9315905
50
174.050934
51
179.4174954
0
ARC
8
DEFAULT_255_1_388
10
17.9667688
20
-0.0291618
40
0.8747493
50
179.6928582
51
188.7908948
0
ARC
8
DEFAULT_255_1_388
10
17.6671488
20
-0.0770914
40
0.5713262
50
188.6328449
51
202.5630732
0
ARC
8
DEFAULT_255_1_388
10
17.5260325
20
-0.1337858
40
0.4192612
50
202.8078931
51
216.1195888
0
ARC
8
DEFAULT_255_1_388
10
17.4349842
20
-0.2070521
40
0.3025752
50
215.0755613
51
264.6379773
0
ARC
8
DEFAULT_255_1_388
10
17.449268
20
-0.1135624
40
0.3970284
50
263.8464302
51
270.0830805
0
ARC
8
DEFAULT_255_1_388
10
17.4539224
20
-0.1426192
40
0.3679937
50
269.3649295
51
287.5149684
0
ARC
8
DEFAULT_255_1_388
10
17.4739665
20
-0.2154286
40
0.2925408
50
288.0629019
51
323.8115617
0
ARC
8
DEFAULT_255_1_388
10
17.3759641
20
-0.1423246
40
0.4148018
50
323.6546541
51
342.6591359
0
ARC
8
DEFAULT_255_1_388
10
17.1474299
20
-0.067972
40
0.6551163
50
342.4092446
51
353.6451501
0
ARC
8
DEFAULT_255_1_388
10
16.8289093
20
-0.0283435
40
0.9760748
50
353.4027553
51
359.4846611
0
LINE
8
DEFAULT_255_1_388
10
18.5594208
20
-0.0127263
11
18.5594208
21
-0.1491645
0
LINE
8
DEFAULT_255_1_388
10
18.5594208
20
-0.1491645
11
18.1184813
21
-0.1491645
0
LINE
8
DEFAULT_255_1_388
10
18.1184813
20
-0.1491645
11
18.1184813
21
-0.0127263
0
LINE
8
DEFAULT_255_1_388
10
18.1184813
20
-0.0127263
11
18.5594208
21
-0.0127263
0
LINE
8
DEFAULT_255_1_388
10
18.8603078
20
0.6757898
11
19.1774589
21
0.1716009
0
LINE
8
DEFAULT_255_1_388
10
19.1774589
20
0.1716009
11
19.4928029
21
0.6757898
0
LINE
8
DEFAULT_255_1_388
10
19.4928029
20
0.6757898
11
19.6970084
21
0.6757898
0
LINE
8
DEFAULT_255_1_388
10
19.6970084
20
0.6757898
11
19.2813688
21
0.0234163
0
LINE
8
DEFAULT_255_1_388
10
19.2813688
20
0.0234163
11
19.7069477
21
-0.6398
0
LINE
8
DEFAULT_255_1_388
10
19.7069477
20
-0.6398
11
19.500935
21
-0.6398
0
LINE
8
DEFAULT_255_1_388
10
19.500935
20
-0.6398
11
19.1774589
21
-0.1265754
0
LINE
8
DEFAULT_255_1_388
10
19.1774589
20
-0.1265754
11
18.8521757
21
-0.6398
0
LINE
8
DEFAULT_255_1_388
10
18.8521757
20
-0.6398
11
18.6470666
21
-0.6398
0
LINE
8
DEFAULT_255_1_388
10
18.6470666
20
-0.6398
11
19.073549
21
0.0234163
0
LINE
8
DEFAULT_255_1_388
10
19.073549
20
0.0234163
11
18.6570058
21
0.6757898
0
LINE
8
DEFAULT_255_1_388
10
18.6570058
20
0.6757898
11
18.8603078
21
0.6757898
0
LINE
8
DEFAULT_255_1_388
10
20.679183
20
-0.2223532
11
20.8535709
21
-0.2223532
0
LINE
8
DEFAULT_255_1_388
10
19.8406752
20
-0.0434475
11
19.8406752
21
0.0830516
0
LINE
8
DEFAULT_255_1_388
10
20.8535709
20
0.2529217
11
20.679183
21
0.2529217
0
LINE
8
DEFAULT_255_1_388
10
20.0150631
20
0.0785337
11
20.0150631
21
-0.0488688
0
ARC
8
DEFAULT_255_1_388
10
20.2369943
20
-0.1551671
40
0.6202263
50
340.1774904
51
353.7812217
0
ARC
8
DEFAULT_255_1_388
10
20.4137796
20
-0.2210107
40
0.4315926
50
311.4560052
51
340.4420756
0
ARC
8
DEFAULT_255_1_388
10
20.4100336
20
-0.2085335
40
0.4434573
50
282.4332229
51
310.7514507
0
ARC
8
DEFAULT_255_1_388
10
20.3606154
20
-0.0043297
40
0.6535262
50
269.9358869
51
282.8096729
0
ARC
8
DEFAULT_255_1_388
10
20.3548093
20
0.1469329
40
0.8048043
50
269.9995752
51
270.3612856
0
ARC
8
DEFAULT_255_1_388
10
20.3488583
20
-0.1329219
40
0.5249831
50
250.7885263
51
270.6488451
0
ARC
8
DEFAULT_255_1_388
10
20.3299408
20
-0.2046147
40
0.4510942
50
219.3628377
51
250.0611024
0
ARC
8
DEFAULT_255_1_388
10
20.4232282
20
-0.1253347
40
0.5735046
50
193.5480293
51
219.5755675
0
ARC
8
DEFAULT_255_1_388
10
20.6900491
20
-0.056048
40
0.849146
50
181.1220183
51
193.8754971
0
ARC
8
DEFAULT_255_1_388
10
20.9223725
20
-0.0436086
40
1.0816971
50
179.9914644
51
181.5398227
0
ARC
8
DEFAULT_255_1_388
10
20.7147035
20
0.0872586
40
0.8740384
50
169.5837606
51
180.275782
0
ARC
8
DEFAULT_255_1_388
10
20.5080383
20
0.1254439
40
0.6638751
50
155.0367033
51
169.6002779
0
ARC
8
DEFAULT_255_1_388
10
20.3802841
20
0.1870336
40
0.5220662
50
136.7831557
51
155.2472983
0
ARC
8
DEFAULT_255_1_388
10
20.3364632
20
0.2242577
40
0.4646502
50
121.7633063
51
136.4281161
0
ARC
8
DEFAULT_255_1_388
10
20.3516472
20
0.1962049
40
0.4964979
50
95.6460018
51
121.5489589
0
ARC
8
DEFAULT_255_1_388
10
20.3693446
20
0.0714704
40
0.6223912
50
89.9245727
51
96.1375919
0
ARC
8
DEFAULT_255_1_388
10
20.3750151
20
0.0848721
40
0.6090084
50
76.6779212
51
90.456405
0
ARC
8
DEFAULT_255_1_388
10
20.4192964
20
0.263806
40
0.42469
50
47.4858803
51
76.9287069
0
ARC
8
DEFAULT_255_1_388
10
20.4027578
20
0.2525623
40
0.4441778
50
16.5424081
51
46.8934505
0
ARC
8
DEFAULT_255_1_388
10
20.2218628
20
0.1931265
40
0.6345318
50
5.4072971
51
17.0363711
0
ARC
8
DEFAULT_255_1_388
10
20.0600353
20
0.1671304
40
0.6250632
50
7.8888693
51
15.9242022
0
ARC
8
DEFAULT_255_1_388
10
20.2835338
20
0.2320309
40
0.3923364
50
15.7650676
51
27.9410069
0
ARC
8
DEFAULT_255_1_388
10
20.4077508
20
0.2985317
40
0.2514401
50
27.8167196
51
46.4007942
0
ARC
8
DEFAULT_255_1_388
10
20.4133349
20
0.2978882
40
0.2480958
50
47.4372362
51
75.0695672
0
ARC
8
DEFAULT_255_1_388
10
20.3786185
20
0.1770277
40
0.3738281
50
74.7009379
51
87.8124314
0
ARC
8
DEFAULT_255_1_388
10
20.3703802
20
0.0586659
40
0.4924321
50
87.3802571
51
90.0251599
0
ARC
8
DEFAULT_255_1_388
10
20.3660449
20
0.1906997
40
0.3604218
50
89.3451886
51
108.5744412
0
ARC
8
DEFAULT_255_1_388
10
20.3506442
20
0.2484836
40
0.3007661
50
109.2998307
51
143.3037387
0
ARC
8
DEFAULT_255_1_388
10
20.4363731
20
0.1825584
40
0.4089031
50
143.075267
51
163.1918576
0
ARC
8
DEFAULT_255_1_388
10
20.6559566
20
0.1132652
40
0.6391492
50
162.9375929
51
174.6208776
0
ARC
8
DEFAULT_255_1_388
10
20.9513947
20
0.0808711
40
0.9363344
50
174.342123
51
180.1430283
0
ARC
8
DEFAULT_255_1_388
10
20.8466489
20
-0.0534883
40
0.8315986
50
179.6817261
51
189.150555
0
ARC
8
DEFAULT_255_1_388
10
20.5653238
20
-0.1003441
40
0.5464044
50
188.9911061
51
203.5772363
0
ARC
8
DEFAULT_255_1_388
10
20.4438529
20
-0.1507461
40
0.4149206
50
203.9075402
51
215.1312435
0
ARC
8
DEFAULT_255_1_388
10
20.3400327
20
-0.2312093
40
0.2837747
50
213.9071511
51
263.8848919
0
ARC
8
DEFAULT_255_1_388
10
20.354132
20
-0.1429481
40
0.3730641
50
263.1757928
51
270.1031044
0
ARC
8
DEFAULT_255_1_388
10
20.35774
20
-0.0026489
40
0.5133712
50
269.6722503
51
279.0606936
0
ARC
8
DEFAULT_255_1_388
10
20.3877555
20
-0.184085
40
0.3294739
50
278.8749101
51
293.6349581
0
ARC
8
DEFAULT_255_1_388
10
20.4237759
20
-0.2686749
40
0.2375405
50
293.8553806
51
310.0518171
0
ARC
8
DEFAULT_255_1_388
10
20.4243268
20
-0.2756979
40
0.2318463
50
311.0644687
51
332.0111037
0
ARC
8
DEFAULT_255_1_388
10
20.2901941
20
-0.2017298
40
0.3850112
50
331.6586806
51
343.2877423
0
ARC
8
DEFAULT_255_1_388
10
20.0581407
20
-0.1304194
40
0.6277712
50
343.1446576
51
351.0103568
0
ARC
8
DEFAULT_255_1_388
10
19.894873
20
-0.1004127
40
0.7937327
50
350.71248
51
351.1626997
0
ARC
8
DEFAULT_255_2_778
10
17.2795513
20
25.8265655
40
0.9032652
50
36.6636783
51
62.8800292
0
ARC
8
DEFAULT_255_2_778
10
17.362048
20
27.0955795
40
0.5698185
50
305.2984654
51
359.1896208
0
ARC
8
DEFAULT_255_2_778
10
17.3634372
20
27.0909256
40
0.5683825
50
359.6567283
51
359.9965559
0
ARC
8
DEFAULT_255_2_778
10
17.3738628
20
27.0907968
40
0.5579568
50
0.0097156
51
44.9837975
0
ARC
8
DEFAULT_255_2_778
10
17.3736736
20
27.0909297
40
0.5579968
50
44.9604089
51
90.0139948
0
ARC
8
DEFAULT_255_2_778
10
17.3735813
20
27.0733846
40
0.5755419
50
90.0043846
51
90.2659864
0
ARC
8
DEFAULT_255_2_778
10
17.3015142
20
25.8802344
40
0.8779024
50
272.428255
51
302.0472027
0
ARC
8
DEFAULT_255_2_778
10
17.3149911
20
25.8457487
40
0.841549
50
302.5153244
51
0.4882776
0
ARC
8
DEFAULT_255_2_778
10
17.3237108
20
25.8737449
40
0.833059
50
358.5675863
51
29.0157619
0
ARC
8
DEFAULT_255_2_778
10
15.115709
20
25.8276166
40
0.90203
50
36.6388615
51
62.8867752
0
ARC
8
DEFAULT_255_2_778
10
15.1980877
20
27.0952954
40
0.5692748
50
305.2706468
51
359.2174393
0
ARC
8
DEFAULT_255_2_778
10
15.2034234
20
27.0905241
40
0.563894
50
359.6947901
51
359.9999584
0
ARC
8
DEFAULT_255_2_778
10
15.2087973
20
27.0905658
40
0.5585202
50
359.9956834
51
44.9740581
0
ARC
8
DEFAULT_255_2_778
10
15.2091182
20
27.0908026
40
0.5581257
50
44.9801433
51
90.0010632
0
ARC
8
DEFAULT_255_2_778
10
15.2091083
20
27.0868714
40
0.562057
50
90.0000416
51
90.3056982
0
ARC
8
DEFAULT_255_2_778
10
15.1365968
20
25.8803822
40
0.8780507
50
272.42898
51
302.0445025
0
ARC
8
DEFAULT_255_2_778
10
15.1501929
20
25.8457943
40
0.8415468
50
302.5093151
51
0.4851764
0
ARC
8
DEFAULT_255_2_778
10
15.1579024
20
25.8734974
40
0.8340609
50
358.5863171
51
28.9970314
0
LINE
8
DEFAULT_255_2_778
10
13.4101095
20
26.3659203
11
12.9532095
21
27.6489203
0
LINE
8
DEFAULT_255_2_778
10
12.9532095
20
27.6489203
11
12.6084095
21
27.6489203
0
LINE
8
DEFAULT_255_2_778
10
12.6084095
20
27.6489203
11
12.6084095
21
26.3659203
0
LINE
8
DEFAULT_255_2_778
10
12.6084095
20
26.3659203
11
13.4101095
21
26.3659203
0
LINE
8
DEFAULT_255_2_778
10
12.6084095
20
25.5642203
11
13.0334095
21
25.5642203
0
LINE
8
DEFAULT_255_2_778
10
13.0334095
20
25.5642203
11
13.2257095
21
25.0031203
0
LINE
8
DEFAULT_255_2_778
10
13.2257095
20
25.0031203
11
13.8911095
21
25.0031203
0
LINE
8
DEFAULT_255_2_778
10
13.8911095
20
25.0031203
11
13.4342095
21
26.2858203
0
LINE
8
DEFAULT_255_2_778
10
13.4342095
20
26.2858203
11
12.6084095
21
26.2858203
0
LINE
8
DEFAULT_255_2_778
10
12.6084095
20
26.2858203
11
12.6084095
21
25.5642203
0
LINE
8
DEFAULT_255_2_778
10
12.5283095
20
27.6489203
11
12.1835095
21
27.6489203
0
LINE
8
DEFAULT_255_2_778
10
12.1835095
20
27.6489203
11
11.7266095
21
26.3659203
0
LINE
8
DEFAULT_255_2_778
10
11.7266095
20
26.3659203
11
12.5283095
21
26.3659203
0
LINE
8
DEFAULT_255_2_778
10
12.5283095
20
26.3659203
11
12.5283095
21
27.6489203
0
LINE
8
DEFAULT_255_2_778
10
11.7025095
20
26.2858203
11
11.2453095
21
25.0031203
0
LINE
8
DEFAULT_255_2_778
10
11.2453095
20
25.0031203
11
11.9107095
21
25.0031203
0
LINE
8
DEFAULT_255_2_778
10
11.9107095
20
25.0031203
11
12.1031095
21
25.5642203
0
LINE
8
DEFAULT_255_2_778
10
12.1031095
20
25.5642203
11
12.5280095
21
25.5642203
0
LINE
8
DEFAULT_255_2_778
10
12.5280095
20
25.5642203
11
12.5280095
21
26.2858203
0
LINE
8
DEFAULT_255_2_778
10
12.5280095
20
26.2858203
11
11.7025095
21
26.2858203
0
LINE
8
DEFAULT_255_2_778
10
16.2965095
20
27.6489203
11
17.0981095
21
27.6489203
0
LINE
8
DEFAULT_255_2_778
10
17.0981095
20
27.6489203
11
17.0981095
21
26.3659203
0
LINE
8
DEFAULT_255_2_778
10
17.0981095
20
26.3659203
11
16.2965095
21
26.3659203
0
LINE
8
DEFAULT_255_2_778
10
16.2965095
20
26.3659203
11
16.2965095
21
27.6489203
0
LINE
8
DEFAULT_255_2_778
10
17.3709095
20
27.6489203
11
17.1786095
21
27.6489203
0
LINE
8
DEFAULT_255_2_778
10
17.1786095
20
27.6489203
11
17.1786095
21
26.3659203
0
LINE
8
DEFAULT_255_2_778
10
17.1786095
20
26.3659203
11
18.0043095
21
26.3659203
0
LINE
8
DEFAULT_255_2_778
10
18.0043095
20
26.3659203
11
18.0041095
21
26.3659203
0
LINE
8
DEFAULT_255_2_778
10
16.2965095
20
26.2858203
11
17.0981095
21
26.2858203
0
LINE
8
DEFAULT_255_2_778
10
17.0981095
20
26.2858203
11
17.0981095
21
25.0031203
0
LINE
8
DEFAULT_255_2_778
10
17.0981095
20
25.0031203
11
16.2965095
21
25.0031203
0
LINE
8
DEFAULT_255_2_778
10
16.2965095
20
25.0031203
11
16.2965095
21
26.2858203
0
LINE
8
DEFAULT_255_2_778
10
17.1783095
20
25.0031203
11
17.3387095
21
25.0031203
0
LINE
8
DEFAULT_255_2_778
10
18.0522095
20
26.2778203
11
17.1783095
21
26.2778203
0
LINE
8
DEFAULT_255_2_778
10
17.1783095
20
26.2778203
11
17.1783095
21
25.0031203
0
LINE
8
DEFAULT_255_2_778
10
17.1783095
20
25.0031203
11
17.1783095
21
25.0031203
0
LINE
8
DEFAULT_255_2_778
10
14.1316095
20
27.6489203
11
14.9333095
21
27.6489203
0
LINE
8
DEFAULT_255_2_778
10
14.9333095
20
27.6489203
11
14.9333095
21
26.3659203
0
LINE
8
DEFAULT_255_2_778
10
14.9333095
20
26.3659203
11
14.1316095
21
26.3659203
0
LINE
8
DEFAULT_255_2_778
10
14.1316095
20
26.3659203
11
14.1316095
21
27.6489203
0
LINE
8
DEFAULT_255_2_778
10
15.2061095
20
27.6489203
11
15.0138095
21
27.6489203
0
LINE
8
DEFAULT_255_2_778
10
15.0138095
20
27.6489203
11
15.0138095
21
26.3659203
0
LINE
8
DEFAULT_255_2_778
10
15.0138095
20
26.3659203
11
15.8395095
21
26.3659203
0
LINE
8
DEFAULT_255_2_778
10
15.8395095
20
26.3659203
11
15.8395095
21
26.3659203
0
LINE
8
DEFAULT_255_2_778
10
14.1316095
20
26.2858203
11
14.9333095
21
26.2858203
0
LINE
8
DEFAULT_255_2_778
10
14.9333095
20
26.2858203
11
14.9333095
21
25.0031203
0
LINE
8
DEFAULT_255_2_778
10
14.9333095
20
25.0031203
11
14.1316095
21
25.0031203
0
LINE
8
DEFAULT_255_2_778
10
14.1316095
20
25.0031203
11
14.1316095
21
26.2858203
0
LINE
8
DEFAULT_255_2_778
10
15.0135095
20
25.0031203
11
15.1738095
21
25.0031203
0
LINE
8
DEFAULT_255_2_778
10
15.8874095
20
26.2778203
11
15.0135095
21
26.2778203
0
LINE
8
DEFAULT_255_2_778
10
15.0135095
20
26.2778203
11
15.0135095
21
25.0031203
0
LINE
8
DEFAULT_255_2_778
10
15.0135095
20
25.0031203
11
15.0135095
21
25.0031203
0
LINE
8
DEFAULT_255_1_388
10
10.9746637
20
22.5113
11
10.8490682
21
22.8546545
0
LINE
8
DEFAULT_255_1_388
10
10.8490682
20
22.8546545
11
10.2978939
21
22.8546545
0
LINE
8
DEFAULT_255_1_388
10
10.2978939
20
22.8546545
11
10.1741056
21
22.5113
0
LINE
8
DEFAULT_255_1_388
10
10.1741056
20
22.5113
11
9.9951998
21
22.5113
0
LINE
8
DEFAULT_255_1_388
10
9.9951998
20
22.5113
11
10.4975816
21
23.8268898
0
LINE
8
DEFAULT_255_1_388
10
10.4975816
20
23.8268898
11
10.6493805
21
23.8268898
0
LINE
8
DEFAULT_255_1_388
10
10.6493805
20
23.8268898
11
11.1526659
21
22.5113
0
LINE
8
DEFAULT_255_1_388
10
11.1526659
20
22.5113
11
10.9746637
21
22.5113
0
LINE
8
DEFAULT_255_1_388
10
10.5734811
20
23.6127451
11
10.3503006
21
22.9974177
0
LINE
8
DEFAULT_255_1_388
10
10.3503006
20
22.9974177
11
10.797565
21
22.9974177
0
LINE
8
DEFAULT_255_1_388
10
10.797565
20
22.9974177
11
10.5734811
21
23.6127451
0
LINE
8
DEFAULT_255_1_388
10
12.1131549
20
22.9287468
11
12.2875428
21
22.9287468
0
LINE
8
DEFAULT_255_1_388
10
11.2746471
20
23.1076525
11
11.2746471
21
23.2341516
0
LINE
8
DEFAULT_255_1_388
10
12.2875428
20
23.4040217
11
12.1131549
21
23.4040217
0
LINE
8
DEFAULT_255_1_388
10
11.449035
20
23.2296337
11
11.449035
21
23.1022312
0
ARC
8
DEFAULT_255_1_388
10
11.6709662
20
22.9959329
40
0.6202263
50
340.1774904
51
353.7812217
0
ARC
8
DEFAULT_255_1_388
10
11.8477515
20
22.9300893
40
0.4315926
50
311.4560052
51
340.4420756
0
ARC
8
DEFAULT_255_1_388
10
11.8440055
20
22.9425665
40
0.4434573
50
282.4332229
51
310.7514507
0
ARC
8
DEFAULT_255_1_388
10
11.7945873
20
23.1467703
40
0.6535262
50
269.9358869
51
282.8096729
0
ARC
8
DEFAULT_255_1_388
10
11.7887812
20
23.2980329
40
0.8048043
50
269.9995752
51
270.3612856
0
ARC
8
DEFAULT_255_1_388
10
11.7828302
20
23.0181781
40
0.5249831
50
250.7885263
51
270.6488451
0
ARC
8
DEFAULT_255_1_388
10
11.7639127
20
22.9464853
40
0.4510942
50
219.3628377
51
250.0611024
0
ARC
8
DEFAULT_255_1_388
10
11.8572001
20
23.0257653
40
0.5735046
50
193.5480293
51
219.5755675
0
ARC
8
DEFAULT_255_1_388
10
12.124021
20
23.095052
40
0.849146
50
181.1220183
51
193.8754971
0
ARC
8
DEFAULT_255_1_388
10
12.3563443
20
23.1074914
40
1.0816971
50
179.9914644
51
181.5398227
0
ARC
8
DEFAULT_255_1_388
10
12.1486754
20
23.2383586
40
0.8740384
50
169.5837606
51
180.275782
0
ARC
8
DEFAULT_255_1_388
10
11.9420102
20
23.2765439
40
0.6638751
50
155.0367033
51
169.6002779
0
ARC
8
DEFAULT_255_1_388
10
11.814256
20
23.3381336
40
0.5220662
50
136.7831557
51
155.2472983
0
ARC
8
DEFAULT_255_1_388
10
11.7704351
20
23.3753577
40
0.4646502
50
121.7633063
51
136.4281161
0
ARC
8
DEFAULT_255_1_388
10
11.7856191
20
23.3473049
40
0.4964979
50
95.6460018
51
121.5489589
0
ARC
8
DEFAULT_255_1_388
10
11.8033165
20
23.2225704
40
0.6223912
50
89.9245727
51
96.1375919
0
ARC
8
DEFAULT_255_1_388
10
11.808987
20
23.2359721
40
0.6090084
50
76.6779212
51
90.456405
0
ARC
8
DEFAULT_255_1_388
10
11.8532683
20
23.414906
40
0.42469
50
47.4858803
51
76.9287069
0
ARC
8
DEFAULT_255_1_388
10
11.8367297
20
23.4036623
40
0.4441778
50
16.5424081
51
46.8934505
0
ARC
8
DEFAULT_255_1_388
10
11.6558347
20
23.3442265
40
0.6345318
50
5.4072971
51
17.0363711
0
ARC
8
DEFAULT_255_1_388
10
11.4940072
20
23.3182304
40
0.6250632
50
7.8888693
51
15.9242022
0
ARC
8
DEFAULT_255_1_388
10
11.7175057
20
23.3831309
40
0.3923364
50
15.7650676
51
27.9410069
0
ARC
8
DEFAULT_255_1_388
10
11.8417226
20
23.4496317
40
0.2514401
50
27.8167196
51
46.4007942
0
ARC
8
DEFAULT_255_1_388
10
11.8473068
20
23.4489882
40
0.2480958
50
47.4372362
51
75.0695672
0
ARC
8
DEFAULT_255_1_388
10
11.8125904
20
23.3281277
40
0.3738281
50
74.7009379
51
87.8124314
0
ARC
8
DEFAULT_255_1_388
10
11.8043521
20
23.2097659
40
0.4924321
50
87.3802571
51
90.0251599
0
ARC
8
DEFAULT_255_1_388
10
11.8000168
20
23.3417997
40
0.3604218
50
89.3451886
51
108.5744412
0
ARC
8
DEFAULT_255_1_388
10
11.784616
20
23.3995836
40
0.3007661
50
109.2998307
51
143.3037387
0
ARC
8
DEFAULT_255_1_388
10
11.870345
20
23.3336584
40
0.4089031
50
143.075267
51
163.1918576
0
ARC
8
DEFAULT_255_1_388
10
12.0899284
20
23.2643652
40
0.6391492
50
162.9375929
51
174.6208776
0
ARC
8
DEFAULT_255_1_388
10
12.3853666
20
23.2319711
40
0.9363344
50
174.342123
51
180.1430283
0
ARC
8
DEFAULT_255_1_388
10
12.2806207
20
23.0976117
40
0.8315986
50
179.6817261
51
189.150555
0
ARC
8
DEFAULT_255_1_388
10
11.9992956
20
23.0507559
40
0.5464044
50
188.9911061
51
203.5772363
0
ARC
8
DEFAULT_255_1_388
10
11.8778248
20
23.0003539
40
0.4149206
50
203.9075402
51
215.1312435
0
ARC
8
DEFAULT_255_1_388
10
11.7740046
20
22.9198907
40
0.2837747
50
213.9071511
51
263.8848919
0
ARC
8
DEFAULT_255_1_388
10
11.7881039
20
23.0081519
40
0.3730641
50
263.1757928
51
270.1031044
0
ARC
8
DEFAULT_255_1_388
10
11.7917119
20
23.1484511
40
0.5133712
50
269.6722503
51
279.0606936
0
ARC
8
DEFAULT_255_1_388
10
11.8217274
20
22.967015
40
0.3294739
50
278.8749101
51
293.6349581
0
ARC
8
DEFAULT_255_1_388
10
11.8577478
20
22.8824251
40
0.2375405
50
293.8553806
51
310.0518171
0
ARC
8
DEFAULT_255_1_388
10
11.8582987
20
22.8754021
40
0.2318463
50
311.0644687
51
332.0111037
0
ARC
8
DEFAULT_255_1_388
10
11.724166
20
22.9493702
40
0.3850112
50
331.6586806
51
343.2877423
0
ARC
8
DEFAULT_255_1_388
10
11.4921125
20
23.0206806
40
0.6277712
50
343.1446576
51
351.0103568
0
ARC
8
DEFAULT_255_1_388
10
11.3288449
20
23.0506873
40
0.7937327
50
350.71248
51
351.1626997
0
LINE
8
DEFAULT_255_1_388
10
12.6914361
20
23.1365666
11
12.5577086
21
23.1709021
0
LINE
8
DEFAULT_255_1_388
10
12.5577086
20
23.1709021
11
12.6245724
21
23.8268898
0
LINE
8
DEFAULT_255_1_388
10
12.6245724
20
23.8268898
11
13.2986314
21
23.8268898
0
LINE
8
DEFAULT_255_1_388
10
13.2986314
20
23.8268898
11
13.2986314
21
23.6723803
0
LINE
8
DEFAULT_255_1_388
10
13.2986314
20
23.6723803
11
12.766432
21
23.6723803
0
LINE
8
DEFAULT_255_1_388
10
12.766432
20
23.6723803
11
12.7266751
21
23.3136652
0
LINE
8
DEFAULT_255_1_388
10
12.5107232
20
22.8573652
11
12.668847
21
22.8573652
0
LINE
8
DEFAULT_255_1_388
10
12.7357108
20
23.1727092
11
12.6914361
21
23.1365666
0
ARC
8
DEFAULT_255_1_388
10
12.9353365
20
22.9559241
40
0.4141476
50
93.7181681
51
120.253934
0
ARC
8
DEFAULT_255_1_388
10
12.9459417
20
22.8650284
40
0.5055616
50
89.9660471
51
94.2495185
0
ARC
8
DEFAULT_255_1_388
10
12.9505239
20
22.9313154
40
0.4392953
50
73.8045384
51
90.5585736
0
ARC
8
DEFAULT_255_1_388
10
12.9769497
20
23.027852
40
0.3392225
50
41.3071072
51
73.543002
0
ARC
8
DEFAULT_255_1_388
10
12.9301317
20
22.9875461
40
0.4009977
50
13.5075837
51
41.2174839
0
ARC
8
DEFAULT_255_1_388
10
12.7454414
20
22.9391907
40
0.5918864
50
1.1330171
51
13.8830737
0
ARC
8
DEFAULT_255_1_388
10
12.585806
20
22.9306522
40
0.7516787
50
359.9925091
51
1.5431298
0
ARC
8
DEFAULT_255_1_388
10
12.7302675
20
22.9260027
40
0.6072343
50
347.8572712
51
0.4294349
0
ARC
8
DEFAULT_255_1_388
10
12.927181
20
22.8813898
40
0.4053482
50
323.6727442
51
348.1674594
0
ARC
8
DEFAULT_255_1_388
10
12.9602774
20
22.8612175
40
0.3667495
50
316.8171818
51
323.1486802
0
ARC
8
DEFAULT_255_1_388
10
12.9671898
20
22.8570612
40
0.358869
50
281.839603
51
316.5458142
0
ARC
8
DEFAULT_255_1_388
10
12.9249185
20
23.0320363
40
0.5388223
50
269.5770964
51
282.4214641
0
ARC
8
DEFAULT_255_1_388
10
12.9169106
20
23.007993
40
0.5147801
50
256.2425863
51
270.4486481
0
ARC
8
DEFAULT_255_1_388
10
12.8832634
20
22.8730124
40
0.3756708
50
228.9024379
51
256.33135
0
ARC
8
DEFAULT_255_1_388
10
12.8749614
20
22.8599054
40
0.360344
50
193.7536029
51
228.5272638
0
ARC
8
DEFAULT_255_1_388
10
13.0142179
20
22.9007463
40
0.5053599
50
184.9244437
51
194.4976052
0
ARC
8
DEFAULT_255_1_388
10
13.035882
20
22.9047722
40
0.3700839
50
187.3596909
51
198.6733728
0
ARC
8
DEFAULT_255_1_388
10
12.9178064
20
22.8638373
40
0.2451195
50
198.4453795
51
217.7945479
0
ARC
8
DEFAULT_255_1_388
10
12.8845236
20
22.8402563
40
0.2043754
50
218.2887146
51
228.5613203
0
ARC
8
DEFAULT_255_1_388
10
12.8955243
20
22.8550902
40
0.2227819
50
228.9652423
51
258.1237049
0
ARC
8
DEFAULT_255_1_388
10
12.9186681
20
22.9541964
40
0.3245374
50
257.7260585
51
270.4013717
0
ARC
8
DEFAULT_255_1_388
10
12.9237179
20
22.9041255
40
0.2744726
50
269.4204315
51
286.420998
0
ARC
8
DEFAULT_255_1_388
10
12.9404234
20
22.8434705
40
0.2115721
50
286.7250065
51
320.6004665
0
ARC
8
DEFAULT_255_1_388
10
12.897315
20
22.8784527
40
0.2670878
50
320.6712228
51
344.5440474
0
ARC
8
DEFAULT_255_1_388
10
12.7671864
20
22.9166394
40
0.4026927
50
344.241448
51
356.735803
0
ARC
8
DEFAULT_255_1_388
10
12.6268171
20
22.9282656
40
0.5435085
50
356.3547471
51
0.0507222
0
ARC
8
DEFAULT_255_1_388
10
12.7770436
20
22.9317812
40
0.3932934
50
359.5579289
51
12.9534322
0
ARC
8
DEFAULT_255_1_388
10
12.8957276
20
22.9605586
40
0.2711827
50
12.6489751
51
41.608121
0
ARC
8
DEFAULT_255_1_388
10
12.9216436
20
22.9825946
40
0.2371737
50
41.7851122
51
85.9892156
0
ARC
8
DEFAULT_255_1_388
10
12.9077746
20
22.8910738
40
0.3295244
50
84.6965848
51
90.0672125
0
ARC
8
DEFAULT_255_1_388
10
12.9051313
20
22.8159118
40
0.4046926
50
89.6804991
51
99.161352
0
ARC
8
DEFAULT_255_1_388
10
12.8820323
20
22.9539848
40
0.2647044
50
98.9836248
51
113.8905702
0
ARC
8
DEFAULT_255_1_388
10
12.8561998
20
23.0149118
40
0.1985386
50
114.195234
51
127.3641866
0
LINE
8
DEFAULT_255_1_388
10
14.3449591
20
23.289269
11
14.3449591
21
23.0724135
0
LINE
8
DEFAULT_255_1_388
10
13.5145833
20
23.0498244
11
13.5145833
21
23.2730048
0
LINE
8
DEFAULT_255_1_388
10
14.1777997
20
23.0272353
11
14.1777997
21
23.3010153
0
LINE
8
DEFAULT_255_1_388
10
13.6817428
20
23.3136652
11
13.6817428
21
23.0462102
0
ARC
8
DEFAULT_255_1_388
10
12.9671925
20
23.0669118
40
1.3777776
50
353.8440855
51
0.2287917
0
ARC
8
DEFAULT_255_1_388
10
13.4890942
20
23.0086414
40
0.852639
50
344.4934746
51
353.9763743
0
ARC
8
DEFAULT_255_1_388
10
13.8257749
20
22.9129191
40
0.5026273
50
329.2803599
51
344.7473406
0
ARC
8
DEFAULT_255_1_388
10
13.9373245
20
22.8517038
40
0.3754848
50
324.9361395
51
328.6153007
0
ARC
8
DEFAULT_255_1_388
10
13.9798895
20
22.8219586
40
0.3235566
50
280.5801797
51
324.9173226
0
ARC
8
DEFAULT_255_1_388
10
13.9347524
20
23.0099236
40
0.5167077
50
269.5979457
51
281.6732777
0
ARC
8
DEFAULT_255_1_388
10
13.9266427
20
22.9964113
40
0.5032026
50
256.6228565
51
270.5105488
0
ARC
8
DEFAULT_255_1_388
10
13.881417
20
22.8222345
40
0.3233092
50
215.8618351
51
257.2787793
0
ARC
8
DEFAULT_255_1_388
10
13.9962877
20
22.8993106
40
0.4615831
50
197.9695203
51
215.2622745
0
ARC
8
DEFAULT_255_1_388
10
14.2758552
20
22.9936641
40
0.7566307
50
187.8816486
51
198.2346584
0
ARC
8
DEFAULT_255_1_388
10
14.7211791
20
23.0579453
40
1.2065653
50
180.8977266
51
188.0054894
0
ARC
8
DEFAULT_255_1_388
10
15.0262004
20
23.06944
40
1.5117443
50
180.7434591
51
181.152202
0
ARC
8
DEFAULT_255_1_388
10
14.8587
20
23.2784371
40
1.3441277
50
173.7674302
51
180.2315596
0
ARC
8
DEFAULT_255_1_388
10
14.3504869
20
23.3358779
40
0.8326847
50
164.3058537
51
173.9000553
0
ARC
8
DEFAULT_255_1_388
10
14.0228869
20
23.4302652
40
0.4917711
50
148.7922028
51
164.5682288
0
ARC
8
DEFAULT_255_1_388
10
13.9159607
20
23.4899457
40
0.3694204
50
144.5883979
51
148.1161588
0
ARC
8
DEFAULT_255_1_388
10
13.8772352
20
23.5169667
40
0.322202
50
101.6440149
51
144.5142619
0
ARC
8
DEFAULT_255_1_388
10
13.9250544
20
23.3269337
40
0.5180451
50
89.528284
51
102.5820197
0
ARC
8
DEFAULT_255_1_388
10
13.9339536
20
23.3225376
40
0.5224441
50
77.0437914
51
90.508231
0
ARC
8
DEFAULT_255_1_388
10
13.979179
20
23.5073272
40
0.3322297
50
48.2777708
51
77.4996087
0
ARC
8
DEFAULT_255_1_388
10
13.987353
20
23.5218557
40
0.315966
50
36.3141586
51
47.6307332
0
ARC
8
DEFAULT_255_1_388
10
13.8896252
20
23.4560159
40
0.4337313
50
18.2931065
51
35.6770203
0
ARC
8
DEFAULT_255_1_388
10
13.6035093
20
23.3578107
40
0.7362203
50
8.0246996
51
18.5605636
0
ARC
8
DEFAULT_255_1_388
10
13.1351448
20
23.2886432
40
1.2096583
50
1.127539
51
8.1718423
0
ARC
8
DEFAULT_255_1_388
10
12.7702582
20
23.2743374
40
1.5747719
50
0.5432713
51
1.38669
0
ARC
8
DEFAULT_255_1_388
10
12.975996
20
23.3050163
40
1.2018103
50
359.8092569
51
4.9408001
0
ARC
8
DEFAULT_255_1_388
10
13.4496542
20
23.34729
40
0.7262727
50
4.8364937
51
12.2906017
0
ARC
8
DEFAULT_255_1_388
10
13.7596007
20
23.4163485
40
0.4087324
50
12.0806994
51
23.8171225
0
ARC
8
DEFAULT_255_1_388
10
13.8916403
20
23.4722508
40
0.2653719
50
24.2874621
51
31.3934353
0
ARC
8
DEFAULT_255_1_388
10
13.9506838
20
23.5108822
40
0.1948607
50
30.7407708
51
82.4658033
0
ARC
8
DEFAULT_255_1_388
10
13.9304499
20
23.4115017
40
0.2961198
50
81.1057101
51
90.2187368
0
ARC
8
DEFAULT_255_1_388
10
13.9264311
20
23.4405421
40
0.2670929
50
89.380395
51
105.6763916
0
ARC
8
DEFAULT_255_1_388
10
13.9058033
20
23.515532
40
0.1893189
50
105.7980655
51
149.7387869
0
ARC
8
DEFAULT_255_1_388
10
14.0255173
20
23.4435719
40
0.3289892
50
149.4208441
51
163.628295
0
ARC
8
DEFAULT_255_1_388
10
14.2607403
20
23.3718345
40
0.5749004
50
163.3764549
51
172.141138
0
ARC
8
DEFAULT_255_1_388
10
14.6320124
20
23.3186582
40
0.9499585
50
172.0258462
51
178.0705453
0
ARC
8
DEFAULT_255_1_388
10
14.9741677
20
23.3024682
40
1.2924734
50
177.8639301
51
179.5036263
0
ARC
8
DEFAULT_255_1_388
10
14.8522696
20
23.0421151
40
1.170534
50
179.7995545
51
185.246089
0
ARC
8
DEFAULT_255_1_388
10
14.3974289
20
22.9990404
40
0.7136613
50
185.1411911
51
193.0082205
0
ARC
8
DEFAULT_255_1_388
10
14.1000549
20
22.9287441
40
0.4080987
50
192.7897338
51
205.2507384
0
ARC
8
DEFAULT_255_1_388
10
13.9822759
20
22.8761538
40
0.2791522
50
205.8001921
51
211.2545876
0
ARC
8
DEFAULT_255_1_388
10
13.9234299
20
22.8367132
40
0.2084074
50
210.3789935
51
238.4007996
0
ARC
8
DEFAULT_255_1_388
10
13.9212385
20
22.8419786
40
0.2117943
50
239.6521916
51
265.9793852
0
ARC
8
DEFAULT_255_1_388
10
13.9308233
20
22.9176358
40
0.2879689
50
265.1324455
51
270.0603288
0
ARC
8
DEFAULT_255_1_388
10
13.9340611
20
22.8811418
40
0.2514919
50
269.3314378
51
287.2180039
0
ARC
8
DEFAULT_255_1_388
10
13.9495693
20
22.8245291
40
0.1928357
50
287.7957942
51
329.0808983
0
ARC
8
DEFAULT_255_1_388
10
13.841845
20
22.8917651
40
0.319808
50
328.6635261
51
343.3325043
0
ARC
8
DEFAULT_255_1_388
10
13.5973908
20
22.9679195
40
0.5758408
50
343.0498092
51
351.9392499
0
ARC
8
DEFAULT_255_1_388
10
13.207323
20
23.0254205
40
0.9701202
50
351.8071632
51
357.7957897
0
ARC
8
DEFAULT_255_1_388
10
12.8438707
20
23.0442724
40
1.3340376
50
357.5870923
51
359.2682493
0
LINE
8
DEFAULT_255_1_388
10
15.3840582
20
23.289269
11
15.3840582
21
23.0724135
0
LINE
8
DEFAULT_255_1_388
10
14.5536825
20
23.0498244
11
14.5536825
21
23.2730048
0
LINE
8
DEFAULT_255_1_388
10
15.2168988
20
23.0272353
11
15.2168988
21
23.3010153
0
LINE
8
DEFAULT_255_1_388
10
14.7208419
20
23.3136652
11
14.7208419
21
23.0462102
0
ARC
8
DEFAULT_255_1_388
10
14.0062916
20
23.0669118
40
1.3777776
50
353.8440855
51
0.2287917
0
ARC
8
DEFAULT_255_1_388
10
14.5281933
20
23.0086414
40
0.852639
50
344.4934746
51
353.9763743
0
ARC
8
DEFAULT_255_1_388
10
14.8648741
20
22.9129191
40
0.5026273
50
329.2803599
51
344.7473406
0
ARC
8
DEFAULT_255_1_388
10
14.9764236
20
22.8517038
40
0.3754848
50
324.9361395
51
328.6153007
0
ARC
8
DEFAULT_255_1_388
10
15.0189886
20
22.8219586
40
0.3235566
50
280.5801797
51
324.9173226
0
ARC
8
DEFAULT_255_1_388
10
14.9738515
20
23.0099236
40
0.5167077
50
269.5979457
51
281.6732777
0
ARC
8
DEFAULT_255_1_388
10
14.9657418
20
22.9964113
40
0.5032026
50
256.6228565
51
270.5105488
0
ARC
8
DEFAULT_255_1_388
10
14.9205161
20
22.8222345
40
0.3233092
50
215.8618351
51
257.2787793
0
ARC
8
DEFAULT_255_1_388
10
15.0353868
20
22.8993106
40
0.4615831
50
197.9695203
51
215.2622745
0
ARC
8
DEFAULT_255_1_388
10
15.3149544
20
22.9936641
40
0.7566307
50
187.8816486
51
198.2346584
0
ARC
8
DEFAULT_255_1_388
10
15.7602782
20
23.0579453
40
1.2065653
50
180.8977266
51
188.0054894
0
ARC
8
DEFAULT_255_1_388
10
16.0652996
20
23.06944
40
1.5117443
50
180.7434591
51
181.152202
0
ARC
8
DEFAULT_255_1_388
10
15.8977992
20
23.2784371
40
1.3441277
50
173.7674302
51
180.2315596
0
ARC
8
DEFAULT_255_1_388
10
15.389586
20
23.3358779
40
0.8326847
50
164.3058537
51
173.9000553
0
ARC
8
DEFAULT_255_1_388
10
15.061986
20
23.4302652
40
0.4917711
50
148.7922028
51
164.5682288
0
ARC
8
DEFAULT_255_1_388
10
14.9550598
20
23.4899457
40
0.3694204
50
144.5883979
51
148.1161588
0
ARC
8
DEFAULT_255_1_388
10
14.9163343
20
23.5169667
40
0.322202
50
101.6440149
51
144.5142619
0
ARC
8
DEFAULT_255_1_388
10
14.9641535
20
23.3269337
40
0.5180451
50
89.528284
51
102.5820197
0
ARC
8
DEFAULT_255_1_388
10
14.9730527
20
23.3225376
40
0.5224441
50
77.0437914
51
90.508231
0
ARC
8
DEFAULT_255_1_388
10
15.0182781
20
23.5073272
40
0.3322297
50
48.2777708
51
77.4996087
0
ARC
8
DEFAULT_255_1_388
10
15.0264521
20
23.5218557
40
0.315966
50
36.3141586
51
47.6307332
0
ARC
8
DEFAULT_255_1_388
10
14.9287243
20
23.4560159
40
0.4337313
50
18.2931065
51
35.6770203
0
ARC
8
DEFAULT_255_1_388
10
14.6426084
20
23.3578107
40
0.7362203
50
8.0246996
51
18.5605636
0
ARC
8
DEFAULT_255_1_388
10
14.1742439
20
23.2886432
40
1.2096583
50
1.127539
51
8.1718423
0
ARC
8
DEFAULT_255_1_388
10
13.8093573
20
23.2743374
40
1.5747719
50
0.5432713
51
1.38669
0
ARC
8
DEFAULT_255_1_388
10
14.0150952
20
23.3050163
40
1.2018103
50
359.8092569
51
4.9408001
0
ARC
8
DEFAULT_255_1_388
10
14.4887533
20
23.34729
40
0.7262727
50
4.8364937
51
12.2906017
0
ARC
8
DEFAULT_255_1_388
10
14.7986998
20
23.4163485
40
0.4087324
50
12.0806994
51
23.8171225
0
ARC
8
DEFAULT_255_1_388
10
14.9307394
20
23.4722508
40
0.2653719
50
24.2874621
51
31.3934353
0
ARC
8
DEFAULT_255_1_388
10
14.989783
20
23.5108822
40
0.1948607
50
30.7407708
51
82.4658033
0
ARC
8
DEFAULT_255_1_388
10
14.969549
20
23.4115017
40
0.2961198
50
81.1057101
51
90.2187368
0
ARC
8
DEFAULT_255_1_388
10
14.9655302
20
23.4405421
40
0.2670929
50
89.380395
51
105.6763916
0
ARC
8
DEFAULT_255_1_388
10
14.9449024
20
23.515532
40
0.1893189
50
105.7980655
51
149.7387869
0
ARC
8
DEFAULT_255_1_388
10
15.0646164
20
23.4435719
40
0.3289892
50
149.4208441
51
163.628295
0
ARC
8
DEFAULT_255_1_388
10
15.2998394
20
23.3718345
40
0.5749004
50
163.3764549
51
172.141138
0
ARC
8
DEFAULT_255_1_388
10
15.6711115
20
23.3186582
40
0.9499585
50
172.0258462
51
178.0705453
0
ARC
8
DEFAULT_255_1_388
10
16.0132668
20
23.3024682
40
1.2924734
50
177.8639301
51
179.5036263
0
ARC
8
DEFAULT_255_1_388
10
15.8913687
20
23.0421151
40
1.170534
50
179.7995545
51
185.246089
0
ARC
8
DEFAULT_255_1_388
10
15.436528
20
22.9990404
40
0.7136613
50
185.1411911
51
193.0082205
0
ARC
8
DEFAULT_255_1_388
10
15.1391541
20
22.9287441
40
0.4080987
50
192.7897338
51
205.2507384
0
ARC
8
DEFAULT_255_1_388
10
15.0213751
20
22.8761538
40
0.2791522
50
205.8001921
51
211.2545876
0
ARC
8
DEFAULT_255_1_388
10
14.962529
20
22.8367132
40
0.2084074
50
210.3789935
51
238.4007996
0
ARC
8
DEFAULT_255_1_388
10
14.9603376
20
22.8419786
40
0.2117943
50
239.6521916
51
265.9793852
0
ARC
8
DEFAULT_255_1_388
10
14.9699225
20
22.9176358
40
0.2879689
50
265.1324455
51
270.0603288
0
ARC
8
DEFAULT_255_1_388
10
14.9731602
20
22.8811418
40
0.2514919
50
269.3314378
51
287.2180039
0
ARC
8
DEFAULT_255_1_388
10
14.9886684
20
22.8245291
40
0.1928357
50
287.7957942
51
329.0808983
0
ARC
8
DEFAULT_255_1_388
10
14.8809441
20
22.8917651
40
0.319808
50
328.6635261
51
343.3325043
0
ARC
8
DEFAULT_255_1_388
10
14.63649
20
22.9679195
40
0.5758408
50
343.0498092
51
351.9392499
0
ARC
8
DEFAULT_255_1_388
10
14.2464221
20
23.0254205
40
0.9701202
50
351.8071632
51
357.7957897
0
ARC
8
DEFAULT_255_1_388
10
13.8829698
20
23.0442724
40
1.3340376
50
357.5870923
51
359.2682493
0
LINE
8
DEFAULT_255_1_388
10
15.963243
20
23.1383737
11
15.963243
21
23.0019355
0
LINE
8
DEFAULT_255_1_388
10
15.963243
20
23.0019355
11
15.5223036
21
23.0019355
0
LINE
8
DEFAULT_255_1_388
10
15.5223036
20
23.0019355
11
15.5223036
21
23.1383737
0
LINE
8
DEFAULT_255_1_388
10
15.5223036
20
23.1383737
11
15.963243
21
23.1383737
0
LINE
8
DEFAULT_255_1_388
10
16.26413
20
23.8268898
11
16.5812811
21
23.3227009
0
LINE
8
DEFAULT_255_1_388
10
16.5812811
20
23.3227009
11
16.8966251
21
23.8268898
0
LINE
8
DEFAULT_255_1_388
10
16.8966251
20
23.8268898
11
17.1008307
21
23.8268898
0
LINE
8
DEFAULT_255_1_388
10
17.1008307
20
23.8268898
11
16.685191
21
23.1745163
0
LINE
8
DEFAULT_255_1_388
10
16.685191
20
23.1745163
11
17.1107699
21
22.5113
0
LINE
8
DEFAULT_255_1_388
10
17.1107699
20
22.5113
11
16.9047572
21
22.5113
0
LINE
8
DEFAULT_255_1_388
10
16.9047572
20
22.5113
11
16.5812811
21
23.0245246
0
LINE
8
DEFAULT_255_1_388
10
16.5812811
20
23.0245246
11
16.2559979
21
22.5113
0
LINE
8
DEFAULT_255_1_388
10
16.2559979
20
22.5113
11
16.0508888
21
22.5113
0
LINE
8
DEFAULT_255_1_388
10
16.0508888
20
22.5113
11
16.4773712
21
23.1745163
0
LINE
8
DEFAULT_255_1_388
10
16.4773712
20
23.1745163
11
16.060828
21
23.8268898
0
LINE
8
DEFAULT_255_1_388
10
16.060828
20
23.8268898
11
16.26413
21
23.8268898
0
LINE
8
DEFAULT_255_1_388
10
18.0830052
20
22.9287468
11
18.2573932
21
22.9287468
0
LINE
8
DEFAULT_255_1_388
10
17.2444974
20
23.1076525
11
17.2444974
21
23.2341516
0
LINE
8
DEFAULT_255_1_388
10
18.2573932
20
23.4040217
11
18.0830052
21
23.4040217
0
LINE
8
DEFAULT_255_1_388
10
17.4188854
20
23.2296337
11
17.4188854
21
23.1022312
0
ARC
8
DEFAULT_255_1_388
10
17.6408166
20
22.9959329
40
0.6202263
50
340.1774904
51
353.7812217
0
ARC
8
DEFAULT_255_1_388
10
17.8176018
20
22.9300893
40
0.4315926
50
311.4560052
51
340.4420756
0
ARC
8
DEFAULT_255_1_388
10
17.8138558
20
22.9425665
40
0.4434573
50
282.4332229
51
310.7514507
0
ARC
8
DEFAULT_255_1_388
10
17.7644376
20
23.1467703
40
0.6535262
50
269.9358869
51
282.8096729
0
ARC
8
DEFAULT_255_1_388
10
17.7586316
20
23.2980329
40
0.8048043
50
269.9995752
51
270.3612856
0
ARC
8
DEFAULT_255_1_388
10
17.7526806
20
23.0181781
40
0.5249831
50
250.7885263
51
270.6488451
0
ARC
8
DEFAULT_255_1_388
10
17.733763
20
22.9464853
40
0.4510942
50
219.3628377
51
250.0611024
0
ARC
8
DEFAULT_255_1_388
10
17.8270504
20
23.0257653
40
0.5735046
50
193.5480293
51
219.5755675
0
ARC
8
DEFAULT_255_1_388
10
18.0938713
20
23.095052
40
0.849146
50
181.1220183
51
193.8754971
0
ARC
8
DEFAULT_255_1_388
10
18.3261947
20
23.1074914
40
1.0816971
50
179.9914644
51
181.5398227
0
ARC
8
DEFAULT_255_1_388
10
18.1185257
20
23.2383586
40
0.8740384
50
169.5837606
51
180.275782
0
ARC
8
DEFAULT_255_1_388
10
17.9118605
20
23.2765439
40
0.6638751
50
155.0367033
51
169.6002779
0
ARC
8
DEFAULT_255_1_388
10
17.7841064
20
23.3381336
40
0.5220662
50
136.7831557
51
155.2472983
0
ARC
8
DEFAULT_255_1_388
10
17.7402854
20
23.3753577
40
0.4646502
50
121.7633063
51
136.4281161
0
ARC
8
DEFAULT_255_1_388
10
17.7554694
20
23.3473049
40
0.4964979
50
95.6460018
51
121.5489589
0
ARC
8
DEFAULT_255_1_388
10
17.7731668
20
23.2225704
40
0.6223912
50
89.9245727
51
96.1375919
0
ARC
8
DEFAULT_255_1_388
10
17.7788374
20
23.2359721
40
0.6090084
50
76.6779212
51
90.456405
0
ARC
8
DEFAULT_255_1_388
10
17.8231186
20
23.414906
40
0.42469
50
47.4858803
51
76.9287069
0
ARC
8
DEFAULT_255_1_388
10
17.80658
20
23.4036623
40
0.4441778
50
16.5424081
51
46.8934505
0
ARC
8
DEFAULT_255_1_388
10
17.625685
20
23.3442265
40
0.6345318
50
5.4072971
51
17.0363711
0
ARC
8
DEFAULT_255_1_388
10
17.4638575
20
23.3182304
40
0.6250632
50
7.8888693
51
15.9242022
0
ARC
8
DEFAULT_255_1_388
10
17.687356
20
23.3831309
40
0.3923364
50
15.7650676
51
27.9410069
0
ARC
8
DEFAULT_255_1_388
10
17.811573
20
23.4496317
40
0.2514401
50
27.8167196
51
46.4007942
0
ARC
8
DEFAULT_255_1_388
10
17.8171571
20
23.4489882
40
0.2480958
50
47.4372362
51
75.0695672
0
ARC
8
DEFAULT_255_1_388
10
17.7824407
20
23.3281277
40
0.3738281
50
74.7009379
51
87.8124314
0
ARC
8
DEFAULT_255_1_388
10
17.7742024
20
23.2097659
40
0.4924321
50
87.3802571
51
90.0251599
0
ARC
8
DEFAULT_255_1_388
10
17.7698671
20
23.3417997
40
0.3604218
50
89.3451886
51
108.5744412
0
ARC
8
DEFAULT_255_1_388
10
17.7544664
20
23.3995836
40
0.3007661
50
109.2998307
51
143.3037387
0
ARC
8
DEFAULT_255_1_388
10
17.8401953
20
23.3336584
40
0.4089031
50
143.075267
51
163.1918576
0
ARC
8
DEFAULT_255_1_388
10
18.0597788
20
23.2643652
40
0.6391492
50
162.9375929
51
174.6208776
0
ARC
8
DEFAULT_255_1_388
10
18.355217
20
23.2319711
40
0.9363344
50
174.342123
51
180.1430283
0
ARC
8
DEFAULT_255_1_388
10
18.2504711
20
23.0976117
40
0.8315986
50
179.6817261
51
189.150555
0
ARC
8
DEFAULT_255_1_388
10
17.969146
20
23.0507559
40
0.5464044
50
188.9911061
51
203.5772363
0
ARC
8
DEFAULT_255_1_388
10
17.8476752
20
23.0003539
40
0.4149206
50
203.9075402
51
215.1312435
0
ARC
8
DEFAULT_255_1_388
10
17.7438549
20
22.9198907
40
0.2837747
50
213.9071511
51
263.8848919
0
ARC
8
DEFAULT_255_1_388
10
17.7579543
20
23.0081519
40
0.3730641
50
263.1757928
51
270.1031044
0
ARC
8
DEFAULT_255_1_388
10
17.7615622
20
23.1484511
40
0.5133712
50
269.6722503
51
279.0606936
0
ARC
8
DEFAULT_255_1_388
10
17.7915778
20
22.967015
40
0.3294739
50
278.8749101
51
293.6349581
0
ARC
8
DEFAULT_255_1_388
10
17.8275981
20
22.8824251
40
0.2375405
50
293.8553806
51
310.0518171
0
ARC
8
DEFAULT_255_1_388
10
17.828149
20
22.8754021
40
0.2318463
50
311.0644687
51
332.0111037
0
ARC
8
DEFAULT_255_1_388
10
17.6940163
20
22.9493702
40
0.3850112
50
331.6586806
51
343.2877423
0
ARC
8
DEFAULT_255_1_388
10
17.4619629
20
23.0206806
40
0.6277712
50
343.1446576
51
351.0103568
0
ARC
8
DEFAULT_255_1_388
10
17.2986952
20
23.0506873
40
0.7937327
50
350.71248
51
351.1626997
0
LINE
8
DEFAULT_255_1_388
10
4.8805318
20
20.6633382
11
4.8805318
21
20.5269
0
LINE
8
DEFAULT_255_1_388
10
4.8805318
20
20.5269
11
4.0185313
21
20.5269
0
LINE
8
DEFAULT_255_1_388
10
4.0185313
20
20.5269
11
4.0185313
21
20.6470741
0
LINE
8
DEFAULT_255_1_388
10
4.0185313
20
20.6470741
11
4.4739278
21
21.1530702
0
LINE
8
DEFAULT_255_1_388
10
4.1603909
20
21.4548607
11
3.9932315
21
21.4548607
0
LINE
8
DEFAULT_255_1_388
10
4.5724163
20
21.045546
11
4.2200262
21
20.6633382
0
LINE
8
DEFAULT_255_1_388
10
4.2200262
20
20.6633382
11
4.8805318
21
20.6633382
0
ARC
8
DEFAULT_255_1_388
10
2.9563337
20
22.4950983
40
2.0258655
50
318.5132526
51
320.7829045
0
ARC
8
DEFAULT_255_1_388
10
3.5511294
20
22.0109929
40
1.2589638
50
320.7372878
51
323.9739031
0
ARC
8
DEFAULT_255_1_388
10
3.9920226
20
21.6915554
40
0.7145141
50
323.8962701
51
328.64194
0
ARC
8
DEFAULT_255_1_388
10
4.2222484
20
21.5495545
40
0.4440242
50
328.8294576
51
331.7891185
0
ARC
8
DEFAULT_255_1_388
10
4.3344804
20
21.4916374
40
0.3177517
50
331.4254512
51
352.9365785
0
ARC
8
DEFAULT_255_1_388
10
4.3497804
20
21.488205
40
0.3021496
50
353.2257659
51
0.0166158
0
ARC
8
DEFAULT_255_1_388
10
4.3734564
20
21.4907894
40
0.2784847
50
359.486299
51
15.9343185
0
ARC
8
DEFAULT_255_1_388
10
4.4304831
20
21.5061269
40
0.2194403
50
16.1712913
51
43.5286088
0
ARC
8
DEFAULT_255_1_388
10
4.4391776
20
21.5148191
40
0.2071504
50
43.4417391
51
83.1661095
0
ARC
8
DEFAULT_255_1_388
10
4.4240937
20
21.4319316
40
0.2912888
50
82.160179
51
90.1505708
0
ARC
8
DEFAULT_255_1_388
10
4.4205418
20
21.3715279
40
0.3517025
50
89.5460741
51
102.5418361
0
ARC
8
DEFAULT_255_1_388
10
4.3932138
20
21.4874933
40
0.2325748
50
102.1738499
51
129.206123
0
ARC
8
DEFAULT_255_1_388
10
4.3843592
20
21.5014664
40
0.2161591
50
129.72865
51
135.753947
0
ARC
8
DEFAULT_255_1_388
10
4.3980074
20
21.4905728
40
0.2335433
50
136.1757367
51
166.3673339
0
ARC
8
DEFAULT_255_1_388
10
4.5112762
20
21.4602148
40
0.3507873
50
165.9090694
51
178.8684636
0
ARC
8
DEFAULT_255_1_388
10
4.6088534
20
21.4549263
40
0.4484624
50
178.4391136
51
180.0083808
0
ARC
8
DEFAULT_255_1_388
10
4.4509235
20
21.4593197
40
0.4577138
50
163.2878482
51
180.5581842
0
ARC
8
DEFAULT_255_1_388
10
4.3607276
20
21.4841393
40
0.3641968
50
133.4540601
51
162.947111
0
ARC
8
DEFAULT_255_1_388
10
4.3808158
20
21.4627789
40
0.3935189
50
100.7869829
51
133.4382499
0
ARC
8
DEFAULT_255_1_388
10
4.4199403
20
21.2885399
40
0.5720313
50
89.660664
51
101.3702276
0
ARC
8
DEFAULT_255_1_388
10
4.4274012
20
21.2954263
40
0.5651495
50
78.2172678
51
90.412935
0
ARC
8
DEFAULT_255_1_388
10
4.4673478
20
21.4781511
40
0.378122
50
55.9269121
51
78.4888449
0
ARC
8
DEFAULT_255_1_388
10
4.4894193
20
21.5162187
40
0.3342379
50
47.929771
51
55.4049217
0
ARC
8
DEFAULT_255_1_388
10
4.5008723
20
21.5278618
40
0.3179217
50
4.334829
51
48.0560205
0
ARC
8
DEFAULT_255_1_388
10
4.3776525
20
21.5087487
40
0.442341
50
359.9251713
51
5.5971671
0
ARC
8
DEFAULT_255_1_388
10
4.425868
20
21.5150728
40
0.3941854
50
337.8914027
51
358.9967534
0
ARC
8
DEFAULT_255_1_388
10
4.120625
20
21.6328295
40
0.7213271
50
326.9132501
51
338.3508308
0
ARC
8
DEFAULT_255_1_388
10
3.6722362
20
21.9202105
40
1.2538973
50
319.6471833
51
327.0959558
0
ARC
8
DEFAULT_255_1_388
10
3.240902
20
22.276005
40
1.8129975
50
317.2588228
51
319.9045804
0
LINE
8
DEFAULT_255_1_388
10
5.7633143
20
21.8424898
11
5.7633143
21
20.968743
0
LINE
8
DEFAULT_255_1_388
10
5.7633143
20
20.968743
11
5.9458343
21
20.968743
0
LINE
8
DEFAULT_255_1_388
10
5.9458343
20
20.968743
11
5.9458343
21
20.8323048
0
LINE
8
DEFAULT_255_1_388
10
5.9458343
20
20.8323048
11
5.7633143
21
20.8323048
0
LINE
8
DEFAULT_255_1_388
10
5.7633143
20
20.8323048
11
5.7633143
21
20.5269
0
LINE
8
DEFAULT_255_1_388
10
5.7633143
20
20.5269
11
5.5952513
21
20.5269
0
LINE
8
DEFAULT_255_1_388
10
5.5952513
20
20.5269
11
5.5952513
21
20.8323048
0
LINE
8
DEFAULT_255_1_388
10
5.5952513
20
20.8323048
11
4.996188
21
20.8323048
0
LINE
8
DEFAULT_255_1_388
10
4.996188
20
20.8323048
11
4.996188
21
20.9307933
0
LINE
8
DEFAULT_255_1_388
10
4.996188
20
20.9307933
11
5.5853121
21
21.8424898
0
LINE
8
DEFAULT_255_1_388
10
5.5853121
20
21.8424898
11
5.7633143
21
21.8424898
0
LINE
8
DEFAULT_255_1_388
10
5.5753729
20
21.5777455
11
5.1859366
21
20.968743
0
LINE
8
DEFAULT_255_1_388
10
5.1859366
20
20.968743
11
5.5952513
21
20.968743
0
LINE
8
DEFAULT_255_1_388
10
5.5952513
20
20.968743
11
5.5952513
21
21.613888
0
LINE
8
DEFAULT_255_1_388
10
5.5952513
20
21.613888
11
5.5753729
21
21.5777455
0
LINE
8
DEFAULT_255_1_388
10
6.201543
20
21.8424898
11
6.5756187
21
20.7573089
0
LINE
8
DEFAULT_255_1_388
10
6.5756187
20
20.7573089
11
6.9515015
21
21.8424898
0
LINE
8
DEFAULT_255_1_388
10
6.9515015
20
21.8424898
11
7.14125
21
21.8424898
0
LINE
8
DEFAULT_255_1_388
10
7.14125
20
21.8424898
11
6.6533252
21
20.5269
0
LINE
8
DEFAULT_255_1_388
10
6.6533252
20
20.5269
11
6.4997193
21
20.5269
0
LINE
8
DEFAULT_255_1_388
10
6.4997193
20
20.5269
11
6.012698
21
21.8424898
0
LINE
8
DEFAULT_255_1_388
10
6.012698
20
21.8424898
11
6.201543
21
21.8424898
0
LINE
8
DEFAULT_255_1_388
10
4.7433359
20
5.4018585
11
4.7433359
21
5.2599989
0
LINE
8
DEFAULT_255_1_388
10
4.7433359
20
5.2599989
11
4.1731868
21
5.2599989
0
LINE
8
DEFAULT_255_1_388
10
4.1731868
20
5.2599989
11
4.1731868
21
4.7937596
0
LINE
8
DEFAULT_255_1_388
10
4.1731868
20
4.7937596
11
4.8354995
21
4.7937596
0
LINE
8
DEFAULT_255_1_388
10
4.8354995
20
4.7937596
11
4.8354995
21
4.6519
0
LINE
8
DEFAULT_255_1_388
10
4.8354995
20
4.6519
11
3.9997024
21
4.6519
0
LINE
8
DEFAULT_255_1_388
10
3.9997024
20
4.6519
11
3.9997024
21
5.9674898
0
LINE
8
DEFAULT_255_1_388
10
3.9997024
20
5.9674898
11
4.8264639
21
5.9674898
0
LINE
8
DEFAULT_255_1_388
10
4.8264639
20
5.9674898
11
4.8264639
21
5.8247267
0
LINE
8
DEFAULT_255_1_388
10
4.8264639
20
5.8247267
11
4.1731868
21
5.8247267
0
LINE
8
DEFAULT_255_1_388
10
4.1731868
20
5.8247267
11
4.1731868
21
5.4018585
0
LINE
8
DEFAULT_255_1_388
10
4.1731868
20
5.4018585
11
4.7433359
21
5.4018585
0
LINE
8
DEFAULT_255_1_388
10
5.9785085
20
5.9674898
11
5.9785085
21
5.8247267
0
LINE
8
DEFAULT_255_1_388
10
5.9785085
20
5.8247267
11
5.5556404
21
5.8247267
0
LINE
8
DEFAULT_255_1_388
10
5.5556404
20
5.8247267
11
5.5556404
21
4.6519
0
LINE
8
DEFAULT_255_1_388
10
5.5556404
20
4.6519
11
5.3830596
21
4.6519
0
LINE
8
DEFAULT_255_1_388
10
5.3830596
20
4.6519
11
5.3830596
21
5.8247267
0
LINE
8
DEFAULT_255_1_388
10
5.3830596
20
5.8247267
11
4.961095
21
5.8247267
0
LINE
8
DEFAULT_255_1_388
10
4.961095
20
5.8247267
11
4.961095
21
5.9674898
0
LINE
8
DEFAULT_255_1_388
10
4.961095
20
5.9674898
11
5.9785085
21
5.9674898
0
LINE
8
DEFAULT_255_1_388
10
7.1847671
20
5.9674898
11
7.1847671
21
4.6519
0
LINE
8
DEFAULT_255_1_388
10
7.1847671
20
4.6519
11
7.0103792
21
4.6519
0
LINE
8
DEFAULT_255_1_388
10
7.0103792
20
4.6519
11
7.0103792
21
5.2599989
0
LINE
8
DEFAULT_255_1_388
10
7.0103792
20
5.2599989
11
6.3471628
21
5.2599989
0
LINE
8
DEFAULT_255_1_388
10
6.3471628
20
5.2599989
11
6.3471628
21
4.6519
0
LINE
8
DEFAULT_255_1_388
10
6.3471628
20
4.6519
11
6.1736785
21
4.6519
0
LINE
8
DEFAULT_255_1_388
10
6.1736785
20
4.6519
11
6.1736785
21
5.9674898
0
LINE
8
DEFAULT_255_1_388
10
6.1736785
20
5.9674898
11
6.3471628
21
5.9674898
0
LINE
8
DEFAULT_255_1_388
10
6.3471628
20
5.9674898
11
6.3471628
21
5.4018585
0
LINE
8
DEFAULT_255_1_388
10
6.3471628
20
5.4018585
11
7.0103792
21
5.4018585
0
LINE
8
DEFAULT_255_1_388
10
7.0103792
20
5.4018585
11
7.0103792
21
5.9674898
0
LINE
8
DEFAULT_255_1_388
10
7.0103792
20
5.9674898
11
7.1847671
21
5.9674898
0
LINE
8
DEFAULT_255_1_388
10
8.311512
20
4.7883382
11
8.311512
21
4.6519
0
LINE
8
DEFAULT_255_1_388
10
8.311512
20
4.6519
11
7.4495115
21
4.6519
0
LINE
8
DEFAULT_255_1_388
10
7.4495115
20
4.6519
11
7.4495115
21
4.7720741
0
LINE
8
DEFAULT_255_1_388
10
7.4495115
20
4.7720741
11
7.904908
21
5.2780702
0
LINE
8
DEFAULT_255_1_388
10
7.5913711
20
5.5798607
11
7.4242117
21
5.5798607
0
LINE
8
DEFAULT_255_1_388
10
8.0033965
20
5.170546
11
7.6510063
21
4.7883382
0
LINE
8
DEFAULT_255_1_388
10
7.6510063
20
4.7883382
11
8.311512
21
4.7883382
0
ARC
8
DEFAULT_255_1_388
10
6.3873139
20
6.6200983
40
2.0258655
50
318.5132526
51
320.7829045
0
ARC
8
DEFAULT_255_1_388
10
6.9821096
20
6.1359929
40
1.2589638
50
320.7372878
51
323.9739031
0
ARC
8
DEFAULT_255_1_388
10
7.4230028
20
5.8165554
40
0.7145141
50
323.8962701
51
328.64194
0
ARC
8
DEFAULT_255_1_388
10
7.6532285
20
5.6745545
40
0.4440242
50
328.8294576
51
331.7891185
0
ARC
8
DEFAULT_255_1_388
10
7.7654605
20
5.6166374
40
0.3177517
50
331.4254512
51
352.9365785
0
ARC
8
DEFAULT_255_1_388
10
7.7807605
20
5.613205
40
0.3021496
50
353.2257659
51
0.0166158
0
ARC
8
DEFAULT_255_1_388
10
7.8044366
20
5.6157894
40
0.2784847
50
359.486299
51
15.9343185
0
ARC
8
DEFAULT_255_1_388
10
7.8614633
20
5.6311269
40
0.2194403
50
16.1712913
51
43.5286088
0
ARC
8
DEFAULT_255_1_388
10
7.8701577
20
5.6398191
40
0.2071504
50
43.4417391
51
83.1661095
0
ARC
8
DEFAULT_255_1_388
10
7.8550738
20
5.5569316
40
0.2912888
50
82.160179
51
90.1505708
0
ARC
8
DEFAULT_255_1_388
10
7.851522
20
5.4965279
40
0.3517025
50
89.5460741
51
102.5418361
0
ARC
8
DEFAULT_255_1_388
10
7.824194
20
5.6124933
40
0.2325748
50
102.1738499
51
129.206123
0
ARC
8
DEFAULT_255_1_388
10
7.8153393
20
5.6264664
40
0.2161591
50
129.72865
51
135.753947
0
ARC
8
DEFAULT_255_1_388
10
7.8289876
20
5.6155728
40
0.2335433
50
136.1757367
51
166.3673339
0
ARC
8
DEFAULT_255_1_388
10
7.9422564
20
5.5852148
40
0.3507873
50
165.9090694
51
178.8684636
0
ARC
8
DEFAULT_255_1_388
10
8.0398335
20
5.5799263
40
0.4484624
50
178.4391136
51
180.0083808
0
ARC
8
DEFAULT_255_1_388
10
7.8819037
20
5.5843197
40
0.4577138
50
163.2878482
51
180.5581842
0
ARC
8
DEFAULT_255_1_388
10
7.7917078
20
5.6091393
40
0.3641968
50
133.4540601
51
162.947111
0
ARC
8
DEFAULT_255_1_388
10
7.811796
20
5.5877789
40
0.3935189
50
100.7869829
51
133.4382499
0
ARC
8
DEFAULT_255_1_388
10
7.8509205
20
5.4135399
40
0.5720313
50
89.660664
51
101.3702276
0
ARC
8
DEFAULT_255_1_388
10
7.8583814
20
5.4204263
40
0.5651495
50
78.2172678
51
90.412935
0
ARC
8
DEFAULT_255_1_388
10
7.898328
20
5.6031511
40
0.378122
50
55.9269121
51
78.4888449
0
ARC
8
DEFAULT_255_1_388
10
7.9203995
20
5.6412187
40
0.3342379
50
47.929771
51
55.4049217
0
ARC
8
DEFAULT_255_1_388
10
7.9318525
20
5.6528618
40
0.3179217
50
4.334829
51
48.0560205
0
ARC
8
DEFAULT_255_1_388
10
7.8086327
20
5.6337487
40
0.442341
50
359.9251713
51
5.5971671
0
ARC
8
DEFAULT_255_1_388
10
7.8568481
20
5.6400728
40
0.3941854
50
337.8914027
51
358.9967534
0
ARC
8
DEFAULT_255_1_388
10
7.5516052
20
5.7578295
40
0.7213271
50
326.9132501
51
338.3508308
0
ARC
8
DEFAULT_255_1_388
10
7.1032163
20
6.0452105
40
1.2538973
50
319.6471833
51
327.0959558
0
ARC
8
DEFAULT_255_1_388
10
6.6718822
20
6.401005
40
1.8129975
50
317.2588228
51
319.9045804
0
LINE
8
DEFAULT_255_1_388
10
4.7357359
20
13.3393585
11
4.7357359
21
13.1974989
0
LINE
8
DEFAULT_255_1_388
10
4.7357359
20
13.1974989
11
4.1655868
21
13.1974989
0
LINE
8
DEFAULT_255_1_388
10
4.1655868
20
13.1974989
11
4.1655868
21
12.7312596
0
LINE
8
DEFAULT_255_1_388
10
4.1655868
20
12.7312596
11
4.8278995
21
12.7312596
0
LINE
8
DEFAULT_255_1_388
10
4.8278995
20
12.7312596
11
4.8278995
21
12.5894
0
LINE
8
DEFAULT_255_1_388
10
4.8278995
20
12.5894
11
3.9921024
21
12.5894
0
LINE
8
DEFAULT_255_1_388
10
3.9921024
20
12.5894
11
3.9921024
21
13.9049898
0
LINE
8
DEFAULT_255_1_388
10
3.9921024
20
13.9049898
11
4.8188639
21
13.9049898
0
LINE
8
DEFAULT_255_1_388
10
4.8188639
20
13.9049898
11
4.8188639
21
13.7622267
0
LINE
8
DEFAULT_255_1_388
10
4.8188639
20
13.7622267
11
4.1655868
21
13.7622267
0
LINE
8
DEFAULT_255_1_388
10
4.1655868
20
13.7622267
11
4.1655868
21
13.3393585
0
LINE
8
DEFAULT_255_1_388
10
4.1655868
20
13.3393585
11
4.7357359
21
13.3393585
0
LINE
8
DEFAULT_255_1_388
10
5.9709085
20
13.9049898
11
5.9709085
21
13.7622267
0
LINE
8
DEFAULT_255_1_388
10
5.9709085
20
13.7622267
11
5.5480404
21
13.7622267
0
LINE
8
DEFAULT_255_1_388
10
5.5480404
20
13.7622267
11
5.5480404
21
12.5894
0
LINE
8
DEFAULT_255_1_388
10
5.5480404
20
12.5894
11
5.3754596
21
12.5894
0
LINE
8
DEFAULT_255_1_388
10
5.3754596
20
12.5894
11
5.3754596
21
13.7622267
0
LINE
8
DEFAULT_255_1_388
10
5.3754596
20
13.7622267
11
4.953495
21
13.7622267
0
LINE
8
DEFAULT_255_1_388
10
4.953495
20
13.7622267
11
4.953495
21
13.9049898
0
LINE
8
DEFAULT_255_1_388
10
4.953495
20
13.9049898
11
5.9709085
21
13.9049898
0
LINE
8
DEFAULT_255_1_388
10
7.1771671
20
13.9049898
11
7.1771671
21
12.5894
0
LINE
8
DEFAULT_255_1_388
10
7.1771671
20
12.5894
11
7.0027792
21
12.5894
0
LINE
8
DEFAULT_255_1_388
10
7.0027792
20
12.5894
11
7.0027792
21
13.1974989
0
LINE
8
DEFAULT_255_1_388
10
7.0027792
20
13.1974989
11
6.3395628
21
13.1974989
0
LINE
8
DEFAULT_255_1_388
10
6.3395628
20
13.1974989
11
6.3395628
21
12.5894
0
LINE
8
DEFAULT_255_1_388
10
6.3395628
20
12.5894
11
6.1660785
21
12.5894
0
LINE
8
DEFAULT_255_1_388
10
6.1660785
20
12.5894
11
6.1660785
21
13.9049898
0
LINE
8
DEFAULT_255_1_388
10
6.1660785
20
13.9049898
11
6.3395628
21
13.9049898
0
LINE
8
DEFAULT_255_1_388
10
6.3395628
20
13.9049898
11
6.3395628
21
13.3393585
0
LINE
8
DEFAULT_255_1_388
10
6.3395628
20
13.3393585
11
7.0027792
21
13.3393585
0
LINE
8
DEFAULT_255_1_388
10
7.0027792
20
13.3393585
11
7.0027792
21
13.9049898
0
LINE
8
DEFAULT_255_1_388
10
7.0027792
20
13.9049898
11
7.1771671
21
13.9049898
0
LINE
8
DEFAULT_255_1_388
10
7.9912787
20
13.9113148
11
7.9912787
21
12.5894
0
LINE
8
DEFAULT_255_1_388
10
7.9912787
20
12.5894
11
7.8232157
21
12.5894
0
LINE
8
DEFAULT_255_1_388
10
7.8232157
20
12.5894
11
7.8232157
21
13.703495
0
LINE
8
DEFAULT_255_1_388
10
7.8232157
20
13.703495
11
7.4861861
21
13.5797066
0
LINE
8
DEFAULT_255_1_388
10
7.4861861
20
13.5797066
11
7.4861861
21
13.7315055
0
LINE
8
DEFAULT_255_1_388
10
7.4861861
20
13.7315055
11
7.9650753
21
13.9113148
0
LINE
8
DEFAULT_255_1_388
10
7.9650753
20
13.9113148
11
7.9912787
21
13.9113148
0
LINE
8
DEFAULT_255_1_388
10
23.1196856
20
21.304869
11
23.1196856
21
21.0880135
0
LINE
8
DEFAULT_255_1_388
10
22.2893099
20
21.0654244
11
22.2893099
21
21.2886048
0
LINE
8
DEFAULT_255_1_388
10
22.9525262
20
21.0428353
11
22.9525262
21
21.3166153
0
LINE
8
DEFAULT_255_1_388
10
22.4564693
20
21.3292652
11
22.4564693
21
21.0618102
0
ARC
8
DEFAULT_255_1_388
10
21.741919
20
21.0825118
40
1.3777776
50
353.8440855
51
0.2287917
0
ARC
8
DEFAULT_255_1_388
10
22.2638208
20
21.0242414
40
0.852639
50
344.4934746
51
353.9763743
0
ARC
8
DEFAULT_255_1_388
10
22.6005015
20
20.9285191
40
0.5026273
50
329.2803599
51
344.7473406
0
ARC
8
DEFAULT_255_1_388
10
22.7120511
20
20.8673038
40
0.3754848
50
324.9361395
51
328.6153007
0
ARC
8
DEFAULT_255_1_388
10
22.7546161
20
20.8375586
40
0.3235566
50
280.5801797
51
324.9173226
0
ARC
8
DEFAULT_255_1_388
10
22.7094789
20
21.0255236
40
0.5167077
50
269.5979457
51
281.6732777
0
ARC
8
DEFAULT_255_1_388
10
22.7013693
20
21.0120113
40
0.5032026
50
256.6228565
51
270.5105488
0
ARC
8
DEFAULT_255_1_388
10
22.6561435
20
20.8378345
40
0.3233092
50
215.8618351
51
257.2787793
0
ARC
8
DEFAULT_255_1_388
10
22.7710142
20
20.9149106
40
0.4615831
50
197.9695203
51
215.2622745
0
ARC
8
DEFAULT_255_1_388
10
23.0505818
20
21.0092641
40
0.7566307
50
187.8816486
51
198.2346584
0
ARC
8
DEFAULT_255_1_388
10
23.4959056
20
21.0735453
40
1.2065653
50
180.8977266
51
188.0054894
0
ARC
8
DEFAULT_255_1_388
10
23.800927
20
21.08504
40
1.5117443
50
180.7434591
51
181.152202
0
ARC
8
DEFAULT_255_1_388
10
23.6334266
20
21.2940371
40
1.3441277
50
173.7674302
51
180.2315596
0
ARC
8
DEFAULT_255_1_388
10
23.1252135
20
21.3514779
40
0.8326847
50
164.3058537
51
173.9000553
0
ARC
8
DEFAULT_255_1_388
10
22.7976135
20
21.4458652
40
0.4917711
50
148.7922028
51
164.5682288
0
ARC
8
DEFAULT_255_1_388
10
22.6906872
20
21.5055457
40
0.3694204
50
144.5883979
51
148.1161588
0
ARC
8
DEFAULT_255_1_388
10
22.6519618
20
21.5325667
40
0.322202
50
101.6440149
51
144.5142619
0
ARC
8
DEFAULT_255_1_388
10
22.699781
20
21.3425337
40
0.5180451
50
89.528284
51
102.5820197
0
ARC
8
DEFAULT_255_1_388
10
22.7086802
20
21.3381376
40
0.5224441
50
77.0437914
51
90.508231
0
ARC
8
DEFAULT_255_1_388
10
22.7539055
20
21.5229272
40
0.3322297
50
48.2777708
51
77.4996087
0
ARC
8
DEFAULT_255_1_388
10
22.7620795
20
21.5374557
40
0.315966
50
36.3141586
51
47.6307332
0
ARC
8
DEFAULT_255_1_388
10
22.6643518
20
21.4716159
40
0.4337313
50
18.2931065
51
35.6770203
0
ARC
8
DEFAULT_255_1_388
10
22.3782358
20
21.3734107
40
0.7362203
50
8.0246996
51
18.5605636
0
ARC
8
DEFAULT_255_1_388
10
21.9098714
20
21.3042432
40
1.2096583
50
1.127539
51
8.1718423
0
ARC
8
DEFAULT_255_1_388
10
21.5449847
20
21.2899374
40
1.5747719
50
0.5432713
51
1.38669
0
ARC
8
DEFAULT_255_1_388
10
21.7507226
20
21.3206163
40
1.2018103
50
359.8092569
51
4.9408001
0
ARC
8
DEFAULT_255_1_388
10
22.2243807
20
21.36289
40
0.7262727
50
4.8364937
51
12.2906017
0
ARC
8
DEFAULT_255_1_388
10
22.5343272
20
21.4319485
40
0.4087324
50
12.0806994
51
23.8171225
0
ARC
8
DEFAULT_255_1_388
10
22.6663668
20
21.4878508
40
0.2653719
50
24.2874621
51
31.3934353
0
ARC
8
DEFAULT_255_1_388
10
22.7254104
20
21.5264822
40
0.1948607
50
30.7407708
51
82.4658033
0
ARC
8
DEFAULT_255_1_388
10
22.7051765
20
21.4271017
40
0.2961198
50
81.1057101
51
90.2187368
0
ARC
8
DEFAULT_255_1_388
10
22.7011577
20
21.4561421
40
0.2670929
50
89.380395
51
105.6763916
0
ARC
8
DEFAULT_255_1_388
10
22.6805299
20
21.531132
40
0.1893189
50
105.7980655
51
149.7387869
0
ARC
8
DEFAULT_255_1_388
10
22.8002439
20
21.4591719
40
0.3289892
50
149.4208441
51
163.628295
0
ARC
8
DEFAULT_255_1_388
10
23.0354668
20
21.3874345
40
0.5749004
50
163.3764549
51
172.141138
0
ARC
8
DEFAULT_255_1_388
10
23.406739
20
21.3342582
40
0.9499585
50
172.0258462
51
178.0705453
0
ARC
8
DEFAULT_255_1_388
10
23.7488943
20
21.3180682
40
1.2924734
50
177.8639301
51
179.5036263
0
ARC
8
DEFAULT_255_1_388
10
23.6269961
20
21.0577151
40
1.170534
50
179.7995545
51
185.246089
0
ARC
8
DEFAULT_255_1_388
10
23.1721554
20
21.0146404
40
0.7136613
50
185.1411911
51
193.0082205
0
ARC
8
DEFAULT_255_1_388
10
22.8747815
20
20.9443441
40
0.4080987
50
192.7897338
51
205.2507384
0
ARC
8
DEFAULT_255_1_388
10
22.7570025
20
20.8917538
40
0.2791522
50
205.8001921
51
211.2545876
0
ARC
8
DEFAULT_255_1_388
10
22.6981564
20
20.8523132
40
0.2084074
50
210.3789935
51
238.4007996
0
ARC
8
DEFAULT_255_1_388
10
22.695965
20
20.8575786
40
0.2117943
50
239.6521916
51
265.9793852
0
ARC
8
DEFAULT_255_1_388
10
22.7055499
20
20.9332358
40
0.2879689
50
265.1324455
51
270.0603288
0
ARC
8
DEFAULT_255_1_388
10
22.7087876
20
20.8967418
40
0.2514919
50
269.3314378
51
287.2180039
0
ARC
8
DEFAULT_255_1_388
10
22.7242958
20
20.8401291
40
0.1928357
50
287.7957942
51
329.0808983
0
ARC
8
DEFAULT_255_1_388
10
22.6165715
20
20.9073651
40
0.319808
50
328.6635261
51
343.3325043
0
ARC
8
DEFAULT_255_1_388
10
22.3721174
20
20.9835195
40
0.5758408
50
343.0498092
51
351.9392499
0
ARC
8
DEFAULT_255_1_388
10
21.9820496
20
21.0410205
40
0.9701202
50
351.8071632
51
357.7957897
0
ARC
8
DEFAULT_255_1_388
10
21.6185973
20
21.0598724
40
1.3340376
50
357.5870923
51
359.2682493
0
LINE
8
DEFAULT_255_1_388
10
23.4386439
20
21.8424898
11
23.8127196
21
20.7573089
0
LINE
8
DEFAULT_255_1_388
10
23.8127196
20
20.7573089
11
24.1886024
21
21.8424898
0
LINE
8
DEFAULT_255_1_388
10
24.1886024
20
21.8424898
11
24.3783509
21
21.8424898
0
LINE
8
DEFAULT_255_1_388
10
24.3783509
20
21.8424898
11
23.8904261
21
20.5269
0
LINE
8
DEFAULT_255_1_388
10
23.8904261
20
20.5269
11
23.7368202
21
20.5269
0
LINE
8
DEFAULT_255_1_388
10
23.7368202
20
20.5269
11
23.2497989
21
21.8424898
0
LINE
8
DEFAULT_255_1_388
10
23.2497989
20
21.8424898
11
23.4386439
21
21.8424898
0
ENDSEC
0
EOF