0
SECTION
2
HEADER
9
$MEASUREMENT
70
1
0
ENDSEC
0
SECTION
2
TABLES
0
TABLE
2
LTYPE
0
LTYPE
72
65
70
64
2
CONTINUOUS
3
______
73
0
40
0
0
ENDTAB
0
TABLE
2
LAYER
0
LAYER
2
DEFAULT_255_2_778
70
0
62
255
6
CONTINUOUS
0
ENDTAB
0
ENDSEC
0
SECTION
2
ENTITIES
0
ARC
8
DEFAULT_255_2_778
10
12.2694657
20
7.3418744
40
6.3730634
50
23.5649611
51
30.7027875
0
ARC
8
DEFAULT_255_2_778
10
11.3269374
20
6.9295006
40
7.4018542
50
16.8036939
51
23.5740398
0
ARC
8
DEFAULT_255_2_778
10
10.3701682
20
6.6402299
40
8.4013963
50
9.5236041
51
16.8058989
0
ARC
8
DEFAULT_255_2_778
10
9.674964
20
6.5205326
40
9.1068238
50
0.4577979
51
9.5426253
0
ARC
8
DEFAULT_255_2_778
10
9.6248178
20
6.5171989
40
9.1569955
50
359.9998611
51
0.4761492
0
ARC
8
DEFAULT_255_2_778
10
9.9349948
20
6.5072649
40
8.8468242
50
350.3201911
51
0.0641934
0
ARC
8
DEFAULT_255_2_778
10
10.9568854
20
6.3339645
40
7.8103435
50
342.5803598
51
350.3129313
0
ARC
8
DEFAULT_255_2_778
10
11.997806
20
6.0069791
40
6.719273
50
334.838349
51
342.5835222
0
ARC
8
DEFAULT_255_2_778
10
12.8739376
20
5.596497
40
5.7517499
50
327.0592961
51
334.8286287
0
ARC
8
DEFAULT_255_2_778
10
10.0160951
20
7.0465487
40
8.9449971
50
319.6071856
51
329.2189141
0
ARC
8
DEFAULT_255_2_778
10
10.2845195
20
6.8171204
40
8.5918848
50
306.4393477
51
319.6124636
0
ARC
8
DEFAULT_255_2_778
10
10.3656693
20
6.717445
40
8.4634987
50
280.9451426
51
306.3981908
0
ARC
8
DEFAULT_255_2_778
10
10.2993938
20
7.0359552
40
8.7888002
50
270.302558
51
280.9750963
0
ARC
8
DEFAULT_255_2_778
10
10.2921354
20
7.259449
40
9.0123311
50
270.0001165
51
270.3411991
0
ARC
8
DEFAULT_255_2_778
10
10.2927689
20
7.3252248
40
9.0781069
50
267.0483876
51
269.9961178
0
ARC
8
DEFAULT_255_2_778
10
10.3010656
20
7.4837873
40
9.2368865
50
263.9955236
51
267.0476374
0
ARC
8
DEFAULT_255_2_778
10
10.3158897
20
7.629299
40
9.3831507
50
262.1775063
51
263.9984465
0
ARC
8
DEFAULT_255_2_778
10
10.1420522
20
6.0439588
40
7.7890246
50
249.2289373
51
261.8571368
0
ARC
8
DEFAULT_255_2_778
10
10.514746
20
7.0385258
40
8.8511207
50
233.305465
51
249.2563676
0
ARC
8
DEFAULT_255_2_778
10
10.1812414
20
6.686282
40
8.3695886
50
209.7585504
51
233.6952085
0
ARC
8
DEFAULT_255_2_778
10
9.1008699
20
6.0094485
40
7.0959333
50
200.781602
51
209.3440226
0
ARC
8
DEFAULT_255_2_778
10
9.1675113
20
6.4164727
40
7.31137
50
196.5410495
51
203.5795578
0
ARC
8
DEFAULT_255_2_778
10
9.3142474
20
6.4578765
40
7.4638216
50
187.5724727
51
196.5250385
0
ARC
8
DEFAULT_255_2_778
10
9.5531168
20
6.491218
40
7.7050018
50
181.6981639
51
187.5841662
0
ARC
8
DEFAULT_255_2_778
10
9.6995227
20
6.4973174
40
7.8515243
50
179.9987805
51
181.7109931
0
ARC
8
DEFAULT_255_2_778
10
10.2478907
20
6.4501183
40
8.4000257
50
133.5140518
51
179.6769179
0
ARC
8
DEFAULT_255_2_778
10
10.3717265
20
6.1181104
40
8.7271683
50
123.0990384
51
132.6028145
0
ARC
8
DEFAULT_255_2_778
10
10.3555757
20
6.140902
40
8.6992555
50
110.0544644
51
123.0919006
0
ARC
8
DEFAULT_255_2_778
10
10.3665453
20
6.1101709
40
8.7318849
50
90.0014177
51
110.0529311
0
ARC
8
DEFAULT_255_2_778
10
10.3663603
20
6.1229177
40
8.7191382
50
87.5346616
51
90.0002038
0
ARC
8
DEFAULT_255_2_778
10
10.3674114
20
6.1393671
40
8.7026587
50
77.6066549
51
87.5369175
0
ARC
8
DEFAULT_255_2_778
10
10.3671737
20
6.1404431
40
8.701659
50
69.9218068
51
77.6036057
0
ARC
8
DEFAULT_255_2_778
10
10.3516726
20
6.0982338
40
8.7466245
50
64.6167265
51
69.9213582
0
ARC
8
DEFAULT_255_2_778
10
10.1798053
20
6.1419063
40
8.7825665
50
30.473258
51
63.4815325
0
LINE
8
DEFAULT_255_2_778
10
17.7492005
20
10.5958634
11
17.7492005
21
10.5958634
0
ARC
8
DEFAULT_255_2_778
10
10.5161961
20
6.7719391
40
7.7782742
50
16.0475454
51
23.4299621
0
ARC
8
DEFAULT_255_2_778
10
9.8311172
20
6.5739966
40
8.4913758
50
7.893531
51
16.053277
0
ARC
8
DEFAULT_255_2_778
10
9.4850455
20
6.5212286
40
8.8414165
50
359.9982416
51
7.9242549
0
ARC
8
DEFAULT_255_2_778
10
9.5070707
20
6.5209576
40
8.8193913
50
359.704115
51
359.9999979
0
ARC
8
DEFAULT_255_2_778
10
9.9130597
20
6.4983676
40
8.4133162
50
344.5280457
51
359.843676
0
ARC
8
DEFAULT_255_2_778
10
11.1431194
20
6.1597475
40
7.1375
50
331.2749507
51
344.5136763
0
ARC
8
DEFAULT_255_2_778
10
12.0349523
20
5.6797501
40
6.1247344
50
319.3502803
51
331.2029747
0
ARC
8
DEFAULT_255_2_778
10
10.3253385
20
6.8127746
40
8.1638728
50
307.5010239
51
321.1336553
0
ARC
8
DEFAULT_255_2_778
10
10.3224397
20
6.8183649
40
8.1700727
50
270.0125027
51
307.4932849
0
ARC
8
DEFAULT_255_2_778
10
10.3243387
20
6.8141583
40
8.1658658
50
265.2209109
51
269.9991845
0
ARC
8
DEFAULT_255_2_778
10
10.3261876
20
6.836875
40
8.1886575
50
262.3395817
51
265.2212619
0
ARC
8
DEFAULT_255_2_778
10
10.5276365
20
7.0601552
40
8.4385089
50
244.9387086
51
261.186002
0
ARC
8
DEFAULT_255_2_778
10
10.5295766
20
7.0646998
40
8.4434475
50
214.7927028
51
244.9398457
0
ARC
8
DEFAULT_255_2_778
10
10.533925
20
7.0663748
40
8.4479741
50
209.1126462
51
214.7852037
0
ARC
8
DEFAULT_255_2_778
10
9.1973593
20
6.0223733
40
6.777387
50
198.4585033
51
206.8985904
0
ARC
8
DEFAULT_255_2_778
10
10.0263062
20
6.3007229
40
7.6518178
50
190.5522224
51
198.4702596
0
ARC
8
DEFAULT_255_2_778
10
10.828625
20
6.4496284
40
8.4678375
50
181.2333238
51
190.5485503
0
ARC
8
DEFAULT_255_2_778
10
11.1518718
20
6.4653775
40
8.7913527
50
179.9994331
51
181.2905977
0
ARC
8
DEFAULT_255_2_778
10
11.2009853
20
6.4653469
40
8.8404661
50
178.3368932
51
179.9992375
0
ARC
8
DEFAULT_255_2_778
10
11.0748984
20
6.479414
40
8.7140303
50
162.8937167
51
178.4052866
0
ARC
8
DEFAULT_255_2_778
10
10.0830109
20
6.7804182
40
7.6774856
50
152.6052252
51
162.8633363
0
ARC
8
DEFAULT_255_2_778
10
9.107144
20
7.2893361
40
6.5768929
50
141.3061715
51
152.6298944
0
ARC
8
DEFAULT_255_2_778
10
8.6701539
20
7.618202
40
6.0302524
50
140.3350181
51
141.1493132
0
ARC
8
DEFAULT_255_2_778
10
10.3142709
20
6.2343485
40
8.1792026
50
130.4494588
51
140.2240535
0
ARC
8
DEFAULT_255_2_778
10
10.2208829
20
6.3380515
40
8.0396998
50
114.0350686
51
130.4224766
0
ARC
8
DEFAULT_255_2_778
10
10.3642173
20
5.9912633
40
8.414806
50
97.1827255
51
113.964674
0
ARC
8
DEFAULT_255_2_778
10
10.4466631
20
5.4433447
40
8.9687433
50
89.9725848
51
97.2676287
0
ARC
8
DEFAULT_255_2_778
10
10.4491041
20
5.0979821
40
9.3141051
50
85.4596373
51
89.9886172
0
ARC
8
DEFAULT_255_2_778
10
10.4269513
20
4.8165691
40
9.5963886
50
81.2621426
51
85.4607943
0
ARC
8
DEFAULT_255_2_778
10
10.3965701
20
4.6096934
40
9.8054785
50
79.3826068
51
81.2703157
0
ARC
8
DEFAULT_255_2_778
10
10.9613942
20
7.9175055
40
6.450458
50
64.1480118
51
78.900201
0
ARC
8
DEFAULT_255_2_778
10
10.2301808
20
6.4063904
40
8.1291901
50
49.0616454
51
64.1542301
0
ARC
8
DEFAULT_255_2_778
10
9.803714
20
5.8618893
40
8.8200234
50
34.1790123
51
49.2865618
0
ARC
8
DEFAULT_255_2_778
10
10.5863532
20
6.3983501
40
7.8711844
50
26.1292205
51
34.1489097
0
LINE
8
DEFAULT_255_2_778
10
17.6531269
20
9.8647969
11
17.6531269
21
9.8647969
0
ARC
8
DEFAULT_255_2_778
10
12.0718864
20
22.1286483
40
8.3170329
50
268.1951535
51
269.8873336
0
ARC
8
DEFAULT_255_2_778
10
12.6901578
20
41.936644
40
28.1346751
50
267.6924431
51
268.2071568
0
ARC
8
DEFAULT_255_2_778
10
10.6736729
20
-7.7530214
40
21.5958923
50
87.6548597
51
88.4802751
0
ARC
8
DEFAULT_255_2_778
10
11.0353224
20
5.4771238
40
8.3608162
50
88.5532196
51
89.9415114
0
ARC
8
DEFAULT_255_2_778
10
10.9963014
20
10.0332926
40
3.8049403
50
89.2838732
51
98.8274289
0
ARC
8
DEFAULT_255_2_778
10
10.661505
20
12.1076624
40
1.7038097
50
98.4070679
51
120.8244564
0
ARC
8
DEFAULT_255_2_778
10
10.4600593
20
12.491018
40
1.2715998
50
121.8809163
51
141.305665
0
ARC
8
DEFAULT_255_2_778
10
10.5803206
20
12.3958408
40
1.4249645
50
141.341778
51
151.2821534
0
ARC
8
DEFAULT_255_2_778
10
10.8388521
20
13.00265
40
1.5102298
50
177.0439854
51
193.5416582
0
ARC
8
DEFAULT_255_2_778
10
9.8238603
20
12.7756399
40
0.4706057
50
195.6073866
51
238.5469002
0
ARC
8
DEFAULT_255_2_778
10
9.8823612
20
12.8646356
40
0.5770612
50
238.2026446
51
243.2060588
0
ARC
8
DEFAULT_255_2_778
10
9.6040027
20
13.9187555
40
1.5693299
50
270.6655533
51
290.5410406
0
ARC
8
DEFAULT_255_2_778
10
8.6462772
20
16.390761
40
4.2203159
50
290.9410176
51
299.2934086
0
ARC
8
DEFAULT_255_2_778
10
-5.2584308
20
42.6769316
40
33.9564316
50
298.0536255
51
298.0618869
0
ARC
8
DEFAULT_255_2_778
10
-31.6766911
20
92.2016554
40
90.086839
50
298.071339
51
298.1025993
0
ARC
8
DEFAULT_255_2_778
10
12.9120191
20
8.9439943
40
4.3602695
50
110.5457046
51
119.591142
0
ARC
8
DEFAULT_255_2_778
10
11.9299843
20
11.4955256
40
1.6265637
50
91.9386596
51
109.6967922
0
ARC
8
DEFAULT_255_2_778
10
11.9097379
20
11.7115691
40
1.4100182
50
90.0009375
51
91.4133999
0
ARC
8
DEFAULT_255_2_778
10
11.909525
20
11.7117555
40
1.4098318
50
82.3750861
51
89.9922847
0
ARC
8
DEFAULT_255_2_778
10
11.8987094
20
11.6343336
40
1.4880044
50
76.0587986
51
82.3578742
0
ARC
8
DEFAULT_255_2_778
10
11.8621825
20
11.487578
40
1.6392373
50
70.6698375
51
76.0555223
0
ARC
8
DEFAULT_255_2_778
10
11.793608
20
11.2915588
40
1.8469051
50
66.179183
51
70.6752925
0
ARC
8
DEFAULT_255_2_778
10
12.0357204
20
7.7402636
40
5.2650283
50
65.7464557
51
84.5089566
0
ARC
8
DEFAULT_255_2_778
10
11.6437456
20
6.8207795
40
6.264402
50
30.6411959
51
65.9323399
0
ARC
8
DEFAULT_255_2_778
10
12.6621144
20
7.4641501
40
5.0604395
50
16.9769387
51
30.2503637
0
ARC
8
DEFAULT_255_2_778
10
8.8711115
20
6.1872819
40
9.0597891
50
13.8299764
51
17.6998289
0
ARC
8
DEFAULT_255_2_778
10
9.3344835
20
6.2918292
40
8.5848643
50
7.1923532
51
13.8917028
0
ARC
8
DEFAULT_255_2_778
10
10.3305826
20
6.4262435
40
7.5797792
50
4.1296468
51
7.1270116
0
ARC
8
DEFAULT_255_2_778
10
11.1262291
20
6.4812336
40
6.7822387
50
0.0473447
51
4.1503442
0
ARC
8
DEFAULT_255_2_778
10
12.2964212
20
6.4719873
40
5.6120639
50
352.4654084
51
0.1516153
0
ARC
8
DEFAULT_255_2_778
10
13.5072141
20
6.311795
40
4.39072
50
343.8501655
51
352.4659861
0
ARC
8
DEFAULT_255_2_778
10
14.0377397
20
6.1700844
40
3.8417304
50
342.2962452
51
343.6794371
0
ARC
8
DEFAULT_255_2_778
10
30.758665
20
4.2709007
40
13.0815695
50
176.0978354
51
176.7969385
0
ARC
8
DEFAULT_255_2_778
10
76.3620256
20
1.1655045
40
58.79054
50
175.9424539
51
176.1029497
0
ARC
8
DEFAULT_255_2_778
10
-0.0133207
20
6.6141553
40
17.7789348
50
355.8431976
51
356.8816267
0
ARC
8
DEFAULT_255_2_778
10
9.9921184
20
6.0570917
40
7.7580165
50
356.9699014
51
358.4180552
0
ARC
8
DEFAULT_255_2_778
10
12.1848048
20
5.9945339
40
5.5644392
50
358.4386626
51
359.9670948
0
ARC
8
DEFAULT_255_2_778
10
14.6046763
20
6.0294623
40
3.1447979
50
359.3053904
51
10.2294306
0
ARC
8
DEFAULT_255_2_778
10
16.2175854
20
6.3340352
40
1.5034965
50
9.7227879
51
34.4857121
0
ARC
8
DEFAULT_255_2_778
10
16.5100778
20
6.5063697
40
1.1650668
50
35.6444149
51
55.3139991
0
ARC
8
DEFAULT_255_2_778
10
16.4392877
20
6.4082942
40
1.2860001
50
55.2072096
51
60.8328373
0
ARC
8
DEFAULT_255_2_778
10
16.8354409
20
6.8264337
40
0.7415606
50
71.8832946
51
89.3035063
0
ARC
8
DEFAULT_255_2_778
10
16.8337634
20
6.7976658
40
0.770348
50
89.2047586
51
89.9988968
0
ARC
8
DEFAULT_255_2_778
10
16.8294901
20
6.8073894
40
0.7606366
50
89.6769957
51
140.5275448
0
ARC
8
DEFAULT_255_2_778
10
17.3200529
20
7.1227911
40
1.0907585
50
171.1324985
51
175.401274
0
ARC
8
DEFAULT_255_2_778
10
17.2716694
20
7.1267757
40
1.0422113
50
175.4063594
51
179.9884884
0
ARC
8
DEFAULT_255_2_778
10
17.2886806
20
7.129802
40
1.0592264
50
180.1523724
51
197.8086193
0
ARC
8
DEFAULT_255_2_778
10
18.103177
20
7.4366854
40
1.9290326
50
199.0881088
51
214.820633
0
ARC
8
DEFAULT_255_2_778
10
23.6937099
20
11.0641961
40
8.5925587
50
213.3917568
51
214.5926155
0
ARC
8
DEFAULT_255_2_778
10
116.1148534
20
74.4048828
40
120.6358658
50
214.4366875
51
214.4506669
0
ARC
8
DEFAULT_255_2_778
10
14.0736229
20
4.2853565
40
3.1765698
50
25.6241925
51
36.2032889
0
ARC
8
DEFAULT_255_2_778
10
15.8569809
20
5.1653957
40
1.1882258
50
3.9943226
51
24.5514956
0
ARC
8
DEFAULT_255_2_778
10
15.97405
20
5.1830343
40
1.070254
50
359.9969033
51
3.4888969
0
ARC
8
DEFAULT_255_2_778
10
15.9481476
20
5.1832817
40
1.0961563
50
354.9415461
51
359.9840413
0
ARC
8
DEFAULT_255_2_778
10
15.8852045
20
5.1889657
40
1.1593554
50
350.3359397
51
354.9360107
0
ARC
8
DEFAULT_255_2_778
10
15.8226636
20
5.1991303
40
1.2227152
50
348.5942549
51
350.3583584
0
ARC
8
DEFAULT_255_2_778
10
10.7739818
20
5.4320417
40
6.26526
50
305.3708565
51
355.6546126
0
ARC
8
DEFAULT_255_2_778
10
11.2595668
20
4.8155159
40
5.4815814
50
293.7725688
51
304.9624687
0
ARC
8
DEFAULT_255_2_778
10
9.590714
20
9.2857642
40
10.2489511
50
286.4767538
51
292.2365109
0
ARC
8
DEFAULT_255_2_778
10
10.1981123
20
7.1232695
40
8.0030449
50
274.5398542
51
286.6978668
0
ARC
8
DEFAULT_255_2_778
10
10.3477259
20
5.6849376
40
6.5574784
50
270.0293102
51
274.2314502
0
ARC
8
DEFAULT_255_2_778
10
10.3472052
20
5.1533443
40
6.0258855
50
264.8168232
51
270.0368473
0
ARC
8
DEFAULT_255_2_778
10
10.3050552
20
4.6937448
40
5.5643576
50
258.3389891
51
264.8215326
0
ARC
8
DEFAULT_255_2_778
10
10.267321
20
4.4936986
40
5.3608145
50
257.314959
51
258.3018144
0
ARC
8
DEFAULT_255_2_778
10
9.6028512
20
1.873664
40
2.6598174
50
258.8858145
51
264.494228
0
ARC
8
DEFAULT_255_2_778
10
9.617573
20
2.0143587
40
2.8012758
50
264.4706101
51
270.0053928
0
ARC
8
DEFAULT_255_2_778
10
9.6187664
20
1.9810336
40
2.7679509
50
269.9807549
51
276.456401
0
ARC
8
DEFAULT_255_2_778
10
9.7326026
20
1.3791566
40
2.1575691
50
275.2497558
51
308.8790011
0
ARC
8
DEFAULT_255_2_778
10
9.9935166
20
0.9915682
40
1.6925485
50
310.2388218
51
322.0257805
0
ARC
8
DEFAULT_255_2_778
10
10.4525308
20
0.09419
40
0.8869778
50
350.6529021
51
0.0050352
0
ARC
8
DEFAULT_255_2_778
10
10.4564771
20
0.0942958
40
0.8830316
50
359.9981913
51
2.3155081
0
ARC
8
DEFAULT_255_2_778
10
10.6549201
20
0.1314857
40
0.683869
50
359.8732048
51
57.9177019
0
ARC
8
DEFAULT_255_2_778
10
10.709089
20
0.1775846
40
0.616411
50
59.9083294
51
63.4582837
0
ARC
8
DEFAULT_255_2_778
10
11.0220488
20
-0.9333245
40
1.6627793
50
91.2928639
51
113.0267068
0
ARC
8
DEFAULT_255_2_778
10
12.1239222
20
-3.7289687
40
4.6673595
50
112.0511527
51
116.8246121
0
ARC
8
DEFAULT_255_2_778
10
21.9422653
20
-23.5845907
40
26.8177261
50
116.401039
51
116.7232183
0
ARC
8
DEFAULT_255_2_778
10
7.8457039
20
4.1704962
40
4.3131762
50
288.7492314
51
298.1841016
0
ARC
8
DEFAULT_255_2_778
10
8.7357948
20
1.6285665
40
1.6202421
50
270.5373016
51
287.8363616
0
ARC
8
DEFAULT_255_2_778
10
8.7506983
20
1.3834725
40
1.3750768
50
262.2180092
51
270.0120993
0
ARC
8
DEFAULT_255_2_778
10
8.7561235
20
1.419157
40
1.4111673
50
255.983697
51
262.1959473
0
ARC
8
DEFAULT_255_2_778
10
8.7813462
20
1.5195596
40
1.5146895
50
250.6403705
51
255.9778536
0
ARC
8
DEFAULT_255_2_778
10
8.8085909
20
1.6003428
40
1.5999368
50
249.9333519
51
250.6788749
0
ARC
8
DEFAULT_255_2_778
10
8.926779
20
6.2348459
40
6.1734685
50
244.9019686
51
263.7961106
0
ARC
8
DEFAULT_255_2_778
10
8.9285393
20
6.2396042
40
6.1785242
50
213.6626765
51
244.905903
0
ARC
8
DEFAULT_255_2_778
10
8.9348003
20
6.2426837
40
6.1854425
50
208.4495675
51
213.6542713
0
ARC
8
DEFAULT_255_2_778
10
9.8755707
20
6.4179362
40
7.1021812
50
189.7339605
51
206.076439
0
ARC
8
DEFAULT_255_2_778
10
9.8788333
20
6.4185413
40
7.1054992
50
180.0001491
51
189.7343211
0
ARC
8
DEFAULT_255_2_778
10
9.8776306
20
6.4185186
40
7.1042964
50
178.4501365
51
179.9999659
0
ARC
8
DEFAULT_255_2_778
10
9.8752398
20
6.418629
40
7.1019036
50
166.0619829
51
178.4505057
0
ARC
8
DEFAULT_255_2_778
10
9.8827203
20
6.4168419
40
7.1095943
50
163.7506806
51
166.0625251
0
ARC
8
DEFAULT_255_2_778
10
12.4781108
20
6.8020626
40
9.5565791
50
170.3365724
51
172.5365593
0
ARC
8
DEFAULT_255_2_778
10
8.7062282
20
7.2765325
40
5.7550546
50
172.3424915
51
178.749755
0
ARC
8
DEFAULT_255_2_778
10
7.2654527
20
7.3307972
40
4.3134983
50
179.0528098
51
179.995841
0
ARC
8
DEFAULT_255_2_778
10
5.9627879
20
7.2896234
40
3.0111194
50
179.2105589
51
195.0985666
0
ARC
8
DEFAULT_255_2_778
10
4.7724285
20
6.966844
40
1.7777751
50
195.0479164
51
224.0075021
0
ARC
8
DEFAULT_255_2_778
10
4.6111404
20
6.8325208
40
1.5685235
50
224.57164
51
224.7050421
0
ARC
8
DEFAULT_255_2_778
10
3.851153
20
6.0171931
40
0.4570313
50
219.0714199
51
267.6476868
0
ARC
8
DEFAULT_255_2_778
10
3.9210309
20
6.4340963
40
0.8780345
50
264.2062025
51
270.1129431
0
ARC
8
DEFAULT_255_2_778
10
3.9216262
20
6.6350896
40
1.0790267
50
270.060296
51
274.0780559
0
ARC
8
DEFAULT_255_2_778
10
3.8952315
20
6.9485465
40
1.3935727
50
274.2440017
51
281.9016682
0
ARC
8
DEFAULT_255_2_778
10
3.7868408
20
6.1515927
40
0.6911985
50
304.9328116
51
352.3348669
0
ARC
8
DEFAULT_255_2_778
10
3.8273536
20
6.1493986
40
0.6507632
50
352.0505505
51
359.9415999
0
ARC
8
DEFAULT_255_2_778
10
3.9688364
20
6.1584866
40
0.5093735
50
358.9030723
51
32.6444808
0
ARC
8
DEFAULT_255_2_778
10
4.0465712
20
6.1985348
40
0.4223949
50
33.7582128
51
38.2835942
0
ARC
8
DEFAULT_255_2_778
10
6.0164655
20
7.9917049
40
2.2426655
50
203.8100967
51
223.0691794
0
ARC
8
DEFAULT_255_2_778
10
6.5003355
20
8.1753771
40
2.7596373
50
180.5443783
51
203.2432435
0
ARC
8
DEFAULT_255_2_778
10
7.1559031
20
8.2234139
40
3.4158874
50
179.9971587
51
181.245622
0
ARC
8
DEFAULT_255_2_778
10
7.4895249
20
8.2173521
40
3.7495146
50
172.8401577
51
179.9047818
0
ARC
8
DEFAULT_255_2_778
10
7.9987579
20
8.1568753
40
4.2623159
50
168.0292586
51
172.8867292
0
ARC
8
DEFAULT_255_2_778
10
9.5881911
20
7.9409015
40
5.8631758
50
151.3629133
51
169.1862666
0
ARC
8
DEFAULT_255_2_778
10
9.5938854
20
7.9377949
40
5.8696624
50
116.2152478
51
151.3629376
0
ARC
8
DEFAULT_255_2_778
10
9.5950289
20
7.9320764
40
5.875298
50
109.5567271
51
116.2006171
0
ARC
8
DEFAULT_255_2_778
10
9.6362881
20
9.0637528
40
4.840773
50
106.6405663
51
114.5067704
0
ARC
8
DEFAULT_255_2_778
10
10.0259051
20
7.7630966
40
6.1985312
50
99.4510289
51
106.6482856
0
ARC
8
DEFAULT_255_2_778
10
10.293697
20
6.120829
40
7.8624817
50
90.8484716
51
99.4108697
0
ARC
8
DEFAULT_255_2_778
10
10.3258023
20
5.3230889
40
8.6606335
50
89.9988515
51
90.9826953
0
ARC
8
DEFAULT_255_2_778
10
10.3239682
20
5.1024887
40
8.8812341
50
84.2660651
51
89.9870476
0
ARC
8
DEFAULT_255_2_778
10
10.3584972
20
5.4190554
40
8.5628019
50
80.3203357
51
84.284321
0
ARC
8
DEFAULT_255_2_778
10
10.452037
20
5.982503
40
7.9916486
50
78.4252444
51
80.3021993
0
LINE
8
DEFAULT_255_2_778
10
12.0555318
20
13.8116315
11
12.0555318
21
13.8116315
0
ARC
8
DEFAULT_255_2_778
10
7.7844295
20
10.2450339
40
2.008986
50
4.4218174
51
8.768699
0
ARC
8
DEFAULT_255_2_778
10
7.8478167
20
10.2500777
40
1.9453986
50
0.0079686
51
4.4176427
0
ARC
8
DEFAULT_255_2_778
10
7.6358069
20
10.2899849
40
2.1577724
50
322.5874102
51
358.9474617
0
ARC
8
DEFAULT_255_2_778
10
6.0702186
20
11.4445633
40
4.1028962
50
304.7737468
51
323.0638073
0
ARC
8
DEFAULT_255_2_778
10
4.8826117
20
13.0049115
40
6.0625235
50
300.7754667
51
305.582652
0
ARC
8
DEFAULT_255_2_778
10
4.593596
20
13.4775363
40
6.616478
50
299.7024593
51
300.8316319
0
ARC
8
DEFAULT_255_2_778
10
8.1878697
20
7.7494731
40
0.3164112
50
183.4566537
51
250.6666631
0
ARC
8
DEFAULT_255_2_778
10
8.4991301
20
8.3297894
40
0.9723707
50
244.6698571
51
255.2110146
0
ARC
8
DEFAULT_255_2_778
10
8.6124033
20
8.7092521
40
1.3682354
50
254.6808989
51
255.0717878
0
ARC
8
DEFAULT_255_2_778
10
8.3579364
20
8.6786554
40
1.2951729
50
265.6604345
51
267.5079323
0
ARC
8
DEFAULT_255_2_778
10
8.3542369
20
8.5939572
40
1.2103939
50
267.5085593
51
269.3581347
0
ARC
8
DEFAULT_255_2_778
10
8.353464
20
8.5414898
40
1.1579211
50
269.3672921
51
269.9993851
0
ARC
8
DEFAULT_255_2_778
10
8.3578382
20
8.3719753
40
0.9884164
50
269.7457186
51
280.4689731
0
ARC
8
DEFAULT_255_2_778
10
8.3948036
20
8.1724867
40
0.7855319
50
280.4615038
51
296.4848192
0
ARC
8
DEFAULT_255_2_778
10
8.2862599
20
8.3162344
40
0.963167
50
298.4510346
51
329.8517229
0
ARC
8
DEFAULT_255_2_778
10
6.1638147
20
9.6271876
40
3.4575802
50
328.7307392
51
335.8807506
0
ARC
8
DEFAULT_255_2_778
10
-116.2906158
20
67.301629
40
138.8136305
50
334.8075869
51
334.8266647
0
ARC
8
DEFAULT_255_2_778
10
12.7564823
20
6.7206069
40
3.7464096
50
149.6679523
51
155.8038013
0
ARC
8
DEFAULT_255_2_778
10
10.4786328
20
8.053699
40
1.1071419
50
132.7679835
51
149.682005
0
ARC
8
DEFAULT_255_2_778
10
10.1831556
20
8.3619279
40
0.6802727
50
105.6815171
51
132.1265541
0
ARC
8
DEFAULT_255_2_778
10
10.2050299
20
8.2695197
40
0.7751636
50
92.4361607
51
105.3919968
0
ARC
8
DEFAULT_255_2_778
10
10.2158429
20
8.1172032
40
0.927812
50
89.9818288
51
92.7034832
0
ARC
8
DEFAULT_255_2_778
10
10.2158922
20
8.0429635
40
1.0020518
50
87.727564
51
89.9859934
0
ARC
8
DEFAULT_255_2_778
10
10.2130786
20
7.970057
40
1.0750126
50
85.8861097
51
87.7318022
0
ARC
8
DEFAULT_255_2_778
10
10.2093552
20
7.9162484
40
1.1289495
50
85.2962073
51
85.8935362
0
ARC
8
DEFAULT_255_2_778
10
9.647358
20
8.670819
40
0.7521948
50
23.3930333
51
29.5155977
0
ARC
8
DEFAULT_255_2_778
10
9.7663573
20
8.7221272
40
0.6226057
50
15.7920579
51
23.4074096
0
ARC
8
DEFAULT_255_2_778
10
9.8514691
20
8.7461832
40
0.5341596
50
6.0265702
51
15.7936545
0
ARC
8
DEFAULT_255_2_778
10
9.8846843
20
8.7503583
40
0.5006901
50
0.0078421
51
5.9504952
0
ARC
8
DEFAULT_255_2_778
10
9.7660744
20
8.7675215
40
0.6195358
50
327.1556354
51
358.4188549
0
ARC
8
DEFAULT_255_2_778
10
8.9470995
20
9.2537305
40
1.5717
50
319.9227311
51
328.4568628
0
ARC
8
DEFAULT_255_2_778
10
6.3485454
20
11.3865296
40
4.9333632
50
318.7000892
51
320.3992891
0
ARC
8
DEFAULT_255_2_778
10
-18.6507553
20
33.1918512
40
38.1061726
50
318.810562
51
318.8774709
0
ARC
8
DEFAULT_255_2_778
10
12.1311151
20
6.1778123
40
2.8490012
50
137.6516654
51
144.7522245
0
ARC
8
DEFAULT_255_2_778
10
10.4796795
20
7.3450541
40
0.8267024
50
144.7645949
51
164.5296434
0
ARC
8
DEFAULT_255_2_778
10
10.2182691
20
7.4285461
40
0.5525971
50
165.6431229
51
179.9041044
0
ARC
8
DEFAULT_255_2_778
10
10.2169889
20
7.4300632
40
0.5513165
50
180.0615433
51
191.3187953
0
ARC
8
DEFAULT_255_2_778
10
10.2911514
20
7.4450431
40
0.6269768
50
191.3309351
51
199.7850983
0
ARC
8
DEFAULT_255_2_778
10
10.407052
20
7.4865567
40
0.7500877
50
199.7722218
51
206.4616059
0
ARC
8
DEFAULT_255_2_778
10
10.5355685
20
7.5495518
40
0.8932109
50
206.4057147
51
210.5608758
0
ARC
8
DEFAULT_255_2_778
10
2.9841035
20
19.5434216
40
14.1758019
50
298.5838414
51
307.2682968
0
ARC
8
DEFAULT_255_2_778
10
15.4772862
20
8.6146397
40
3.9249082
50
180.3593522
51
185.1519157
0
ARC
8
DEFAULT_255_2_778
10
15.3226875
20
8.611715
40
3.7702946
50
180.0000956
51
180.3296427
0
ARC
8
DEFAULT_255_2_778
10
14.8798386
20
8.6303337
40
3.3274979
50
164.417897
51
180.3207028
0
ARC
8
DEFAULT_255_2_778
10
14.0767679
20
8.8770778
40
2.4877597
50
127.9729649
51
164.9235589
0
ARC
8
DEFAULT_255_2_778
10
14.0514691
20
8.883649
40
2.4670648
50
123.5716224
51
127.6036977
0
ARC
8
DEFAULT_255_2_778
10
13.1214716
20
10.0403321
40
0.9982574
50
99.568033
51
115.7850092
0
ARC
8
DEFAULT_255_2_778
10
13.1545804
20
9.8874774
40
1.1545117
50
92.0247945
51
99.9273842
0
ARC
8
DEFAULT_255_2_778
10
13.1540472
20
9.9028502
40
1.1391296
50
90.0026619
51
92.0253127
0
ARC
8
DEFAULT_255_2_778
10
13.1645923
20
10.0867222
40
0.9553165
50
69.6902776
51
90.6356378
0
ARC
8
DEFAULT_255_2_778
10
13.2787266
20
10.4072824
40
0.6150846
50
51.8670492
51
69.2965965
0
ARC
8
DEFAULT_255_2_778
10
13.3016462
20
10.3910302
40
0.6143569
50
14.6918112
51
54.4852175
0
ARC
8
DEFAULT_255_2_778
10
12.8096169
20
10.2495474
40
1.1262463
50
359.8452959
51
15.3057884
0
ARC
8
DEFAULT_255_2_778
10
12.3158531
20
10.228524
40
1.6201059
50
359.9981368
51
0.6359711
0
ARC
8
DEFAULT_255_2_778
10
11.6198208
20
10.2473042
40
2.3162146
50
352.3878758
51
359.5341279
0
ARC
8
DEFAULT_255_2_778
10
9.1580592
20
10.5477638
40
4.7961662
50
351.2758753
51
352.725814
0
ARC
8
DEFAULT_255_2_778
10
11.9212078
20
10.5594203
40
2.1111409
50
329.1148118
51
339.5061542
0
ARC
8
DEFAULT_255_2_778
10
11.1475221
20
11.1124271
40
3.0599653
50
310.0591957
51
327.6646219
0
ARC
8
DEFAULT_255_2_778
10
6.2529343
20
16.4507761
40
10.3005662
50
311.0301945
51
311.7869781
0
ARC
8
DEFAULT_255_2_778
10
7.9855753
20
14.4508918
40
7.6545243
50
311.0585646
51
311.0735775
0
LINE
8
DEFAULT_255_2_778
10
13.0132973
20
8.6790851
11
13.0117905
21
8.6777727
0
LINE
8
DEFAULT_255_2_778
10
13.0117905
20
8.6777727
11
13.0102892
21
8.6764654
0
ARC
8
DEFAULT_255_2_778
10
8.093473
20
14.3236292
40
7.4876926
50
311.0299371
51
311.0451125
0
LINE
8
DEFAULT_255_2_778
10
13.0087934
20
8.6751633
11
13.0073031
21
8.6738662
0
ARC
8
DEFAULT_255_2_778
10
8.163495
20
14.2397468
40
7.3784486
50
311.0167248
51
311.0320096
0
ARC
8
DEFAULT_255_2_778
10
17.1862358
20
3.8650615
40
6.3708767
50
131.0088962
51
131.026532
0
ARC
8
DEFAULT_255_2_778
10
84.5833812
20
-73.6449838
40
109.0849569
50
131.0089587
51
131.010498
0
LINE
8
DEFAULT_255_2_778
10
13.0021272
20
8.6693641
11
13.0006611
21
8.6680896
0
LINE
8
DEFAULT_255_2_778
10
13.0006611
20
8.6680896
11
12.9992004
21
8.6668201
0
ARC
8
DEFAULT_255_2_778
10
8.3513726
20
14.0135861
40
7.0845049
50
310.984132
51
310.9997252
0
LINE
8
DEFAULT_255_2_778
10
12.997745
20
8.6655554
11
12.9962949
21
8.6642957
0
LINE
8
DEFAULT_255_2_778
10
12.9962949
20
8.6642957
11
12.9948502
21
8.6630409
0
ARC
8
DEFAULT_255_2_778
10
8.4510704
20
13.8938404
40
6.9287227
50
310.9637346
51
310.9794995
0
ARC
8
DEFAULT_255_2_778
10
8.4834798
20
13.8548034
40
6.8779978
50
310.9572325
51
310.9730541
0
ARC
8
DEFAULT_255_2_778
10
8.5157059
20
13.8159798
40
6.8275543
50
310.9506818
51
310.9665604
0
ARC
8
DEFAULT_255_2_778
10
129.5208693
20
-125.6434701
40
177.8104368
50
130.9471549
51
130.9483698
0
LINE
8
DEFAULT_255_2_778
10
12.9876997
20
8.6568345
11
12.9862864
21
8.6556086
0
LINE
8
DEFAULT_255_2_778
10
12.9862864
20
8.6556086
11
12.9848783
21
8.6543874
0
ARC
8
DEFAULT_255_2_778
10
8.6741753
20
13.62495
40
6.5794113
50
310.9171797
51
310.93335
0
ARC
8
DEFAULT_255_2_778
10
8.7053195
20
13.5873863
40
6.5306277
50
310.9103256
51
310.9265555
0
ARC
8
DEFAULT_255_2_778
10
75.1097719
20
-63.0306735
40
94.8591073
50
130.9156366
51
130.9173064
0
ARC
8
DEFAULT_255_2_778
10
121.9204861
20
-117.0867416
40
166.3664557
50
130.9061919
51
130.9074543
0
LINE
8
DEFAULT_255_2_778
10
12.9772183
20
8.6477484
11
12.9758435
21
8.6465576
0
LINE
8
DEFAULT_255_2_778
10
12.9758435
20
8.6465576
11
12.9744738
21
8.6453714
0
ARC
8
DEFAULT_255_2_778
10
8.9007578
20
13.3486243
40
6.2221981
50
310.8808063
51
310.8974286
0
LINE
8
DEFAULT_255_2_778
10
12.9731092
20
8.6441898
11
12.9717496
21
8.6430127
0
ARC
8
DEFAULT_255_2_778
10
42.9199101
20
-26.2196714
40
45.9597547
50
130.6636329
51
131.0991444
0
ARC
8
DEFAULT_255_2_778
10
19.1269712
20
1.1044547
40
9.7284573
50
131.2886414
51
131.9904009
0
ARC
8
DEFAULT_255_2_778
10
16.9329988
20
3.5330394
40
6.4556166
50
131.9376182
51
134.0326196
0
ARC
8
DEFAULT_255_2_778
10
16.0121837
20
4.4936712
40
5.1249502
50
134.0962269
51
134.9930842
0
ARC
8
DEFAULT_255_2_778
10
13.372558
20
8.2158119
40
0.9886746
50
185.6779497
51
192.6151351
0
ARC
8
DEFAULT_255_2_778
10
13.0250574
20
8.1367197
40
0.6322904
50
192.4983837
51
202.6465715
0
ARC
8
DEFAULT_255_2_778
10
12.8164529
20
8.0482672
40
0.4057136
50
202.4615243
51
218.7811048
0
ARC
8
DEFAULT_255_2_778
10
12.7709929
20
8.0266409
40
0.3569191
50
220.6459885
51
267.4375028
0
ARC
8
DEFAULT_255_2_778
10
12.8287986
20
8.422693
40
0.7562203
50
264.4023506
51
270.1887779
0
ARC
8
DEFAULT_255_2_778
10
12.8228915
20
8.9936982
40
1.327248
50
270.3625654
51
275.7885406
0
ARC
8
DEFAULT_255_2_778
10
12.484717
20
12.2476037
40
4.5986763
50
275.8915776
51
278.065869
0
ARC
8
DEFAULT_255_2_778
10
13.9634386
20
1.6270788
40
6.1243213
50
96.7255939
51
97.8218028
0
ARC
8
DEFAULT_255_2_778
10
13.4641354
20
5.9392344
40
1.783388
50
91.0897843
51
97.0195036
0
ARC
8
DEFAULT_255_2_778
10
13.442328
20
6.5727959
40
1.1495678
50
90.0013936
51
90.6036478
0
ARC
8
DEFAULT_255_2_778
10
13.4578323
20
7.0043693
40
0.7181624
50
71.4468322
51
91.2392723
0
ARC
8
DEFAULT_255_2_778
10
13.527422
20
7.2370723
40
0.4754794
50
47.6855659
51
70.4744072
0
ARC
8
DEFAULT_255_2_778
10
13.501538
20
7.2096685
40
0.513169
50
39.284959
51
47.6083093
0
ARC
8
DEFAULT_255_2_778
10
13.4943863
20
7.3630893
40
0.439217
50
14.5963422
51
22.9844884
0
ARC
8
DEFAULT_255_2_778
10
13.5949111
20
7.3889708
40
0.3354145
50
3.3196687
51
14.6453443
0
ARC
8
DEFAULT_255_2_778
10
13.6381856
20
7.3925819
40
0.2920057
50
0.0116021
51
3.1040061
0
ARC
8
DEFAULT_255_2_778
10
13.6131946
20
7.4081413
40
0.3173754
50
297.455029
51
357.2006159
0
ARC
8
DEFAULT_255_2_778
10
13.31751
20
7.8461452
40
0.8445397
50
287.8088608
51
301.5589333
0
ARC
8
DEFAULT_255_2_778
10
13.1727805
20
8.2574614
40
1.2804671
50
282.6433424
51
288.3456615
0
ARC
8
DEFAULT_255_2_778
10
13.1464505
20
8.3662634
40
1.3923952
50
280.9665532
51
282.7205679
0
ARC
8
DEFAULT_255_2_778
10
12.9859613
20
5.4289786
40
1.6269105
50
74.843258
51
83.184152
0
ARC
8
DEFAULT_255_2_778
10
13.0020823
20
5.5534125
40
1.5014433
50
83.2314513
51
89.9759623
0
ARC
8
DEFAULT_255_2_778
10
13.0185875
20
5.4771597
40
1.5777757
50
90.5765078
51
121.9345815
0
ARC
8
DEFAULT_255_2_778
10
13.3223058
20
4.9240448
40
2.2081047
50
121.031058
51
128.3342171
0
ARC
8
DEFAULT_255_2_778
10
13.1470765
20
5.1929992
40
1.8886781
50
129.2251551
51
143.8253183
0
ARC
8
DEFAULT_255_2_778
10
13.6403359
20
4.9164102
40
2.4510438
50
145.4122282
51
170.0963428
0
ARC
8
DEFAULT_255_2_778
10
17.2102811
20
4.1072603
40
6.1097022
50
168.379095
51
171.1246696
0
ARC
8
DEFAULT_255_2_778
10
14.4854416
20
5.0494734
40
3.3117075
50
179.9926949
51
183.658469
0
ARC
8
DEFAULT_255_2_778
10
13.8401353
20
4.9649645
40
2.6626736
50
182.729698
51
209.3676495
0
ARC
8
DEFAULT_255_2_778
10
13.0329218
20
4.529315
40
1.7456218
50
209.8994618
51
242.00918
0
ARC
8
DEFAULT_255_2_778
10
13.0162441
20
4.5209814
40
1.7304694
50
242.3672873
51
248.7385589
0
ARC
8
DEFAULT_255_2_778
10
12.6670755
20
6.2368802
40
3.3402019
50
265.2199586
51
268.5959962
0
ARC
8
DEFAULT_255_2_778
10
12.6521615
20
5.7509635
40
2.8540673
50
268.6562935
51
269.9911518
0
ARC
8
DEFAULT_255_2_778
10
12.6725681
20
4.9753036
40
2.078512
50
269.4253185
51
283.1229516
0
ARC
8
DEFAULT_255_2_778
10
12.8143961
20
4.356453
40
1.4436238
50
283.217431
51
312.7113429
0
ARC
8
DEFAULT_255_2_778
10
12.7141768
20
4.4713442
40
1.5960286
50
312.5572617
51
315.2388374
0
ARC
8
DEFAULT_255_2_778
10
13.0883835
20
4.2467475
40
1.1767803
50
310.1674184
51
329.8450526
0
ARC
8
DEFAULT_255_2_778
10
12.8481166
20
4.3495248
40
1.4365136
50
331.114597
51
358.6142707
0
ARC
8
DEFAULT_255_2_778
10
12.1205056
20
4.4172384
40
2.1661287
50
357.2890266
51
0.0279653
0
ARC
8
DEFAULT_255_2_778
10
10.8369751
20
4.0019978
40
3.4746872
50
6.8810639
51
10.1901873
0
ARC
8
DEFAULT_255_2_778
10
13.0810099
20
4.469454
40
1.1850294
50
7.1390209
51
42.6124666
0
ARC
8
DEFAULT_255_2_778
10
13.3530417
20
4.6543003
40
0.8610267
50
45.8173986
51
66.0013646
0
ARC
8
DEFAULT_255_2_778
10
13.4807346
20
4.7557941
40
0.7203264
50
72.0078238
51
90.1506543
0
ARC
8
DEFAULT_255_2_778
10
13.4788319
20
4.7269516
40
0.7491666
50
89.9993403
51
93.2737819
0
ARC
8
DEFAULT_255_2_778
10
13.4539452
20
4.8436386
40
0.6315105
50
91.6238942
51
146.3253399
0
ARC
8
DEFAULT_255_2_778
10
13.4295488
20
4.8784815
40
0.5920903
50
147.8224273
51
158.2697229
0
ARC
8
DEFAULT_255_2_778
10
13.2199678
20
4.8926861
40
0.3973965
50
148.9436035
51
159.2207168
0
ARC
8
DEFAULT_255_2_778
10
13.1761716
20
4.909587
40
0.3504534
50
159.2638771
51
174.4096609
0
ARC
8
DEFAULT_255_2_778
10
13.1845241
20
4.9090114
40
0.3588222
50
174.4481209
51
180.0241504
0
ARC
8
DEFAULT_255_2_778
10
13.3371708
20
4.9233211
40
0.5116732
50
181.6195065
51
205.710827
0
ARC
8
DEFAULT_255_2_778
10
14.4033155
20
5.422238
40
1.688759
50
205.2696556
51
213.0094382
0
ARC
8
DEFAULT_255_2_778
10
10.5236349
20
2.9193693
40
2.9282094
50
29.0581595
51
32.7217327
0
ARC
8
DEFAULT_255_2_778
10
12.5107971
20
4.0245961
40
0.6543723
50
17.7042229
51
28.9750055
0
ARC
8
DEFAULT_255_2_778
10
12.8360556
20
4.1296383
40
0.3125766
50
0.7283438
51
17.4924837
0
ARC
8
DEFAULT_255_2_778
10
12.9239827
20
4.1325291
40
0.2246269
50
327.5438387
51
0.2761362
0
ARC
8
DEFAULT_255_2_778
10
12.851429
20
4.1785725
40
0.3105572
50
313.1678737
51
327.5594589
0
ARC
8
DEFAULT_255_2_778
10
12.7339821
20
4.3018005
40
0.4807855
50
304.0734193
51
313.3293783
0
ARC
8
DEFAULT_255_2_778
10
12.5870291
20
4.5168614
40
0.7412569
50
297.6616426
51
304.1688977
0
ARC
8
DEFAULT_255_2_778
10
12.4470459
20
4.777932
40
1.0374793
50
294.6367773
51
297.8152754
0
ARC
8
DEFAULT_255_2_778
10
12.9480584
20
4.4823296
40
0.6510502
50
233.7388167
51
263.9583175
0
ARC
8
DEFAULT_255_2_778
10
13.3646382
20
4.9376242
40
1.2663137
50
203.1811337
51
230.7236401
0
ARC
8
DEFAULT_255_2_778
10
16.4194533
20
6.4835754
40
4.6881467
50
203.6206543
51
205.8542388
0
ARC
8
DEFAULT_255_2_778
10
31.8865328
20
13.3224179
40
21.5996604
50
203.6478269
51
203.8024489
0
ARC
8
DEFAULT_255_2_778
10
13.9441167
20
4.666216
40
1.8434987
50
162.2712104
51
180.2399489
0
ARC
8
DEFAULT_255_2_778
10
13.7761808
20
4.7171875
40
1.6680191
50
140.5303727
51
162.1823265
0
ARC
8
DEFAULT_255_2_778
10
13.6755613
20
4.0312421
40
2.1115006
50
100.4129577
51
124.2061617
0
ARC
8
DEFAULT_255_2_778
10
13.4629453
20
4.8918526
40
1.2278045
50
90.0526531
51
97.9124835
0
ARC
8
DEFAULT_255_2_778
10
13.4621484
20
4.9529297
40
1.1667269
50
79.0587369
51
90.0162705
0
ARC
8
DEFAULT_255_2_778
10
13.453839
20
4.910998
40
1.2094735
50
73.2238095
51
79.0492841
0
ARC
8
DEFAULT_255_2_778
10
13.6588806
20
5.012337
40
1.0664328
50
56.0604957
51
82.2367635
0
ARC
8
DEFAULT_255_2_778
10
13.3866987
20
4.6795756
40
1.4950004
50
25.7465596
51
54.5264283
0
ARC
8
DEFAULT_255_2_778
10
12.3249696
20
4.108371
40
2.6999778
50
15.3961441
51
26.8775378
0
ARC
8
DEFAULT_255_2_778
10
11.6332576
20
3.8967831
40
3.4231018
50
12.9172516
51
15.7367831
0
ARC
8
DEFAULT_255_2_778
10
11.0920533
20
4.6093353
40
3.8780384
50
348.9426274
51
0.7780495
0
ARC
8
DEFAULT_255_2_778
10
12.8327365
20
4.2649734
40
2.1036283
50
321.6481654
51
349.0548492
0
ARC
8
DEFAULT_255_2_778
10
13.0106955
20
4.2911655
40
1.9846477
50
301.2813856
51
317.8646149
0
ARC
8
DEFAULT_255_2_778
10
12.7985042
20
4.7301757
40
2.470456
50
278.3060025
51
300.2003762
0
ARC
8
DEFAULT_255_2_778
10
12.3521418
20
7.2399938
40
5.0190528
50
273.1647998
51
279.2091593
0
ARC
8
DEFAULT_255_2_778
10
12.978849
20
5.2334318
40
3.0251068
50
237.6433777
51
263.3634337
0
ARC
8
DEFAULT_255_2_778
10
12.6992174
20
4.6640245
40
2.3954345
50
223.1895053
51
236.0041103
0
ARC
8
DEFAULT_255_2_778
10
12.8422769
20
4.8069588
40
2.5975722
50
222.4930856
51
223.3284824
0
ARC
8
DEFAULT_255_2_778
10
13.3463984
20
4.7038912
40
2.9294326
50
205.357037
51
214.3185638
0
ARC
8
DEFAULT_255_2_778
10
13.7791462
20
4.9115842
40
3.409435
50
193.7416031
51
205.3966235
0
ARC
8
DEFAULT_255_2_778
10
13.6772921
20
4.8931613
40
3.3061261
50
184.2503073
51
193.8507687
0
ARC
8
DEFAULT_255_2_778
10
13.3672681
20
4.8662188
40
2.9949603
50
180.0254349
51
184.1758632
0
ARC
8
DEFAULT_255_2_778
10
12.9067061
20
4.8786726
40
2.5344355
50
165.7693539
51
180.3116018
0
ARC
8
DEFAULT_255_2_778
10
12.3762518
20
5.0095332
40
1.9880931
50
151.1246191
51
165.6669182
0
ARC
8
DEFAULT_255_2_778
10
13.5276386
20
4.469549
40
3.2581537
50
131.0910329
51
152.5872222
0
ARC
8
DEFAULT_255_2_778
10
14.8521482
20
3.0411281
40
5.2055887
50
124.480453
51
131.7448182
0
ARC
8
DEFAULT_255_2_778
10
11.8076013
20
7.4340806
40
0.1410432
50
313.7497624
51
337.1138094
0
ARC
8
DEFAULT_255_2_778
10
11.8432175
20
7.417196
40
0.1016785
50
338.0741529
51
0.0428439
0
ARC
8
DEFAULT_255_2_778
10
11.8012555
20
7.4127689
40
0.1437112
50
1.7956288
51
29.9674031
0
ARC
8
DEFAULT_255_2_778
10
11.5041515
20
7.2361976
40
0.489315
50
30.5013482
51
45.4715153
0
ARC
8
DEFAULT_255_2_778
10
10.0727996
20
5.8810464
40
2.4601589
50
43.8388164
51
45.110578
0
ARC
8
DEFAULT_255_2_778
10
12.7486447
20
4.7649879
40
3.0094506
50
108.1930671
51
123.0037545
0
ARC
8
DEFAULT_255_2_778
10
16.7228854
20
-1.5176996
40
10.4434575
50
122.5143431
51
125.9179646
0
ARC
8
DEFAULT_255_2_778
10
-86.1201336
20
143.1700722
40
167.0710371
50
305.350244
51
305.3728704
0
ARC
8
DEFAULT_255_2_778
10
5.7493495
20
13.481668
40
8.1406506
50
301.158654
51
306.0728432
0
ARC
8
DEFAULT_255_2_778
10
8.288826
20
9.3436737
40
3.2858194
50
294.8089213
51
300.5991164
0
ARC
8
DEFAULT_255_2_778
10
34.5213586
20
2.4156133
40
25.1650437
50
170.9797088
51
171.4343106
0
ARC
8
DEFAULT_255_2_778
10
66.7893571
20
-2.4456523
40
57.7971695
50
171.4333764
51
171.6336999
0
ARC
8
DEFAULT_255_2_778
10
-57.8427354
20
15.8059975
40
68.1642778
50
351.3428746
51
351.6981654
0
ARC
8
DEFAULT_255_2_778
10
-13.7565034
20
9.1248141
40
23.5746903
50
350.92327
51
351.2679115
0
ARC
8
DEFAULT_255_2_778
10
0.889499
20
6.664238
40
8.7247276
50
343.6172561
51
351.7064477
0
ARC
8
DEFAULT_255_2_778
10
5.6686179
20
5.2706522
40
3.7465976
50
329.0343211
51
343.4496819
0
ARC
8
DEFAULT_255_2_778
10
6.7769811
20
4.6169539
40
2.4598786
50
306.4732222
51
328.80723
0
ARC
8
DEFAULT_255_2_778
10
6.7854597
20
4.6311346
40
2.4662889
50
294.4451268
51
306.1189935
0
ARC
8
DEFAULT_255_2_778
10
6.6929849
20
4.8197382
40
2.6762609
50
293.7217961
51
294.576513
0
ARC
8
DEFAULT_255_2_778
10
7.0980238
20
4.1325305
40
1.8865312
50
270.5989228
51
290.8549131
0
ARC
8
DEFAULT_255_2_778
10
7.0979279
20
4.1374933
40
1.8914945
50
270.0005912
51
270.6002563
0
ARC
8
DEFAULT_255_2_778
10
7.0979469
20
4.1341182
40
1.8881194
50
245.3691262
51
270.0000166
0
ARC
8
DEFAULT_255_2_778
10
6.8904859
20
3.3986093
40
1.1391926
50
216.707787
51
239.425966
0
ARC
8
DEFAULT_255_2_778
10
7.0650033
20
3.4945454
40
1.3367275
50
186.7177773
51
215.5331115
0
ARC
8
DEFAULT_255_2_778
10
7.7444139
20
3.6120997
40
2.0255679
50
179.8352535
51
187.7720816
0
ARC
8
DEFAULT_255_2_778
10
8.2332906
20
3.6148315
40
2.5144382
50
175.2100295
51
179.9295337
0
ARC
8
DEFAULT_255_2_778
10
8.2539304
20
3.2137658
40
2.5991403
50
155.733162
51
166.4031181
0
ARC
8
DEFAULT_255_2_778
10
8.2536905
20
3.2042476
40
2.6028481
50
139.400978
51
155.5399828
0
ARC
8
DEFAULT_255_2_778
10
9.3118035
20
2.2062569
40
4.0562982
50
120.99523
51
138.4237837
0
ARC
8
DEFAULT_255_2_778
10
13.0837205
20
-3.7701307
40
11.1228198
50
117.7938864
51
121.7972198
0
ARC
8
DEFAULT_255_2_778
10
56.2901968
20
-84.5775111
40
102.7557861
50
117.8824348
51
118.0960588
0
ARC
8
DEFAULT_255_2_778
10
-13.6453844
20
47.4374126
40
46.6394589
50
297.9791709
51
298.0458672
0
ARC
8
DEFAULT_255_2_778
10
-0.1984624
20
22.26896
40
18.1040826
50
297.937596
51
299.1477221
0
ARC
8
DEFAULT_255_2_778
10
4.4745609
20
13.8844991
40
8.5053162
50
299.1645425
51
301.3608257
0
ARC
8
DEFAULT_255_2_778
10
5.5424676
20
12.1109509
40
6.4351146
50
301.4597236
51
301.8675492
0
ARC
8
DEFAULT_255_2_778
10
8.6741299
20
6.8944441
40
0.3639752
50
316.9099621
51
6.5262538
0
ARC
8
DEFAULT_255_2_778
10
4.1389841
20
6.9796594
40
4.8969588
50
359.4869782
51
0.1092365
0
ARC
8
DEFAULT_255_2_778
10
8.9329197
20
6.614896
40
0.3880238
50
74.6042356
51
90.3197432
0
ARC
8
DEFAULT_255_2_778
10
8.946678
20
6.3331645
40
0.6699387
50
91.3619854
51
108.0795243
0
ARC
8
DEFAULT_255_2_778
10
9.6258358
20
4.1962725
40
2.9121457
50
107.7346129
51
111.931304
0
ARC
8
DEFAULT_255_2_778
10
8.0022857
20
8.118453
40
1.3332181
50
276.5316187
51
293.6997732
0
ARC
8
DEFAULT_255_2_778
10
8.110324
20
7.4462668
40
0.6538348
50
270.0262566
51
273.8250343
0
ARC
8
DEFAULT_255_2_778
10
8.1087951
20
7.3685571
40
0.5761281
50
254.7331092
51
270.181846
0
ARC
8
DEFAULT_255_2_778
10
8.1120001
20
7.3748606
40
0.5830547
50
245.3836253
51
254.5923859
0
ARC
8
DEFAULT_255_2_778
10
8.0110429
20
7.5812988
40
0.75005
50
245.3694842
51
259.0939525
0
ARC
8
DEFAULT_255_2_778
10
8.0118019
20
7.5655357
40
0.7360731
50
221.2648607
51
244.8044037
0
ARC
8
DEFAULT_255_2_778
10
8.7684817
20
8.1874349
40
1.7153047
50
207.5007104
51
220.2093085
0
ARC
8
DEFAULT_255_2_778
10
43.2994044
20
27.5199134
40
41.2888969
50
209.0703716
51
209.1703561
0
ARC
8
DEFAULT_255_2_778
10
5.5456478
20
6.5871561
40
1.880276
50
27.60138
51
37.5550892
0
ARC
8
DEFAULT_255_2_778
10
6.5680149
20
7.3756562
40
0.5891699
50
37.3664133
51
72.4783639
0
ARC
8
DEFAULT_255_2_778
10
6.5654512
20
7.3257305
40
0.6376752
50
73.6093141
51
88.0104744
0
ARC
8
DEFAULT_255_2_778
10
6.5549516
20
7.1736463
40
0.7900493
50
87.6323885
51
90.0157704
0
ARC
8
DEFAULT_255_2_778
10
7.4285956
20
8.898321
40
1.2795149
50
185.9857614
51
226.9243751
0
ARC
8
DEFAULT_255_2_778
10
8.0062115
20
9.0187409
40
1.8674882
50
180.540307
51
187.8124548
0
ARC
8
DEFAULT_255_2_778
10
8.1291994
20
9.022415
40
1.9905068
50
179.9994858
51
180.612676
0
ARC
8
DEFAULT_255_2_778
10
8.2579064
20
9.0187382
40
2.1192171
50
167.6666905
51
179.9001083
0
ARC
8
DEFAULT_255_2_778
10
8.2314486
20
9.0257495
40
2.0918728
50
164.9282583
51
167.699508
0
ARC
8
DEFAULT_255_2_778
10
6.9043608
20
9.1372242
40
0.8167254
50
127.7992384
51
148.0270572
0
ARC
8
DEFAULT_255_2_778
10
6.7397897
20
9.3244659
40
0.5681143
50
109.0102008
51
126.258196
0
ARC
8
DEFAULT_255_2_778
10
5.5808362
20
9.6070977
40
1.0066014
50
5.1101199
51
14.6449768
0
ARC
8
DEFAULT_255_2_778
10
4.7517293
20
9.5304284
40
1.8392436
50
359.69327
51
5.1884932
0
ARC
8
DEFAULT_255_2_778
10
1.7954566
20
9.5447744
40
4.795551
50
357.390028
51
359.7109574
0
ARC
8
DEFAULT_255_2_778
10
-25.0369696
20
10.6207929
40
31.6494826
50
357.5823411
51
357.6560775
0
ARC
8
DEFAULT_255_2_778
10
13.0401756
20
8.9793852
40
6.4630977
50
177.2834452
51
179.0951892
0
ARC
8
DEFAULT_255_2_778
10
9.40374
20
9.0525023
40
2.8260046
50
179.4131753
51
179.9929285
0
ARC
8
DEFAULT_255_2_778
10
7.98609
20
9.0306157
40
1.4085302
50
179.0954773
51
189.9658306
0
ARC
8
DEFAULT_255_2_778
10
7.0982813
20
8.8556349
40
0.504182
50
187.8407621
51
234.6598345
0
ARC
8
DEFAULT_255_2_778
10
7.1233226
20
8.9214413
40
0.5726189
50
236.4248892
51
252.2706395
0
ARC
8
DEFAULT_255_2_778
10
7.2008519
20
9.1465226
40
0.8106368
50
251.8956763
51
258.7016845
0
ARC
8
DEFAULT_255_2_778
10
16.715368
20
6.1871206
40
9.9125345
50
165.717309
51
167.3874279
0
ARC
8
DEFAULT_255_2_778
10
14.6933061
20
6.7022598
40
7.8258859
50
163.5536048
51
165.7199525
0
ARC
8
DEFAULT_255_2_778
10
11.4621134
20
7.7449578
40
4.4325101
50
147.3335934
51
164.6553353
0
ARC
8
DEFAULT_255_2_778
10
9.5613917
20
8.9640123
40
2.1744497
50
114.3492455
51
147.3421557
0
ARC
8
DEFAULT_255_2_778
10
9.4550172
20
9.1213056
40
1.9875485
50
106.3584076
51
113.4249787
0
ARC
8
DEFAULT_255_2_778
10
8.8966843
20
8.814128
40
2.2142681
50
87.0629074
51
90.0375245
0
ARC
8
DEFAULT_255_2_778
10
8.9736279
20
9.7227887
40
1.3032103
50
68.4397278
51
88.3944325
0
ARC
8
DEFAULT_255_2_778
10
9.2864753
20
10.4754037
40
0.4885016
50
10.0365258
51
70.1274234
0
ARC
8
DEFAULT_255_2_778
10
9.2253354
20
10.469181
40
0.5498091
50
7.505269
51
9.5646837
0
LINE
8
DEFAULT_255_2_778
10
9.7704341
20
10.5409956
11
9.7699341
21
10.5512956
0
ARC
8
DEFAULT_255_2_778
10
7.2984573
20
10.4374929
40
1.8453769
50
316.6692747
51
354.3593335
0
ARC
8
DEFAULT_255_2_778
10
5.9359986
20
11.5999702
40
3.6352358
50
303.0753716
51
318.0775107
0
ARC
8
DEFAULT_255_2_778
10
9.5515027
20
8.6680973
40
1.6356016
50
179.9891053
51
184.0067186
0
ARC
8
DEFAULT_255_2_778
10
9.598474
20
8.6682459
40
1.682573
50
177.1803753
51
179.9944714
0
ARC
8
DEFAULT_255_2_778
10
9.8668967
20
8.6322981
40
1.9525709
50
146.8966257
51
176.5142544
0
ARC
8
DEFAULT_255_2_778
10
10.0345286
20
8.5470579
40
2.1396429
50
122.3002117
51
147.4361563
0
ARC
8
DEFAULT_255_2_778
10
8.9762926
20
10.1864128
40
0.1893922
50
110.9697695
51
116.6987689
0
ARC
8
DEFAULT_255_2_778
10
8.968649
20
10.208441
40
0.166089
50
90.2070451
51
111.2271136
0
ARC
8
DEFAULT_255_2_778
10
8.960353
20
10.1900333
40
0.184656
50
22.1357422
51
87.6114294
0
ARC
8
DEFAULT_255_2_778
10
11.9836528
20
10.3471495
40
1.2898626
50
338.3987929
51
355.9527509
0
ARC
8
DEFAULT_255_2_778
10
11.6394904
20
10.5573498
40
1.6886376
50
306.6876765
51
336.0659131
0
ARC
8
DEFAULT_255_2_778
10
8.7863271
20
14.0028463
40
6.1605
50
304.9475168
51
308.8221012
0
ARC
8
DEFAULT_255_2_778
10
0.6934165
20
25.3107787
40
20.0657889
50
305.3364406
51
305.3932415
0
ARC
8
DEFAULT_255_2_778
10
14.1495831
20
8.9592373
40
1.8506674
50
157.0504092
51
180.5425777
0
ARC
8
DEFAULT_255_2_778
10
13.750968
20
9.127727
40
1.4179058
50
120.5575909
51
157.0392991
0
ARC
8
DEFAULT_255_2_778
10
13.1117489
20
10.1815094
40
0.1860739
50
91.0624884
51
116.0276435
0
ARC
8
DEFAULT_255_2_778
10
13.1139982
20
10.1588008
40
0.2088281
50
89.9983191
51
91.5640117
0
ARC
8
DEFAULT_255_2_778
10
13.1227723
20
10.2010813
40
0.1667783
50
35.9815837
51
93.0135862
0
ARC
8
DEFAULT_255_2_778
10
13.1793067
20
10.2529231
40
0.0909923
50
359.8671669
51
30.4726509
0
ARC
8
DEFAULT_255_2_778
10
3.6870609
20
6.1753252
40
5.1197775
50
338.7239213
51
356.1191821
0
ARC
8
DEFAULT_255_2_778
10
5.7775607
20
5.3769595
40
2.8821008
50
310.6872863
51
338.4334349
0
ARC
8
DEFAULT_255_2_778
10
5.9113332
20
5.2637637
40
2.7091973
50
301.7387639
51
310.1027044
0
ARC
8
DEFAULT_255_2_778
10
7.1918795
20
4.1114566
40
1.1607885
50
270.1972973
51
277.1569087
0
ARC
8
DEFAULT_255_2_778
10
7.1935826
20
4.144074
40
1.1934011
50
270.0052761
51
270.1101403
0
ARC
8
DEFAULT_255_2_778
10
7.181212
20
3.8076079
40
0.8570259
50
248.9843748
51
270.8343997
0
ARC
8
DEFAULT_255_2_778
10
7.0358235
20
3.4623138
40
0.4827066
50
187.5473876
51
250.3955143
0
ARC
8
DEFAULT_255_2_778
10
8.313992
20
3.3296687
40
1.7580574
50
157.6976855
51
177.7427463
0
ARC
8
DEFAULT_255_2_778
10
8.875692
20
3.0549535
40
2.3823445
50
133.4508577
51
156.7114968
0
ARC
8
DEFAULT_255_2_778
10
10.7046886
20
1.1367996
40
5.0327233
50
120.4627146
51
133.5488846
0
ARC
8
DEFAULT_255_2_778
10
13.1697611
20
-2.781996
40
9.6612884
50
119.3128422
51
121.2814452
0
ARC
8
DEFAULT_255_2_778
10
15.2098392
20
-6.3983823
40
13.8134108
50
118.4927855
51
119.3475294
0
ARC
8
DEFAULT_255_2_778
10
19.0026277
20
-13.3872513
40
21.7651108
50
117.9690817
51
118.4911234
0
LINE
8
DEFAULT_255_2_778
10
9.1313987
20
10.2596121
11
9.1348987
21
10.2561121
0
LINE
8
DEFAULT_255_2_778
10
13.2702987
20
10.2527121
11
13.2702987
21
10.2561121
0
LINE
8
DEFAULT_255_2_778
10
8.7948987
20
5.8357121
11
8.7950987
21
5.8288121
0
ENDSEC
0
EOF