0
SECTION
2
HEADER
9
$MEASUREMENT
70
1
0
ENDSEC
0
SECTION
2
TABLES
0
TABLE
2
LTYPE
0
LTYPE
72
65
70
64
2
CONTINUOUS
3
______
73
0
40
0
0
ENDTAB
0
TABLE
2
LAYER
0
LAYER
2
DEFAULT_255_2_778
70
0
62
255
6
CONTINUOUS
0
ENDTAB
0
ENDSEC
0
SECTION
2
ENTITIES
0
ARC
8
DEFAULT_255_2_778
10
8.7996648
20
4.3110787
40
0.5829474
50
251.6408571
51
271.1435423
0
ARC
8
DEFAULT_255_2_778
10
8.7566485
20
4.131997
40
0.3997356
50
191.5457431
51
249.4072937
0
ARC
8
DEFAULT_255_2_778
10
9.517199
20
4.3642538
40
1.1937621
50
183.6871044
51
195.1638187
0
ARC
8
DEFAULT_255_2_778
10
11.1420222
20
4.4937307
40
2.8236568
50
179.7216677
51
184.1887158
0
ARC
8
DEFAULT_255_2_778
10
10.1199729
20
4.5169208
40
1.8015989
50
172.3634816
51
180.3012823
0
ARC
8
DEFAULT_255_2_778
10
9.4035257
20
4.6169771
40
1.0782169
50
160.3529128
51
172.5739987
0
ARC
8
DEFAULT_255_2_778
10
8.9659789
20
4.7775914
40
0.6121549
50
139.8872367
51
160.7412513
0
ARC
8
DEFAULT_255_2_778
10
8.8202682
20
4.8944115
40
0.4254762
50
88.5278876
51
139.2759854
0
ARC
8
DEFAULT_255_2_778
10
8.8465696
20
4.8310602
40
0.4889289
50
62.5018845
51
91.8015376
0
ARC
8
DEFAULT_255_2_778
10
8.8676028
20
4.9118378
40
0.4079916
50
21.0037761
51
59.8833512
0
ARC
8
DEFAULT_255_2_778
10
8.4782821
20
4.7450985
40
0.8313652
50
7.2427112
51
22.1145628
0
ARC
8
DEFAULT_255_2_778
10
7.7223018
20
4.6374173
40
1.5949307
50
359.6274713
51
7.6563185
0
ARC
8
DEFAULT_255_2_778
10
6.8367695
20
4.6134856
40
2.4804664
50
353.5214449
51
0.3132625
0
ARC
8
DEFAULT_255_2_778
10
7.9937043
20
4.4769823
40
1.3155275
50
342.7514415
51
353.7432696
0
ARC
8
DEFAULT_255_2_778
10
8.6363323
20
4.2707114
40
0.6406696
50
322.2063254
51
343.3277328
0
ARC
8
DEFAULT_255_2_778
10
8.8283397
20
4.1312037
40
0.4035162
50
267.5796285
51
321.1521601
0
ARC
8
DEFAULT_255_2_778
10
12.4878176
20
26.14413
40
24.0399366
50
260.5599608
51
260.5641933
0
ARC
8
DEFAULT_255_2_778
10
8.6846084
20
3.1477636
40
0.7314355
50
259.1281854
51
268.9651925
0
ARC
8
DEFAULT_255_2_778
10
8.3898412
20
-1.9864035
40
4.4118444
50
83.2832532
51
86.3409781
0
ARC
8
DEFAULT_255_2_778
10
8.7007099
20
0.5979991
40
1.8088319
50
77.1654104
51
83.4879005
0
ARC
8
DEFAULT_255_2_778
10
8.9555346
20
1.6851947
40
0.6922282
50
63.4386541
51
77.7407901
0
ARC
8
DEFAULT_255_2_778
10
9.133143
20
2.0378768
40
0.297353
50
357.0338169
51
63.6620104
0
ARC
8
DEFAULT_255_2_778
10
8.7360656
20
1.9935923
40
0.6946335
50
359.9632991
51
2.3842483
0
ARC
8
DEFAULT_255_2_778
10
9.0128113
20
1.9941389
40
0.4178887
50
345.7002267
51
359.8640535
0
ARC
8
DEFAULT_255_2_778
10
8.9520096
20
2.0127086
40
0.4814025
50
313.3688755
51
345.3459575
0
ARC
8
DEFAULT_255_2_778
10
8.8695948
20
2.0995392
40
0.6011176
50
290.9564034
51
313.396075
0
ARC
8
DEFAULT_255_2_778
10
8.785068
20
2.3160705
40
0.8335591
50
275.3550433
51
291.0589267
0
ARC
8
DEFAULT_255_2_778
10
8.7531355
20
2.5772077
40
1.0965616
50
269.9144863
51
275.7428462
0
ARC
8
DEFAULT_255_2_778
10
8.7411041
20
2.7965359
40
1.3159295
50
261.7620211
51
270.4525921
0
ARC
8
DEFAULT_255_2_778
10
8.6404789
20
2.1341992
40
0.6460259
50
246.7212842
51
262.1774512
0
ARC
8
DEFAULT_255_2_778
10
8.505409
20
1.8315493
40
0.3146653
50
212.6521262
51
247.534452
0
ARC
8
DEFAULT_255_2_778
10
8.5636084
20
1.8454638
40
0.3716958
50
177.7514098
51
209.6162858
0
ARC
8
DEFAULT_255_2_778
10
8.6371618
20
1.8596067
40
0.4449632
50
172.8922898
51
179.9432567
0
ARC
8
DEFAULT_255_2_778
10
8.8712078
20
1.8044797
40
0.684516
50
139.154572
51
170.7369672
0
ARC
8
DEFAULT_255_2_778
10
9.1455202
20
1.6037184
40
1.0236994
50
125.9105184
51
140.6958531
0
ARC
8
DEFAULT_255_2_778
10
8.8110095
20
4.3978686
40
1.3222927
50
73.5976825
51
88.2539662
0
ARC
8
DEFAULT_255_2_778
10
8.8349288
20
4.3622433
40
1.3574028
50
89.3090057
51
106.8495658
0
ARC
8
DEFAULT_255_2_778
10
8.6986689
20
4.8014101
40
0.897599
50
106.6508362
51
154.047984
0
ARC
8
DEFAULT_255_2_778
10
9.0350845
20
4.6307734
40
1.2747796
50
153.7689484
51
168.5165278
0
ARC
8
DEFAULT_255_2_778
10
9.6620841
20
4.498374
40
1.9155931
50
168.3692882
51
178.2671344
0
ARC
8
DEFAULT_255_2_778
10
10.2162036
20
4.4682934
40
2.4704047
50
177.9584262
51
180.0173028
0
ARC
8
DEFAULT_255_2_778
10
9.6341143
20
4.4432152
40
1.8884722
50
179.2617469
51
192.9418151
0
ARC
8
DEFAULT_255_2_778
10
8.6424739
20
4.1882371
40
0.8653194
50
191.1927173
51
235.4716474
0
ARC
8
DEFAULT_255_2_778
10
9.1066523
20
2.3236048
40
1.4959527
50
129.65457
51
132.9505818
0
ARC
8
DEFAULT_255_2_778
10
9.2320518
20
2.1839231
40
1.683638
50
132.835234
51
144.8917984
0
ARC
8
DEFAULT_255_2_778
10
8.6385206
20
2.601006
40
0.9582158
50
144.8827643
51
154.6790857
0
ARC
8
DEFAULT_255_2_778
10
8.1816537
20
2.8146336
40
0.4538814
50
154.3896566
51
169.1253841
0
ARC
8
DEFAULT_255_2_778
10
7.98899
20
2.855913
40
0.2569239
50
170.0598443
51
177.5608136
0
ARC
8
DEFAULT_255_2_778
10
8.0207553
20
2.8556564
40
0.2886735
50
177.7782594
51
179.9927782
0
ARC
8
DEFAULT_255_2_778
10
8.0235429
20
2.8643006
40
0.2915882
50
181.6916504
51
239.7973351
0
ARC
8
DEFAULT_255_2_778
10
8.3200869
20
3.2845907
40
0.8052544
50
236.6039708
51
252.1110019
0
ARC
8
DEFAULT_255_2_778
10
8.508444
20
3.7932346
40
1.3473619
50
251.1325271
51
253.6518984
0
ARC
8
DEFAULT_255_2_778
10
8.7867122
20
1.4554688
40
1.2345425
50
122.1810804
51
149.3813112
0
ARC
8
DEFAULT_255_2_778
10
8.3634426
20
1.7238532
40
0.733754
50
150.5827112
51
179.6959158
0
ARC
8
DEFAULT_255_2_778
10
8.5165102
20
1.7242574
40
0.8868182
50
179.7745155
51
189.8099161
0
ARC
8
DEFAULT_255_2_778
10
8.2651436
20
1.6735478
40
0.6305276
50
189.1610656
51
221.2109207
0
ARC
8
DEFAULT_255_2_778
10
8.2957668
20
1.7135834
40
0.6800145
50
222.0487025
51
241.3373733
0
ARC
8
DEFAULT_255_2_778
10
8.4433466
20
1.9804893
40
0.9850016
50
241.2516587
51
254.1127954
0
ARC
8
DEFAULT_255_2_778
10
8.5876296
20
2.4749669
40
1.5000919
50
253.9825041
51
262.8627808
0
ARC
8
DEFAULT_255_2_778
10
8.6846805
20
3.2247771
40
2.2561526
50
262.7830921
51
269.3275655
0
ARC
8
DEFAULT_255_2_778
10
8.7015892
20
3.8000854
40
2.831638
50
269.1220723
51
270.0042423
0
ARC
8
DEFAULT_255_2_778
10
8.711337
20
2.8789167
40
1.9104931
50
269.7139484
51
280.0906657
0
ARC
8
DEFAULT_255_2_778
10
8.8068456
20
2.3535422
40
1.3765129
50
280.0081555
51
294.1563181
0
ARC
8
DEFAULT_255_2_778
10
8.9442039
20
2.0508196
40
1.0440891
50
294.0768712
51
315.9048245
0
ARC
8
DEFAULT_255_2_778
10
8.9272412
20
2.0366362
40
1.0466331
50
317.1087006
51
1.314558
0
ARC
8
DEFAULT_255_2_778
10
9.1471301
20
2.0703546
40
0.8265257
50
359.3270666
51
17.6044665
0
ARC
8
DEFAULT_255_2_778
10
9.2596567
20
2.0768021
40
0.7178608
50
19.8308547
51
74.1449284
0
ARC
8
DEFAULT_255_2_778
10
8.9428526
20
1.2730919
40
1.5798447
50
71.0544489
51
82.535291
0
ARC
8
DEFAULT_255_2_778
10
6.020527
20
-20.5956603
40
23.6429834
50
82.3984445
51
82.4056108
0
ARC
8
DEFAULT_255_2_778
10
6.0692103
20
-20.2336968
40
23.2777611
50
82.4066434
51
82.4138702
0
ARC
8
DEFAULT_255_2_778
10
8.1781576
20
-4.3959217
40
7.3001899
50
82.4110614
51
82.4339411
0
ARC
8
DEFAULT_255_2_778
10
8.1905503
20
-4.2898191
40
7.1933796
50
82.420515
51
82.4435689
0
ARC
8
DEFAULT_255_2_778
10
6.2193528
20
-19.144708
40
22.1784836
50
82.4419606
51
82.4493847
0
ARC
8
DEFAULT_255_2_778
10
7.6092225
20
-8.6508913
40
11.5930256
50
82.4439978
51
82.4604483
0
ARC
8
DEFAULT_255_2_778
10
7.6356238
20
-8.4471273
40
11.387559
50
82.4576154
51
82.4742238
0
ARC
8
DEFAULT_255_2_778
10
3.9175409
20
-36.5922661
40
39.7772222
50
82.4744766
51
82.4791919
0
ARC
8
DEFAULT_255_2_778
10
7.8265401
20
-6.9833259
40
9.9113618
50
82.4790106
51
82.4977775
0
ARC
8
DEFAULT_255_2_778
10
1.0026983
20
-58.8112643
40
62.186595
50
82.4991304
51
82.5020967
0
ARC
8
DEFAULT_255_2_778
10
7.7336347
20
-7.6742206
40
10.6084723
50
82.5048843
51
82.5221289
0
ARC
8
DEFAULT_255_2_778
10
7.7563767
20
-7.49137
40
10.4242172
50
82.5152684
51
82.5326726
0
ARC
8
DEFAULT_255_2_778
10
7.7787983
20
-7.3108905
40
10.2423546
50
82.5258263
51
82.5433931
0
ARC
8
DEFAULT_255_2_778
10
53.2563967
20
340.2142409
40
340.2457749
50
262.5439991
51
262.5445984
0
ARC
8
DEFAULT_255_2_778
10
0.8444919
20
-60.3591526
40
63.7419131
50
82.5544008
51
82.5573717
0
ARC
8
DEFAULT_255_2_778
10
1.0424281
20
-58.9115468
40
62.2808646
50
82.5654263
51
82.56844
0
ARC
8
DEFAULT_255_2_778
10
1.2368224
20
-57.4886238
40
60.8447513
50
82.5766494
51
82.579707
0
ARC
8
DEFAULT_255_2_778
10
0.8976886
20
-60.1488243
40
63.5264725
50
82.5862573
51
82.5892567
0
ARC
8
DEFAULT_255_2_778
10
1.0858658
20
-58.7487373
40
62.1138094
50
82.5948098
51
82.5978494
0
ARC
8
DEFAULT_255_2_778
10
7.4519736
20
-9.7530486
40
12.706271
50
82.6014656
51
82.6164264
0
ARC
8
DEFAULT_255_2_778
10
0.9764958
20
-59.7305194
40
63.1015031
50
82.6172305
51
82.6202625
0
ARC
8
DEFAULT_255_2_778
10
7.4631482
20
-9.6491041
40
12.6017524
50
82.6212602
51
82.6363
0
ARC
8
DEFAULT_255_2_778
10
7.4929819
20
-9.4049398
40
12.3557783
50
82.6283877
51
82.6435829
0
ARC
8
DEFAULT_255_2_778
10
-8.4856442
20
-133.2355265
40
137.2130194
50
82.6470559
51
82.6484113
0
ARC
8
DEFAULT_255_2_778
10
1.7246626
20
-54.1488841
40
57.4700118
50
82.6550245
51
82.6582305
0
ARC
8
DEFAULT_255_2_778
10
1.9034669
20
-52.8164181
40
56.1256215
50
82.6654435
51
82.6686954
0
ARC
8
DEFAULT_255_2_778
10
7.7612989
20
-7.2814732
40
10.2154331
50
82.665258
51
82.6829578
0
ARC
8
DEFAULT_255_2_778
10
2.2244518
20
-50.3838201
40
53.6719515
50
82.6805461
51
82.6838834
0
ARC
8
DEFAULT_255_2_778
10
7.8079464
20
-6.8928736
40
9.8240571
50
82.6823864
51
82.7004488
0
ARC
8
DEFAULT_255_2_778
10
2.5433574
20
-47.9823371
40
51.2494106
50
82.6990798
51
82.7025099
0
ARC
8
DEFAULT_255_2_778
10
2.6872052
20
-46.8819274
40
50.1396427
50
82.7058322
51
82.7093055
0
ARC
8
DEFAULT_255_2_778
10
2.8314593
20
-45.7838793
40
49.032166
50
82.7136778
51
82.7171964
0
ARC
8
DEFAULT_255_2_778
10
5.1182151
20
-27.9073789
40
31.0099989
50
82.7211852
51
82.7266969
0
ARC
8
DEFAULT_255_2_778
10
7.9145081
20
-5.9899733
40
8.9149334
50
82.7202449
51
82.7392384
0
ARC
8
DEFAULT_255_2_778
10
5.2735865
20
-26.6918766
40
29.7846068
50
82.7328353
51
82.7384674
0
ARC
8
DEFAULT_255_2_778
10
8.0545803
20
-4.8601484
40
7.7764656
50
82.7324859
51
82.7538568
0
ARC
8
DEFAULT_255_2_778
10
5.4269222
20
-25.5029891
40
28.5858734
50
82.7479533
51
82.753713
0
ARC
8
DEFAULT_255_2_778
10
5.4972529
20
-24.9461325
40
28.0245933
50
82.7527521
51
82.7585726
0
ARC
8
DEFAULT_255_2_778
10
5.567392
20
-24.3944854
40
27.4685051
50
82.758665
51
82.7645482
0
ARC
8
DEFAULT_255_2_778
10
5.6364616
20
-23.8509757
40
26.9206242
50
82.7646889
51
82.7706362
0
ARC
8
DEFAULT_255_2_778
10
5.7053205
20
-23.3126449
40
26.3779076
50
82.7718679
51
82.7778814
0
ARC
8
DEFAULT_255_2_778
10
5.7731142
20
-22.7823309
40
25.8432782
50
82.7791821
51
82.7852632
0
ARC
8
DEFAULT_255_2_778
10
5.8304577
20
-22.3084409
40
25.3659388
50
82.7793326
51
82.7854707
0
ARC
8
DEFAULT_255_2_778
10
5.8979049
20
-21.7877906
40
24.8409401
50
82.7889937
51
82.7952036
0
ARC
8
DEFAULT_255_2_778
10
6.7368003
20
-15.1380239
40
18.1384675
50
82.7897789
51
82.7982049
0
ARC
8
DEFAULT_255_2_778
10
6.7830169
20
-14.7787187
40
17.7762028
50
82.8008089
51
82.8093272
0
ARC
8
DEFAULT_255_2_778
10
6.0767546
20
-20.3626037
40
23.4045754
50
82.8050111
51
82.8114213
0
ARC
8
DEFAULT_255_2_778
10
6.8632743
20
-14.1189394
40
17.1115669
50
82.8081853
51
82.8168721
0
ARC
8
DEFAULT_255_2_778
10
6.1874529
20
-19.4711941
40
22.5063203
50
82.8136502
51
82.820194
0
ARC
8
DEFAULT_255_2_778
10
6.9418455
20
-13.4777539
40
16.4655892
50
82.8180916
51
82.8269536
0
ARC
8
DEFAULT_255_2_778
10
6.9805866
20
-13.1639744
40
16.1494281
50
82.8243188
51
82.8332713
0
ARC
8
DEFAULT_255_2_778
10
6.3414524
20
-18.2173155
40
21.243026
50
82.82329
51
82.8300333
0
ARC
8
DEFAULT_255_2_778
10
25.4626588
20
133.85806
40
132.0297387
50
262.8324685
51
262.8340805
0
ARC
8
DEFAULT_255_2_778
10
328.1867727
20
2557.8600204
40
2574.861532
50
262.8755764
51
262.8789006
0
ARC
8
DEFAULT_255_2_778
10
10.3778099
20
15.204946
40
12.4218038
50
262.2733383
51
262.8929514
0
ARC
8
DEFAULT_255_2_778
10
9.1993417
20
6.5917436
40
3.7283736
50
259.9698938
51
262.4231216
0
ARC
8
DEFAULT_255_2_778
10
8.7534095
20
4.0973706
40
1.1944666
50
254.3698846
51
260.1945114
0
ARC
8
DEFAULT_255_2_778
10
8.5184964
20
3.2767652
40
0.3409532
50
240.3763641
51
255.2326261
0
ARC
8
DEFAULT_255_2_778
10
8.379562
20
3.0447718
40
0.070871
50
184.3896471
51
245.3139987
0
ARC
8
DEFAULT_255_2_778
10
8.5585637
20
3.0278911
40
0.2499275
50
150.5971366
51
177.3727256
0
ARC
8
DEFAULT_255_2_778
10
8.7985506
20
2.9138317
40
0.5153292
50
147.7002201
51
152.6492963
0
ARC
8
DEFAULT_255_2_778
10
9.2516073
20
2.6059963
40
1.0629277
50
136.3973625
51
146.7238894
0
ARC
8
DEFAULT_255_2_778
10
8.7337477
20
4.5506491
40
1.2375001
50
258.2574645
51
269.8071713
0
ARC
8
DEFAULT_255_2_778
10
8.7806047
20
5.8709326
40
2.5582855
50
268.857232
51
270.0245051
0
ARC
8
DEFAULT_255_2_778
10
8.7929317
20
4.8684198
40
1.5558129
50
269.5863249
51
281.0712763
0
ARC
8
DEFAULT_255_2_778
10
8.9013578
20
4.3333148
40
1.0098525
50
280.8640755
51
299.5711811
0
ARC
8
DEFAULT_255_2_778
10
8.9506535
20
4.2053777
40
0.8744872
50
300.8989093
51
345.8383436
0
ARC
8
DEFAULT_255_2_778
10
8.2414447
20
4.4291035
40
1.6174618
50
344.3003431
51
357.6429497
0
ARC
8
DEFAULT_255_2_778
10
7.5926885
20
4.4764627
40
2.2677109
50
357.1215061
51
0.0349862
0
ARC
8
DEFAULT_255_2_778
10
8.4657875
20
4.4872418
40
1.394643
50
359.6140496
51
12.9302727
0
ARC
8
DEFAULT_255_2_778
10
8.8643846
20
4.5815839
40
0.9850465
50
12.7698675
51
32.3985438
0
ARC
8
DEFAULT_255_2_778
10
9.0170061
20
4.6714413
40
0.8080573
50
32.8172493
51
43.762171
0
ARC
8
DEFAULT_255_2_778
10
9.9126856
20
6.5624674
40
1.3681893
50
256.8146432
51
265.7784775
0
ARC
8
DEFAULT_255_2_778
10
9.8471208
20
5.8528098
40
0.6557625
50
266.9272469
51
269.9543949
0
ARC
8
DEFAULT_255_2_778
10
9.8600999
20
5.3666373
40
0.1701264
50
265.4482699
51
358.1106635
0
ARC
8
DEFAULT_255_2_778
10
9.6625463
20
5.4086164
40
0.370655
50
352.6234914
51
0.2057528
0
ARC
8
DEFAULT_255_2_778
10
9.3588685
20
5.41518
40
0.6743507
50
359.5554152
51
13.0905392
0
ARC
8
DEFAULT_255_2_778
10
9.6489339
20
5.4854436
40
0.375919
50
12.6728182
51
28.2108985
0
ARC
8
DEFAULT_255_2_778
10
4.9352133
20
5.8579993
40
0.5214162
50
54.662129
51
85.3964691
0
ARC
8
DEFAULT_255_2_778
10
4.934982
20
5.8554365
40
0.5239893
50
85.393749
51
87.6437543
0
ARC
8
DEFAULT_255_2_778
10
4.9349501
20
5.8548052
40
0.5246215
50
87.6431106
51
90.0008261
0
ARC
8
DEFAULT_255_2_778
10
4.9342405
20
5.8561054
40
0.5233217
50
89.9231381
51
143.7645952
0
ARC
8
DEFAULT_255_2_778
10
4.9428728
20
5.849457
40
0.5342146
50
143.7367025
51
144.6223672
0
ARC
8
DEFAULT_255_2_778
10
2.4043502
20
7.6298121
40
2.566403
50
314.51543
51
325.0262571
0
ARC
8
DEFAULT_255_2_778
10
2.8466877
20
7.1818555
40
1.9368593
50
300.0745409
51
314.4754661
0
ARC
8
DEFAULT_255_2_778
10
2.8906525
20
7.1377718
40
1.8775341
50
277.9372364
51
294.7533077
0
ARC
8
DEFAULT_255_2_778
10
2.7849966
20
7.7882872
40
2.5364505
50
271.6176349
51
278.2718973
0
ARC
8
DEFAULT_255_2_778
10
2.9120517
20
7.6018059
40
2.3496129
50
257.2609382
51
268.6476442
0
ARC
8
DEFAULT_255_2_778
10
2.7925928
20
7.0537162
40
1.788678
50
244.9906014
51
257.1218697
0
ARC
8
DEFAULT_255_2_778
10
2.8423731
20
7.1539808
40
1.9005891
50
224.6781318
51
244.9084724
0
ARC
8
DEFAULT_255_2_778
10
3.3284625
20
7.6458399
40
2.5920815
50
215.0171534
51
224.8541789
0
ARC
8
DEFAULT_255_2_778
10
0.7790012
20
5.8561088
40
0.522871
50
35.3259889
51
85.4824471
0
ARC
8
DEFAULT_255_2_778
10
0.7779891
20
5.8529854
40
0.526065
50
85.3993479
51
89.9985794
0
ARC
8
DEFAULT_255_2_778
10
0.7780044
20
5.8539506
40
0.5250998
50
90.0002449
51
92.3674604
0
ARC
8
DEFAULT_255_2_778
10
0.7776867
20
5.8578646
40
0.5211761
50
92.3503404
51
124.2400304
0
ARC
8
DEFAULT_255_2_778
10
0.7841613
20
5.8471293
40
0.5336941
50
124.1661858
51
125.216275
0
ARC
8
DEFAULT_255_2_778
10
0.7784973
20
5.8565316
40
0.5227471
50
125.3033642
51
175.696307
0
ARC
8
DEFAULT_255_2_778
10
0.781831
20
5.8554658
40
0.5261522
50
175.6078127
51
179.9989199
0
ARC
8
DEFAULT_255_2_778
10
0.7805586
20
5.855473
40
0.5248797
50
179.9997084
51
182.3600259
0
ARC
8
DEFAULT_255_2_778
10
0.7769554
20
5.8551456
40
0.5212662
50
182.3403781
51
214.221446
0
ARC
8
DEFAULT_255_2_778
10
0.7884466
20
5.8621556
40
0.5347109
50
214.1500595
51
215.1978507
0
ARC
8
DEFAULT_255_2_778
10
3.2784181
20
7.6103159
40
3.5770809
50
215.0907638
51
226.3157234
0
ARC
8
DEFAULT_255_2_778
10
2.8383154
20
7.1433608
40
2.9354302
50
226.2326672
51
244.9773816
0
ARC
8
DEFAULT_255_2_778
10
2.8223604
20
7.1318301
40
2.918249
50
245.1654772
51
251.2930965
0
ARC
8
DEFAULT_255_2_778
10
4.6079053
20
0.5958852
40
4.6511871
50
125.811526
51
127.90081
0
ARC
8
DEFAULT_255_2_778
10
4.4158039
20
0.8454063
40
4.3362893
50
127.9232382
51
128.24991
0
ARC
8
DEFAULT_255_2_778
10
3.880368
20
1.4929431
40
3.4963378
50
127.9286813
51
138.2454698
0
ARC
8
DEFAULT_255_2_778
10
3.0382324
20
2.2321414
40
2.3758569
50
138.0195801
51
157.394355
0
ARC
8
DEFAULT_255_2_778
10
2.7453159
20
2.3746462
40
2.0507551
50
157.924178
51
159.5264947
0
ARC
8
DEFAULT_255_2_778
10
3.2292966
20
2.1914028
40
2.5682595
50
159.4732934
51
176.1358639
0
ARC
8
DEFAULT_255_2_778
10
3.1821805
20
2.1971313
40
2.5208657
50
176.1936026
51
176.7342092
0
ARC
8
DEFAULT_255_2_778
10
3.1658659
20
2.1980084
40
2.5045276
50
176.7329783
51
179.9980374
0
ARC
8
DEFAULT_255_2_778
10
3.1074284
20
2.1952036
40
2.446092
50
179.9322927
51
201.5292173
0
ARC
8
DEFAULT_255_2_778
10
3.0478538
20
2.1603526
40
2.3779079
50
201.2748444
51
242.650408
0
ARC
8
DEFAULT_255_2_778
10
2.865945
20
1.8552734
40
2.0234716
50
243.2568249
51
265.9780793
0
ARC
8
DEFAULT_255_2_778
10
2.8938723
20
2.0740026
40
2.2436559
50
265.6584274
51
270.0110171
0
ARC
8
DEFAULT_255_2_778
10
2.8930187
20
2.1648999
40
2.3345535
50
270.0315378
51
277.8926391
0
ARC
8
DEFAULT_255_2_778
10
2.8766528
20
2.2760381
40
2.4468863
50
277.914875
51
290.7053471
0
ARC
8
DEFAULT_255_2_778
10
2.859985
20
2.3249005
40
2.4984866
50
290.6667162
51
294.2484481
0
ARC
8
DEFAULT_255_2_778
10
2.9484225
20
2.1521127
40
2.3046429
50
294.0079911
51
309.6945404
0
ARC
8
DEFAULT_255_2_778
10
3.2178539
20
1.8356274
40
1.8890427
50
309.5374474
51
331.452454
0
ARC
8
DEFAULT_255_2_778
10
3.4663411
20
1.6949172
40
1.60353
50
331.625882
51
354.1776241
0
ARC
8
DEFAULT_255_2_778
10
3.3422622
20
1.704071
40
1.727901
50
354.2930386
51
359.9340698
0
ARC
8
DEFAULT_255_2_778
10
2.886904
20
1.7037347
40
2.1832586
50
359.9566462
51
359.9913289
0
ARC
8
DEFAULT_255_2_778
10
3.5081946
20
1.7114129
40
1.5619885
50
359.7062331
51
22.7620582
0
ARC
8
DEFAULT_255_2_778
10
3.699716
20
1.7957249
40
1.352767
50
22.6076688
51
65.7418305
0
ARC
8
DEFAULT_255_2_778
10
3.7138862
20
1.8272068
40
1.3182432
50
65.7411647
51
78.6550178
0
ARC
8
DEFAULT_255_2_778
10
3.7247354
20
1.8746666
40
1.2695771
50
78.7137395
51
86.0330296
0
ARC
8
DEFAULT_255_2_778
10
3.7253372
20
1.881195
40
1.2630228
50
86.0397751
51
90.0000742
0
ARC
8
DEFAULT_255_2_778
10
3.7325821
20
1.8160214
40
1.3282162
50
90.3125984
51
120.9409417
0
ARC
8
DEFAULT_255_2_778
10
3.8575488
20
1.5961798
40
1.5810368
50
120.7289833
51
137.5293488
0
ARC
8
DEFAULT_255_2_778
10
3.9928729
20
1.4631602
40
1.7706843
50
137.3110654
51
141.7513467
0
ARC
8
DEFAULT_255_2_778
10
3.0113861
20
2.2361335
40
0.5213632
50
141.6882514
51
175.1123981
0
ARC
8
DEFAULT_255_2_778
10
3.0153628
20
2.2356201
40
0.5253693
50
175.0935548
51
178.4319791
0
ARC
8
DEFAULT_255_2_778
10
3.0160401
20
2.2356009
40
0.5260467
50
178.4319079
51
180.0005745
0
ARC
8
DEFAULT_255_2_778
10
3.0129253
20
2.2348009
40
0.5229327
50
179.912923
51
230.6435521
0
ARC
8
DEFAULT_255_2_778
10
3.0203785
20
2.2434881
40
0.5343762
50
230.6163246
51
231.6611027
0
ARC
8
DEFAULT_255_2_778
10
3.0120924
20
2.2331422
40
0.5211212
50
231.67007
51
265.1164364
0
ARC
8
DEFAULT_255_2_778
10
3.0126023
20
2.237216
40
0.5252237
50
265.0988469
51
268.4384911
0
ARC
8
DEFAULT_255_2_778
10
3.0126191
20
2.237493
40
0.5255011
50
268.4374809
51
270.0005634
0
ARC
8
DEFAULT_255_2_778
10
3.0133472
20
2.2352063
40
0.5232148
50
269.9208442
51
320.6222884
0
ARC
8
DEFAULT_255_2_778
10
3.0050014
20
2.2424482
40
0.5342604
50
320.5897844
51
321.6347248
0
ARC
8
DEFAULT_255_2_778
10
3.9324749
20
1.5102034
40
0.6474297
50
128.2063462
51
141.76981
0
ARC
8
DEFAULT_255_2_778
10
3.7792674
20
1.7049055
40
0.3996768
50
111.7779153
51
128.211166
0
ARC
8
DEFAULT_255_2_778
10
3.7312075
20
1.8243487
40
0.2709278
50
90.4733709
51
111.7112662
0
ARC
8
DEFAULT_255_2_778
10
3.7289137
20
1.8578724
40
0.237395
50
65.6486938
51
89.9866176
0
ARC
8
DEFAULT_255_2_778
10
3.6964305
20
1.79613
40
0.3070661
50
31.310101
51
64.877103
0
ARC
8
DEFAULT_255_2_778
10
3.5942379
20
1.7328071
40
0.4272843
50
6.9999886
51
31.4434805
0
ARC
8
DEFAULT_255_2_778
10
3.4408864
20
1.7067268
40
0.5827156
50
359.8715764
51
7.7076596
0
ARC
8
DEFAULT_255_2_778
10
3.3300874
20
1.7061843
40
0.6935135
50
354.8995859
51
359.9369122
0
ARC
8
DEFAULT_255_2_778
10
3.2703533
20
1.7106818
40
0.7534114
50
354.2689895
51
354.9627659
0
ARC
8
DEFAULT_255_2_778
10
3.4089992
20
1.7117759
40
0.6157488
50
320.7280231
51
352.8792742
0
ARC
8
DEFAULT_255_2_778
10
3.0933051
20
1.9535447
40
1.0132628
50
302.1229976
51
321.4444637
0
ARC
8
DEFAULT_255_2_778
10
2.9235072
20
2.202807
40
1.3147015
50
293.9119841
51
302.6137651
0
ARC
8
DEFAULT_255_2_778
10
2.8718379
20
2.2992648
40
1.4238468
50
281.3116148
51
294.2394194
0
ARC
8
DEFAULT_255_2_778
10
2.8904077
20
2.2004279
40
1.3232879
50
270.1180252
51
281.362587
0
ARC
8
DEFAULT_255_2_778
10
2.8859225
20
1.9679042
40
1.0907852
50
252.8725231
51
270.3787814
0
ARC
8
DEFAULT_255_2_778
10
2.8263825
20
1.7578335
40
0.8725104
50
243.0830914
51
252.5464154
0
ARC
8
DEFAULT_255_2_778
10
3.0398607
20
2.1543858
40
1.3227873
50
201.0321924
51
242.6138822
0
ARC
8
DEFAULT_255_2_778
10
3.1149272
20
2.1976366
40
1.4084393
50
194.5000704
51
201.5784796
0
ARC
8
DEFAULT_255_2_778
10
3.1107291
20
2.1967902
40
1.4041631
50
185.807535
51
194.5095251
0
ARC
8
DEFAULT_255_2_778
10
3.1090738
20
2.1964393
40
1.4024808
50
179.995868
51
185.8001167
0
ARC
8
DEFAULT_255_2_778
10
3.1398393
20
2.1958695
40
1.4332465
50
171.2185412
51
179.9731772
0
ARC
8
DEFAULT_255_2_778
10
3.2332202
20
2.1810068
40
1.5278018
50
163.1492282
51
171.2023263
0
ARC
8
DEFAULT_255_2_778
10
3.3439035
20
2.1488124
40
1.6430655
50
159.5289852
51
163.1936113
0
ARC
8
DEFAULT_255_2_778
10
2.8728578
20
2.3188858
40
1.1422991
50
147.1912271
51
159.2577648
0
ARC
8
DEFAULT_255_2_778
10
3.1743354
20
2.1263788
40
1.4999942
50
139.1605999
51
147.2505341
0
ARC
8
DEFAULT_255_2_778
10
3.3865707
20
1.9508639
40
1.7753464
50
138.60595
51
139.3543784
0
ARC
8
DEFAULT_255_2_778
10
3.6690523
20
1.6914047
40
2.1588358
50
131.6364371
51
138.3974885
0
ARC
8
DEFAULT_255_2_778
10
4.3059261
20
0.9791532
40
3.1142964
50
126.7791395
51
131.6872691
0
ARC
8
DEFAULT_255_2_778
10
5.1025211
20
-0.0818016
40
4.4410154
50
123.1801467
51
126.8153235
0
ARC
8
DEFAULT_255_2_778
10
5.8058533
20
-1.1421909
40
5.7134334
50
121.8735129
51
123.2637229
0
ARC
8
DEFAULT_255_2_778
10
2.8273976
20
7.2054942
40
3.0151205
50
298.8836485
51
315.9717764
0
ARC
8
DEFAULT_255_2_778
10
2.3762681
20
7.6545775
40
3.651612
50
315.8250836
51
324.8417929
0
ARC
8
DEFAULT_255_2_778
10
4.9360851
20
5.8530687
40
0.5214224
50
324.7116618
51
355.5132883
0
ARC
8
DEFAULT_255_2_778
10
4.9333137
20
5.8533154
40
0.5242046
50
355.5100981
51
357.6302127
0
ARC
8
DEFAULT_255_2_778
10
4.9327159
20
5.8533347
40
0.5248027
50
357.630813
51
0.0008097
0
ARC
8
DEFAULT_255_2_778
10
4.9343929
20
5.8540787
40
0.5231264
50
359.9193222
51
53.7808275
0
ARC
8
DEFAULT_255_2_778
10
4.9277001
20
5.8453372
40
0.5341334
50
53.7556867
51
54.6413902
0
ARC
8
DEFAULT_255_2_778
10
11.7070336
20
2.9325581
40
0.2567486
50
289.3528874
51
314.3774028
0
ARC
8
DEFAULT_255_2_778
10
11.5395924
20
3.3537644
40
0.7098809
50
276.9516622
51
290.8380198
0
ARC
8
DEFAULT_255_2_778
10
11.5242841
20
3.415241
40
0.7727973
50
270.1790281
51
277.5266421
0
ARC
8
DEFAULT_255_2_778
10
11.4932482
20
3.3220309
40
0.6804063
50
255.0889865
51
272.817955
0
ARC
8
DEFAULT_255_2_778
10
11.3923229
20
2.8957211
40
0.2427871
50
203.3164178
51
252.2156199
0
ARC
8
DEFAULT_255_2_778
10
11.6879767
20
3.0368956
40
0.5703135
50
189.4270262
51
204.5846534
0
ARC
8
DEFAULT_255_2_778
10
12.4340115
20
3.174203
40
1.3288289
50
182.5970339
51
189.9987352
0
ARC
8
DEFAULT_255_2_778
10
13.5228191
20
3.2374658
40
2.4194243
50
179.8938694
51
182.9253231
0
ARC
8
DEFAULT_255_2_778
10
12.7919147
20
3.2524973
40
1.6885488
50
172.927325
51
180.3579809
0
ARC
8
DEFAULT_255_2_778
10
11.9929173
20
3.3558553
40
0.882915
50
160.8722646
51
173.1993862
0
ARC
8
DEFAULT_255_2_778
10
11.5815888
20
3.5030347
40
0.4460891
50
137.6673315
51
161.4209122
0
ARC
8
DEFAULT_255_2_778
10
11.5557657
20
3.4768251
40
0.4461672
50
84.7876346
51
132.9406196
0
ARC
8
DEFAULT_255_2_778
10
11.5963146
20
2.8882909
40
1.0328565
50
82.6802384
51
90.0008751
0
ARC
8
DEFAULT_255_2_778
10
11.6137912
20
3.0408918
40
0.879275
50
81.5895028
51
82.5428605
0
ARC
8
DEFAULT_255_2_778
10
11.6795241
20
3.3931911
40
0.5213248
50
63.8481571
51
83.0730703
0
ARC
8
DEFAULT_255_2_778
10
11.7630374
20
-0.529766
40
6.2490145
50
89.9664289
51
93.0179241
0
ARC
8
DEFAULT_255_2_778
10
11.7052827
20
0.544561
40
5.173137
50
93.0055969
51
95.8908376
0
ARC
8
DEFAULT_255_2_778
10
11.5584716
20
1.9375041
40
3.7724833
50
95.8441617
51
99.2969728
0
ARC
8
DEFAULT_255_2_778
10
11.3073949
20
3.4503613
40
2.2389391
50
99.2106301
51
103.6441118
0
ARC
8
DEFAULT_255_2_778
10
11.0042145
20
4.6790602
40
0.9734088
50
103.3623814
51
110.6051689
0
ARC
8
DEFAULT_255_2_778
10
10.8538958
20
5.0984676
40
0.5279758
50
111.3537499
51
111.7008407
0
ARC
8
DEFAULT_255_2_778
10
10.8005003
20
5.2283392
40
0.3875684
50
111.4658096
51
116.5370644
0
ARC
8
DEFAULT_255_2_778
10
10.7151302
20
5.3979391
40
0.1976962
50
116.3623929
51
124.2340064
0
ARC
8
DEFAULT_255_2_778
10
10.675702
20
5.4579481
40
0.1259079
50
124.762961
51
126.2796502
0
ARC
8
DEFAULT_255_2_778
10
10.7247204
20
5.4244312
40
0.1829944
50
132.4542782
51
183.4687258
0
ARC
8
DEFAULT_255_2_778
10
11.0772257
20
5.3867182
40
0.5358272
50
177.1501003
51
180.0610338
0
ARC
8
DEFAULT_255_2_778
10
11.4172934
20
5.3894865
40
0.875901
50
180.2184257
51
183.0888931
0
ARC
8
DEFAULT_255_2_778
10
11.6259199
20
5.3979746
40
1.084685
50
182.9427787
51
188.3857501
0
ARC
8
DEFAULT_255_2_778
10
11.3939232
20
5.3640004
40
0.850214
50
188.4007591
51
192.6903095
0
ARC
8
DEFAULT_255_2_778
10
11.0232656
20
5.2710918
40
0.4682912
50
191.5630835
51
209.2538479
0
ARC
8
DEFAULT_255_2_778
10
11.0169835
20
4.1251221
40
1.0014748
50
105.8299748
51
113.6840134
0
ARC
8
DEFAULT_255_2_778
10
11.3442117
20
2.9915231
40
2.1813521
50
100.3753666
51
105.9768279
0
ARC
8
DEFAULT_255_2_778
10
11.5779968
20
1.7698136
40
3.4252036
50
96.5909888
51
100.5415925
0
ARC
8
DEFAULT_255_2_778
10
11.5980894
20
1.6573989
40
3.5391885
50
92.4754378
51
96.7052302
0
ARC
8
DEFAULT_255_2_778
10
11.5568582
20
2.5589938
40
2.6366552
50
90.0621362
51
92.4265054
0
ARC
8
DEFAULT_255_2_778
10
11.5764954
20
4.8030912
40
0.3932003
50
59.3850641
51
93.2799069
0
ARC
8
DEFAULT_255_2_778
10
11.6208355
20
4.9194857
40
0.2712723
50
14.9691052
51
54.9205742
0
ARC
8
DEFAULT_255_2_778
10
11.3083797
20
4.8230226
40
0.5981714
50
0.6896675
51
16.1648599
0
ARC
8
DEFAULT_255_2_778
10
10.9612462
20
4.8030233
40
0.9456527
50
359.9832837
51
1.6481949
0
ARC
8
DEFAULT_255_2_778
10
11.5902867
20
3.5675084
40
0.7487713
50
64.9858398
51
80.0505757
0
ARC
8
DEFAULT_255_2_778
10
11.4529483
20
2.9067884
40
1.4234403
50
79.20065
51
84.5817549
0
ARC
8
DEFAULT_255_2_778
10
11.4028567
20
2.3896698
40
1.9429787
50
84.551126
51
90.0606837
0
ARC
8
DEFAULT_255_2_778
10
11.400227
20
2.8248784
40
1.5077692
50
89.9782708
51
91.9783392
0
ARC
8
DEFAULT_255_2_778
10
11.3283657
20
3.5581266
40
0.7738759
50
88.5331134
51
134.44169
0
ARC
8
DEFAULT_255_2_778
10
11.3418985
20
3.597407
40
0.7562203
50
137.2586974
51
156.5395628
0
ARC
8
DEFAULT_255_2_778
10
11.7063964
20
3.4355141
40
1.1550441
50
156.3710233
51
168.4313518
0
ARC
8
DEFAULT_255_2_778
10
12.3410797
20
3.3006829
40
1.8038795
50
168.2785232
51
176.3221055
0
ARC
8
DEFAULT_255_2_778
10
13.08564
20
3.2442044
40
2.5505437
50
176.1288999
51
180.0843985
0
ARC
8
DEFAULT_255_2_778
10
13.1465481
20
3.2303633
40
2.6114687
50
179.7787531
51
185.6340648
0
ARC
8
DEFAULT_255_2_778
10
12.1310945
20
3.126852
40
1.5907619
50
185.5145026
51
194.1455168
0
ARC
8
DEFAULT_255_2_778
10
11.4998528
20
2.9643398
40
0.9389511
50
193.9430351
51
207.538002
0
ARC
8
DEFAULT_255_2_778
10
11.1909521
20
2.8007913
40
0.5894371
50
207.3238592
51
232.1155631
0
ARC
8
DEFAULT_255_2_778
10
11.2761625
20
2.992145
40
0.7943795
50
235.7425072
51
270.4763242
0
ARC
8
DEFAULT_255_2_778
10
11.4062202
20
4.6810189
40
2.486293
50
267.1538807
51
270.169353
0
ARC
8
DEFAULT_255_2_778
10
11.4093209
20
7.199464
40
5.004729
50
270.0486349
51
270.8961886
0
ARC
8
DEFAULT_255_2_778
10
11.4932054
20
4.5806966
40
2.3853558
50
269.8653306
51
277.8701782
0
ARC
8
DEFAULT_255_2_778
10
11.5593424
20
4.1097821
40
1.9098212
50
277.8392124
51
286.4295932
0
ARC
8
DEFAULT_255_2_778
10
11.6950741
20
3.6545475
40
1.4347855
50
286.3723939
51
295.5379388
0
ARC
8
DEFAULT_255_2_778
10
11.8639938
20
3.2955066
40
1.038003
50
295.6687255
51
301.9705374
0
ARC
8
DEFAULT_255_2_778
10
10.8445853
20
4.9189637
40
1.6087541
50
359.5934037
51
8.6471017
0
ARC
8
DEFAULT_255_2_778
10
11.5539256
20
5.0316768
40
0.8905434
50
8.3393179
51
23.781604
0
ARC
8
DEFAULT_255_2_778
10
11.8809852
20
5.1768745
40
0.5327045
50
23.6760273
51
83.0969885
0
ARC
8
DEFAULT_255_2_778
10
11.7739203
20
4.6785621
40
1.0413068
50
80.5432404
51
90.3698387
0
ARC
8
DEFAULT_255_2_778
10
2.8268335
20
7.0176122
40
0.3518371
50
89.9931827
51
135.1956862
0
ARC
8
DEFAULT_255_2_778
10
2.827156
20
7.143942
40
0.2255074
50
89.7858494
51
90.071308
0
ARC
8
DEFAULT_255_2_778
10
2.8288426
20
7.1434632
40
0.2259858
50
89.9287683
51
90.2139225
0
ARC
8
DEFAULT_255_2_778
10
2.8291681
20
7.0173811
40
0.3520681
50
44.819966
51
90.0072457
0
ARC
8
DEFAULT_255_2_778
10
2.8254121
20
7.0136132
40
0.3573882
50
0.1657942
51
44.8239984
0
ARC
8
DEFAULT_255_2_778
10
2.8339308
20
7.0116588
40
0.3488809
50
0.0001028
51
0.4908162
0
ARC
8
DEFAULT_255_2_778
10
2.8310644
20
7.0116587
40
0.3517471
50
315.0026687
51
0.0001176
0
ARC
8
DEFAULT_255_2_778
10
2.8309211
20
7.0117428
40
0.3519081
50
270.0099399
51
315.0094802
0
ARC
8
DEFAULT_255_2_778
10
2.8310069
20
7.0188792
40
0.3590445
50
269.5199804
51
269.9960572
0
ARC
8
DEFAULT_255_2_778
10
2.8271582
20
6.8841978
40
0.224352
50
269.9285141
51
270.2146856
0
ARC
8
DEFAULT_255_2_778
10
2.8269745
20
7.011783
40
0.3519374
50
224.7881751
51
269.9843304
0
ARC
8
DEFAULT_255_2_778
10
2.8308224
20
7.0159788
40
0.3576244
50
180.1171822
51
224.8309559
0
ARC
8
DEFAULT_255_2_778
10
2.7872228
20
7.0163121
40
0.3140258
50
179.9898021
51
180.194254
0
ARC
8
DEFAULT_255_2_778
10
2.8251345
20
7.0162717
40
0.3519374
50
134.7881751
51
179.9843304
0
ARC
8
DEFAULT_255_2_778
10
2.8313256
20
7.0066475
40
1.1998047
50
269.841133
51
315.1611772
0
ARC
8
DEFAULT_255_2_778
10
2.8366193
20
7.0112037
40
1.1992838
50
314.8284957
51
0.154969
0
ARC
8
DEFAULT_255_2_778
10
2.8354703
20
7.0174144
40
1.2004322
50
359.8583868
51
45.1486499
0
ARC
8
DEFAULT_255_2_778
10
2.8318419
20
7.0236934
40
1.19856
50
44.8139889
51
90.004623
0
ARC
8
DEFAULT_255_2_778
10
2.8316831
20
7.0523855
40
1.1698677
50
89.9969592
51
90.1804435
0
ARC
8
DEFAULT_255_2_778
10
2.8243168
20
7.0538628
40
1.1683904
50
89.8194409
51
90.0030428
0
ARC
8
DEFAULT_255_2_778
10
2.8243128
20
7.0240371
40
1.1982162
50
90.0027716
51
135.1928498
0
ARC
8
DEFAULT_255_2_778
10
2.8200975
20
7.0178578
40
1.199603
50
134.8415724
51
180.1533344
0
ARC
8
DEFAULT_255_2_778
10
2.7888834
20
7.0109654
40
1.1683904
50
179.8194409
51
180.0030428
0
ARC
8
DEFAULT_255_2_778
10
2.8190273
20
7.0109941
40
1.1985343
50
180.0043375
51
225.1797721
0
ARC
8
DEFAULT_255_2_778
10
2.82552
20
7.0085111
40
1.2013665
50
224.8766606
51
269.9929475
0
ARC
8
DEFAULT_255_2_778
10
2.8252782
20
7.0392856
40
1.232141
50
270.0043642
51
270.1265112
0
ARC
8
DEFAULT_255_2_778
10
20.5421104
20
2.6246919
40
0.3707596
50
88.6417432
51
124.5174319
0
ARC
8
DEFAULT_255_2_778
10
20.565913
20
2.6235163
40
0.3856818
50
127.3331359
51
182.1350916
0
ARC
8
DEFAULT_255_2_778
10
20.6905798
20
2.5924604
40
0.5103539
50
178.1262706
51
201.6813437
0
ARC
8
DEFAULT_255_2_778
10
20.4681028
20
2.5134982
40
0.274586
50
203.5214325
51
259.353996
0
ARC
8
DEFAULT_255_2_778
10
20.5441194
20
2.8009078
40
0.5715007
50
257.1867683
51
270.6796866
0
ARC
8
DEFAULT_255_2_778
10
20.5597289
20
2.5985506
40
0.3692088
50
268.6295805
51
307.4881255
0
ARC
8
DEFAULT_255_2_778
10
20.5411538
20
2.597916
40
0.380311
50
309.7674156
51
1.6923181
0
ARC
8
DEFAULT_255_2_778
10
20.4238426
20
2.6253946
40
0.4977215
50
358.1293552
51
23.5155507
0
ARC
8
DEFAULT_255_2_778
10
20.6212733
20
2.7006622
40
0.2868215
50
25.4651399
51
79.8330321
0
ARC
8
DEFAULT_255_2_778
10
20.5560834
20
2.4479462
40
0.5474259
50
77.7856268
51
90.5426475
0
ARC
8
DEFAULT_255_2_778
10
22.7938193
20
3.3069635
40
2.4120947
50
90.1715127
51
94.920236
0
ARC
8
DEFAULT_255_2_778
10
22.8603527
20
2.4886822
40
3.2330695
50
94.8512129
51
98.6132064
0
ARC
8
DEFAULT_255_2_778
10
22.885954
20
2.2771939
40
3.4460126
50
98.5074501
51
105.3213283
0
ARC
8
DEFAULT_255_2_778
10
22.5730832
20
3.4118181
40
2.2690443
50
105.2721645
51
110.7900648
0
ARC
8
DEFAULT_255_2_778
10
22.261784
20
4.2439582
40
1.3805999
50
110.9699404
51
114.5802796
0
ARC
8
DEFAULT_255_2_778
10
21.7213113
20
51.9130217
40
49.6235858
50
269.9609598
51
270.1619857
0
ARC
8
DEFAULT_255_2_778
10
21.8488231
20
10.1205044
40
7.8308807
50
270.0935291
51
271.1355917
0
ARC
8
DEFAULT_255_2_778
10
21.978411
20
3.9995974
40
1.7086276
50
270.8587685
51
274.5708172
0
ARC
8
DEFAULT_255_2_778
10
22.0994944
20
2.5845047
40
0.2884952
50
272.9961415
51
288.1760198
0
ARC
8
DEFAULT_255_2_778
10
22.1668688
20
2.3688043
40
0.0626266
50
291.1712367
51
15.0569275
0
ARC
8
DEFAULT_255_2_778
10
20.123281
20
2.3835161
40
2.104065
50
0.0424058
51
0.2723845
0
ARC
8
DEFAULT_255_2_778
10
24.4125519
20
2.4036613
40
2.1852533
50
180.0318266
51
180.2659282
0
ARC
8
DEFAULT_255_2_778
10
22.6404342
20
4.4358677
40
0.798982
50
101.7668171
51
121.1363939
0
ARC
8
DEFAULT_255_2_778
10
22.7336006
20
4.075355
40
1.1710518
50
92.7881769
51
102.6323438
0
ARC
8
DEFAULT_255_2_778
10
22.7272166
20
4.2030906
40
1.0431569
50
90.0339292
51
92.7792268
0
ARC
8
DEFAULT_255_2_778
10
22.7399972
20
4.6976824
40
0.5487286
50
73.8678701
51
91.3991391
0
ARC
8
DEFAULT_255_2_778
10
22.8079938
20
4.9604655
40
0.2775067
50
10.1359411
51
72.2786871
0
ARC
8
DEFAULT_255_2_778
10
22.1252001
20
4.7632584
40
0.9871245
50
3.9980502
51
14.4333207
0
ARC
8
DEFAULT_255_2_778
10
20.0351483
20
4.5948222
40
3.0839144
50
0.2866431
51
4.4124126
0
ARC
8
DEFAULT_255_2_778
10
15.3768263
20
4.524431
40
7.7426735
50
359.9705217
51
0.6350779
0
ARC
8
DEFAULT_255_2_778
10
23.1551361
20
51.9121405
40
49.6227059
50
269.9588522
51
270.1698332
0
ARC
8
DEFAULT_255_2_778
10
23.289241
20
10.0238706
40
7.7342287
50
270.0961861
51
271.1978248
0
ARC
8
DEFAULT_255_2_778
10
23.4230325
20
3.9969285
40
1.7058245
50
270.9367674
51
274.6763123
0
ARC
8
DEFAULT_255_2_778
10
23.5461609
20
2.5917384
40
0.2953867
50
273.0936375
51
288.3640424
0
ARC
8
DEFAULT_255_2_778
10
23.6124453
20
2.3751422
40
0.0691435
50
292.7856012
51
16.3202193
0
ARC
8
DEFAULT_255_2_778
10
18.8764987
20
2.3940483
40
4.8023041
50
0.0062474
51
0.0526623
0
ARC
8
DEFAULT_255_2_778
10
28.5680278
20
2.4029086
40
4.8892291
50
180.0054041
51
180.0521053
0
ARC
8
DEFAULT_255_2_778
10
15.7082662
20
4.5194399
40
7.970574
50
359.8153117
51
2.025899
0
ARC
8
DEFAULT_255_2_778
10
20.6045984
20
4.6991505
40
3.0709561
50
1.9044973
51
6.8004968
0
ARC
8
DEFAULT_255_2_778
10
22.3742079
20
4.9180859
40
1.287896
50
6.4512195
51
17.2972972
0
ARC
8
DEFAULT_255_2_778
10
23.1081724
20
5.167652
40
0.5133135
50
15.058766
51
70.4628509
0
ARC
8
DEFAULT_255_2_778
10
22.9484587
20
4.7376284
40
0.9720128
50
70.0672872
51
83.0930566
0
ARC
8
DEFAULT_255_2_778
10
22.8128256
20
3.7120983
40
2.0064432
50
82.7697622
51
89.6501351
0
ARC
8
DEFAULT_255_2_778
10
22.786739
20
2.6969998
40
3.0217475
50
89.2730404
51
90.0064507
0
ARC
8
DEFAULT_255_2_778
10
19.1218131
20
6.8801249
40
0.2845626
50
87.6464576
51
128.5584701
0
ARC
8
DEFAULT_255_2_778
10
19.17108
20
6.8556028
40
0.3352534
50
132.5335118
51
171.6179616
0
ARC
8
DEFAULT_255_2_778
10
19.5346491
20
6.7729584
40
0.707571
50
169.2882233
51
180.4381638
0
ARC
8
DEFAULT_255_2_778
10
20.1072697
20
6.7403148
40
1.2804605
50
178.7813534
51
179.9892756
0
ARC
8
DEFAULT_255_2_778
10
19.6350138
20
6.7299934
40
0.8082737
50
179.2513361
51
190.9618654
0
ARC
8
DEFAULT_255_2_778
10
19.1712455
20
6.6342581
40
0.334813
50
189.969219
51
215.8681858
0
ARC
8
DEFAULT_255_2_778
10
19.0916342
20
6.5964814
40
0.2486816
50
219.5647319
51
271.973669
0
ARC
8
DEFAULT_255_2_778
10
19.107483
20
6.6194548
40
0.271605
50
268.4631964
51
346.2256384
0
ARC
8
DEFAULT_255_2_778
10
18.6769877
20
6.777252
40
0.72906
50
342.2333583
51
358.3658386
0
ARC
8
DEFAULT_255_2_778
10
18.2875797
20
6.8076525
40
1.1193426
50
357.3787402
51
358.6226743
0
ARC
8
DEFAULT_255_2_778
10
18.4066554
20
6.7950661
40
1.000046
50
359.1796099
51
8.8975677
0
ARC
8
DEFAULT_255_2_778
10
19.0907215
20
6.9106854
40
0.3064447
50
7.322234
51
35.4964157
0
ARC
8
DEFAULT_255_2_778
10
19.174741
20
6.9483792
40
0.2169095
50
40.2823974
51
89.4135209
0
ARC
8
DEFAULT_255_2_778
10
19.1347002
20
6.6621098
40
0.5049392
50
85.1989992
51
90.1363217
0
ARC
8
DEFAULT_255_2_778
10
7.2379901
20
4.5196728
40
7.9897501
50
359.8155189
51
2.0210287
0
ARC
8
DEFAULT_255_2_778
10
12.1498504
20
4.6995237
40
3.0746095
50
1.8996023
51
6.7901952
0
ARC
8
DEFAULT_255_2_778
10
13.9223723
20
4.9184907
40
1.2886552
50
6.4407865
51
17.2808255
0
ARC
8
DEFAULT_255_2_778
10
14.657326
20
5.1681744
40
0.5131009
50
15.0367621
51
70.4548791
0
ARC
8
DEFAULT_255_2_778
10
14.4976926
20
4.7383917
40
0.971547
50
70.0626022
51
83.0925668
0
ARC
8
DEFAULT_255_2_778
10
14.3620304
20
3.7127417
40
2.0061
50
82.7690548
51
89.6502179
0
ARC
8
DEFAULT_255_2_778
10
14.3359392
20
2.6973649
40
3.0216824
50
89.2730325
51
90.0064541
0
ARC
8
DEFAULT_255_2_778
10
14.3428065
20
3.3055631
40
2.413495
50
90.1711089
51
94.9107602
0
ARC
8
DEFAULT_255_2_778
10
14.409157
20
2.487734
40
3.2340042
50
94.8416196
51
98.597705
0
ARC
8
DEFAULT_255_2_778
10
14.433922
20
2.2808271
40
3.4422941
50
98.4904301
51
105.3190447
0
ARC
8
DEFAULT_255_2_778
10
14.1192191
20
3.4225113
40
2.2580326
50
105.2709426
51
110.8017467
0
ARC
8
DEFAULT_255_2_778
10
13.8071818
20
4.2559005
40
1.3681591
50
110.9805263
51
114.6435137
0
ARC
8
DEFAULT_255_2_778
10
13.2705113
20
51.9130216
40
49.6235858
50
269.9609598
51
270.1619857
0
ARC
8
DEFAULT_255_2_778
10
13.3980231
20
10.1205044
40
7.8308807
50
270.0935291
51
271.1355917
0
ARC
8
DEFAULT_255_2_778
10
13.527611
20
3.9995974
40
1.7086276
50
270.8587685
51
274.5708172
0
ARC
8
DEFAULT_255_2_778
10
13.6486944
20
2.5845047
40
0.2884952
50
272.9961415
51
288.1760198
0
ARC
8
DEFAULT_255_2_778
10
13.7160688
20
2.3688043
40
0.0626266
50
291.1712367
51
15.0569275
0
ARC
8
DEFAULT_255_2_778
10
11.672481
20
2.3835161
40
2.104065
50
0.0424058
51
0.2723845
0
ARC
8
DEFAULT_255_2_778
10
15.9617519
20
2.4036613
40
2.1852533
50
180.0318266
51
180.2659282
0
ARC
8
DEFAULT_255_2_778
10
14.1896152
20
4.43575
40
0.799073
50
101.756879
51
121.1308668
0
ARC
8
DEFAULT_255_2_778
10
14.2830556
20
4.0740216
40
1.1723868
50
92.7880338
51
102.6255732
0
ARC
8
DEFAULT_255_2_778
10
14.2766197
20
4.2026773
40
1.0435703
50
90.0340853
51
92.7786821
0
ARC
8
DEFAULT_255_2_778
10
14.289168
20
4.6945784
40
0.5518262
50
74.0882556
51
91.3674714
0
ARC
8
DEFAULT_255_2_778
10
14.3571209
20
4.9599695
40
0.2780725
50
9.8274245
51
72.561416
0
ARC
8
DEFAULT_255_2_778
10
13.6640414
20
4.7617204
40
0.9977983
50
3.9613143
51
14.2558948
0
ARC
8
DEFAULT_255_2_778
10
11.5466011
20
4.5933224
40
3.1218887
50
0.2571667
51
4.3598817
0
ARC
8
DEFAULT_255_2_778
10
6.83947
20
4.5241897
40
7.8294297
50
359.972614
51
0.6084668
0
ARC
8
DEFAULT_255_2_778
10
14.7045651
20
51.8802321
40
49.5907975
50
269.9587922
51
270.1699771
0
ARC
8
DEFAULT_255_2_778
10
14.8386989
20
10.0195051
40
7.729863
50
270.0962485
51
271.1988024
0
ARC
8
DEFAULT_255_2_778
10
14.9725323
20
3.9956634
40
1.7045577
50
270.9374207
51
274.6804203
0
ARC
8
DEFAULT_255_2_778
10
15.0956835
20
2.5914463
40
0.2950871
50
273.0959442
51
288.3827937
0
ARC
8
DEFAULT_255_2_778
10
15.1618668
20
2.3752158
40
0.0692285
50
292.8443502
51
16.330003
0
ARC
8
DEFAULT_255_2_778
10
8.9820565
20
2.3936693
40
6.2462462
50
0.009278
51
0.0444764
0
ARC
8
DEFAULT_255_2_778
10
21.5504938
20
2.4033788
40
6.3221949
50
180.0084405
51
180.0440514
0
ARC
8
DEFAULT_255_2_778
10
25.4847456
20
5.4425559
40
1.3365826
50
279.0667462
51
285.4940871
0
ARC
8
DEFAULT_255_2_778
10
25.2381996
20
6.9756274
40
2.8893516
50
274.1846209
51
279.1039579
0
ARC
8
DEFAULT_255_2_778
10
25.1153854
20
8.4067773
40
4.3256856
50
273.2238172
51
274.4237698
0
ARC
8
DEFAULT_255_2_778
10
25.065852
20
9.338226
40
5.2584466
50
270.7185073
51
273.1919302
0
ARC
8
DEFAULT_255_2_778
10
25.0603457
20
9.5617707
40
5.4820434
50
270.0021567
51
270.7467546
0
ARC
8
DEFAULT_255_2_778
10
25.0601715
20
9.2721281
40
5.1924008
50
269.294329
51
270.0041985
0
ARC
8
DEFAULT_255_2_778
10
25.0532515
20
8.7292901
40
4.6495188
50
268.5561815
51
269.297212
0
ARC
8
DEFAULT_255_2_778
10
29.3511272
20
3.9022812
40
4.4186542
50
173.8034215
51
177.6787475
0
ARC
8
DEFAULT_255_2_778
10
27.730194
20
4.081492
40
2.7878492
50
168.4852135
51
173.8691915
0
ARC
8
DEFAULT_255_2_778
10
26.6252652
20
4.3096223
40
1.6596222
50
160.9144642
51
168.587816
0
ARC
8
DEFAULT_255_2_778
10
25.9356256
20
4.5521827
40
0.9285863
50
148.9776731
51
161.1445744
0
ARC
8
DEFAULT_255_2_778
10
25.5697974
20
4.7770487
40
0.4992116
50
127.0910306
51
149.4557071
0
ARC
8
DEFAULT_255_2_778
10
25.4888725
20
4.8723488
40
0.3744553
50
89.0013453
51
126.0079287
0
ARC
8
DEFAULT_255_2_778
10
25.5094703
20
4.8802633
40
0.3667542
50
62.915873
51
92.1988458
0
ARC
8
DEFAULT_255_2_778
10
25.5190438
20
4.9431115
40
0.3070971
50
18.04499
51
59.1647548
0
ARC
8
DEFAULT_255_2_778
10
25.0187945
20
4.7507363
40
0.8427955
50
7.1009248
51
19.9457303
0
ARC
8
DEFAULT_255_2_778
10
23.775407
20
4.5765113
40
2.098271
50
1.9383159
51
7.6247803
0
ARC
8
DEFAULT_255_2_778
10
22.1614636
20
4.4997089
40
3.7139549
50
1.0466134
51
2.2803247
0
ARC
8
DEFAULT_255_2_778
10
22.6668714
20
4.5634187
40
3.2079301
50
356.8661672
51
0.0737422
0
ARC
8
DEFAULT_255_2_778
10
23.3614513
20
4.5305855
40
2.5125995
50
356.461632
51
356.7478728
0
ARC
8
DEFAULT_255_2_778
10
24.3041054
20
4.4578057
40
1.5673174
50
349.5431187
51
356.9903717
0
ARC
8
DEFAULT_255_2_778
10
25.0415562
20
4.3328911
40
0.8195166
50
347.4521722
51
348.773757
0
ARC
8
DEFAULT_255_2_778
10
24.2879368
20
4.6394108
40
2.1133965
50
359.6729514
51
8.476969
0
ARC
8
DEFAULT_255_2_778
10
25.1002158
20
4.765077
40
1.2914748
50
8.2749418
51
21.899708
0
ARC
8
DEFAULT_255_2_778
10
25.5800971
20
4.965496
40
0.7715013
50
21.382159
51
49.1182704
0
ARC
8
DEFAULT_255_2_778
10
25.6233787
20
4.9858462
40
0.7280463
50
50.6455357
51
82.31627
0
ARC
8
DEFAULT_255_2_778
10
25.5592666
20
4.6449787
40
1.0745753
50
81.3585667
51
90.2008968
0
ARC
8
DEFAULT_255_2_778
10
25.4845749
20
4.6637388
40
1.0581881
50
86.1569303
51
125.153478
0
ARC
8
DEFAULT_255_2_778
10
25.4296644
20
4.8316925
40
0.8907591
50
128.4877059
51
147.2737308
0
ARC
8
DEFAULT_255_2_778
10
25.7813831
20
4.602447
40
1.3105858
50
147.1553701
51
158.9266231
0
ARC
8
DEFAULT_255_2_778
10
26.4484623
20
4.3409623
40
2.0270759
50
158.8096155
51
166.9185836
0
ARC
8
DEFAULT_255_2_778
10
27.4638622
20
4.0996152
40
3.0707553
50
166.8203823
51
172.4227557
0
ARC
8
DEFAULT_255_2_778
10
28.8728178
20
3.9088225
40
4.4925675
50
172.3801841
51
176.6600429
0
ARC
8
DEFAULT_255_2_778
10
30.7870812
20
3.7939752
40
6.4102712
50
176.6320954
51
179.9954629
0
ARC
8
DEFAULT_255_2_778
10
31.9456281
20
3.7814619
40
7.5688294
50
179.9014325
51
180.00011
0
ARC
8
DEFAULT_255_2_778
10
29.4643362
20
3.7705139
40
5.0875491
50
179.8768673
51
183.7029226
0
ARC
8
DEFAULT_255_2_778
10
27.7175051
20
3.6541927
40
3.3368541
50
183.6469059
51
188.9506439
0
ARC
8
DEFAULT_255_2_778
10
26.4943547
20
3.4579621
40
2.098071
50
188.8539982
51
196.5587847
0
ARC
8
DEFAULT_255_2_778
10
25.7134892
20
3.2221885
40
1.2823991
50
196.4046559
51
208.1667829
0
ARC
8
DEFAULT_255_2_778
10
25.2993786
20
2.997038
40
0.8110543
50
207.9540799
51
228.3059031
0
ARC
8
DEFAULT_255_2_778
10
25.3104603
20
3.0674941
40
0.8718897
50
230.842607
51
268.2588256
0
ARC
8
DEFAULT_255_2_778
10
25.4368879
20
4.1523601
40
1.9623207
50
265.5305277
51
270.1638273
0
ARC
8
DEFAULT_255_2_778
10
25.4414965
20
4.5926921
40
2.4026449
50
270.0239023
51
278.0906204
0
ARC
8
DEFAULT_255_2_778
10
25.479843
20
4.3459555
40
2.1529695
50
278.0044142
51
284.3242484
0
ARC
8
DEFAULT_255_2_778
10
25.6429822
20
3.7174805
40
1.5036731
50
284.2260552
51
290.7383667
0
ARC
8
DEFAULT_255_2_778
10
25.8726273
20
3.1100191
40
0.8542534
50
290.76098
51
297.0378987
0
ARC
8
DEFAULT_255_2_778
10
26.0650972
20
2.7347092
40
0.4324704
50
296.9284857
51
305.090844
0
ARC
8
DEFAULT_255_2_778
10
26.2137605
20
2.5262065
40
0.1764111
50
304.512848
51
319.3383611
0
ARC
8
DEFAULT_255_2_778
10
26.3096703
20
2.4466468
40
0.0518607
50
316.9708798
51
355.9094019
0
ARC
8
DEFAULT_255_2_778
10
23.3362948
20
2.4398501
40
3.0251056
50
0.0586636
51
1.8557442
0
ARC
8
DEFAULT_255_2_778
10
23.0205249
20
2.432228
40
3.3409576
50
1.8110251
51
3.6121593
0
ARC
8
DEFAULT_255_2_778
10
24.2933214
20
2.5246497
40
2.0649021
50
3.2778294
51
8.557846
0
ARC
8
DEFAULT_255_2_778
10
25.7321523
20
2.7435252
40
0.6095252
50
8.3389002
51
16.8405887
0
ARC
8
DEFAULT_255_2_778
10
26.0467022
20
2.8325565
40
0.2827333
50
18.0393574
51
18.516718
0
ARC
8
DEFAULT_255_2_778
10
25.5199677
20
4.3488436
40
1.6329874
50
269.9963166
51
299.1261667
0
ARC
8
DEFAULT_255_2_778
10
25.5198657
20
4.3504793
40
1.634623
50
269.3947612
51
269.9998959
0
ARC
8
DEFAULT_255_2_778
10
25.478651
20
3.4564094
40
0.7408491
50
253.7682134
51
271.8524008
0
ARC
8
DEFAULT_255_2_778
10
25.3805129
20
3.0839011
40
0.3558951
50
207.5964361
51
252.1744071
0
ARC
8
DEFAULT_255_2_778
10
25.7044355
20
3.2660497
40
0.7274335
50
194.1608336
51
208.4921671
0
ARC
8
DEFAULT_255_2_778
10
26.4966817
20
3.4770268
40
1.5472574
50
186.9046861
51
194.5588131
0
ARC
8
DEFAULT_255_2_778
10
27.9477981
20
3.6630235
40
3.010227
50
182.7115986
51
187.098782
0
ARC
8
DEFAULT_255_2_778
10
29.5976681
20
3.7556225
40
4.6626527
50
181.3957758
51
182.8890676
0
ARC
8
DEFAULT_255_2_778
10
24.9360588
20
15.4358387
40
11.7937913
50
270.0016521
51
270.7524465
0
ARC
8
DEFAULT_255_2_778
10
24.9402099
20
15.1722452
40
11.530166
50
270.7490219
51
271.5553845
0
ARC
8
DEFAULT_255_2_778
10
24.976394
20
13.9471931
40
10.3045835
50
271.5391545
51
273.0608532
0
ARC
8
DEFAULT_255_2_778
10
25.0953741
20
11.7766841
40
8.1308185
50
273.0403285
51
275.1072844
0
ARC
8
DEFAULT_255_2_778
10
25.3546486
20
8.999488
40
5.341579
50
274.9891167
51
279.0951456
0
ARC
8
DEFAULT_255_2_778
10
25.640858
20
7.1457419
40
3.4659129
50
279.2673831
51
281.4367276
0
ARC
8
DEFAULT_255_2_778
10
23.9239788
20
4.26358
40
2.4586477
50
347.9106206
51
353.1938304
0
ARC
8
DEFAULT_255_2_778
10
21.6280671
20
4.5394646
40
4.7710754
50
353.1716153
51
357.6713528
0
ARC
8
DEFAULT_255_2_778
10
19.9143017
20
4.6267822
40
6.4869972
50
357.5157888
51
0.0076417
0
ARC
8
DEFAULT_255_2_778
10
17.0828587
20
3.3373305
40
0.6605819
50
269.6246872
51
301.7737478
0
ARC
8
DEFAULT_255_2_778
10
17.0378288
20
3.8342247
40
1.1581774
50
269.9836765
51
272.014008
0
ARC
8
DEFAULT_255_2_778
10
16.9982406
20
3.0347353
40
0.3608299
50
216.396899
51
276.2461358
0
ARC
8
DEFAULT_255_2_778
10
17.1932897
20
3.1517051
40
0.5876336
50
198.2260835
51
214.2917987
0
ARC
8
DEFAULT_255_2_778
10
17.8173532
20
3.367634
40
1.2479625
50
190.156989
51
198.6810278
0
ARC
8
DEFAULT_255_2_778
10
19.0134327
20
3.5898593
40
2.4644983
50
185.121517
51
190.338768
0
ARC
8
DEFAULT_255_2_778
10
20.9440564
20
3.7723485
40
4.4037148
50
182.1343856
51
185.2440398
0
ARC
8
DEFAULT_255_2_778
10
23.8196637
20
3.8836467
40
7.2814733
50
179.9126516
51
182.1668321
0
ARC
8
DEFAULT_255_2_778
10
21.5786039
20
3.9047861
40
5.040415
50
176.4927079
51
180.1141121
0
ARC
8
DEFAULT_255_2_778
10
19.8606979
20
4.0130118
40
3.3191071
50
171.6701711
51
176.5432728
0
ARC
8
DEFAULT_255_2_778
10
18.6226901
20
4.1974449
40
2.067443
50
164.9183724
51
171.7570685
0
ARC
8
DEFAULT_255_2_778
10
17.7962856
20
4.423809
40
1.2106094
50
154.7901689
51
165.0859612
0
ARC
8
DEFAULT_255_2_778
10
17.3142046
20
4.6547691
40
0.6760807
50
138.2065736
51
155.0975562
0
ARC
8
DEFAULT_255_2_778
10
17.1195507
20
4.8307565
40
0.4136723
50
105.8761389
51
138.4117433
0
ARC
8
DEFAULT_255_2_778
10
17.1216276
20
4.8052924
40
0.4387615
50
89.6903545
51
105.2273535
0
ARC
8
DEFAULT_255_2_778
10
17.1390626
20
4.5278227
40
0.7163831
50
79.0193774
51
91.2048788
0
ARC
8
DEFAULT_255_2_778
10
17.2008837
20
4.8769021
40
0.3619657
50
55.9395906
51
78.1008746
0
ARC
8
DEFAULT_255_2_778
10
17.134715
20
4.7737756
40
0.4844684
50
52.3869073
51
56.2873509
0
ARC
8
DEFAULT_255_2_778
10
17.0306188
20
5.0137246
40
0.7001824
50
55.1525089
51
76.7098503
0
ARC
8
DEFAULT_255_2_778
10
16.9652779
20
4.7429743
40
0.9787033
50
76.6308034
51
90.4495558
0
ARC
8
DEFAULT_255_2_778
10
16.952188
20
4.9435817
40
0.7780845
50
89.60156
51
135.8037398
0
ARC
8
DEFAULT_255_2_778
10
17.1969725
20
4.6939275
40
1.1276537
50
135.3796101
51
151.4179639
0
ARC
8
DEFAULT_255_2_778
10
17.7016679
20
4.4131881
40
1.7051613
50
151.2475403
51
161.9905591
0
ARC
8
DEFAULT_255_2_778
10
18.4678776
20
4.1586292
40
2.5125393
50
161.8720934
51
169.4464614
0
ARC
8
DEFAULT_255_2_778
10
19.5017118
20
3.9625947
40
3.5647916
50
169.3923378
51
175.278503
0
ARC
8
DEFAULT_255_2_778
10
20.839992
20
3.8490617
40
4.9078766
50
175.2435899
51
179.9772916
0
ARC
8
DEFAULT_255_2_778
10
21.5854323
20
3.8371424
40
5.6533335
50
179.8594854
51
180.0009626
0
ARC
8
DEFAULT_255_2_778
10
21.6039211
20
3.8258833
40
5.6718332
50
179.8872223
51
183.3809692
0
ARC
8
DEFAULT_255_2_778
10
19.7021846
20
3.7116399
40
3.7666698
50
183.3522194
51
187.8420725
0
ARC
8
DEFAULT_255_2_778
10
18.3573997
20
3.5223727
40
2.4086405
50
187.7466694
51
194.4448138
0
ARC
8
DEFAULT_255_2_778
10
17.4511722
20
3.2853333
40
1.4719359
50
194.3089619
51
204.4094065
0
ARC
8
DEFAULT_255_2_778
10
16.9320483
20
3.0458447
40
0.9002509
50
204.1833321
51
221.0708488
0
ARC
8
DEFAULT_255_2_778
10
16.8466621
20
3.0171356
40
0.817743
50
223.4856294
51
268.7491027
0
ARC
8
DEFAULT_255_2_778
10
17.0084438
20
4.3587937
40
2.1666657
50
265.2442743
51
270.2420986
0
ARC
8
DEFAULT_255_2_778
10
17.0300977
20
5.2676658
40
3.0755438
50
269.7671522
51
276.2996019
0
ARC
8
DEFAULT_255_2_778
10
17.1571433
20
4.148445
40
1.949144
50
276.197622
51
285.6518808
0
ARC
8
DEFAULT_255_2_778
10
17.3519286
20
3.464677
40
1.2381833
50
285.5090138
51
299.9507793
0
ARC
8
DEFAULT_255_2_778
10
17.9347396
20
-3.5710106
40
10.7556161
50
89.8116392
51
90.7808883
0
ARC
8
DEFAULT_255_2_778
10
17.7993286
20
5.5429861
40
1.6406587
50
90.3902094
51
95.7672313
0
ARC
8
DEFAULT_255_2_778
10
17.6598987
20
6.8312075
40
0.3450715
50
94.2271447
51
114.7214185
0
ARC
8
DEFAULT_255_2_778
10
17.5926953
20
7.0060841
40
0.1585787
50
119.0939532
51
180.5204638
0
ARC
8
DEFAULT_255_2_778
10
18.0360319
20
6.9421185
40
0.6051475
50
174.0694984
51
180.394928
0
ARC
8
DEFAULT_255_2_778
10
18.8691719
20
47.4217024
40
45.1324687
50
269.9553477
51
270.1847012
0
ARC
8
DEFAULT_255_2_778
10
19.0016637
20
9.3609009
40
7.0714448
50
270.1053233
51
271.2988653
0
ARC
8
DEFAULT_255_2_778
10
19.1359669
20
3.8163225
40
1.5252708
50
270.9763085
51
275.2571417
0
ARC
8
DEFAULT_255_2_778
10
19.2610708
20
2.5487797
40
0.2517386
50
273.3362522
51
291.4239071
0
ARC
8
DEFAULT_255_2_778
10
19.3149944
20
2.3817989
40
0.0773561
50
299.4454695
51
15.327901
0
ARC
8
DEFAULT_255_2_778
10
19.3542773
20
-5.3324937
40
10.9544981
50
89.8152559
51
90.7725358
0
ARC
8
DEFAULT_255_2_778
10
19.2179684
20
3.9150852
40
1.7059614
50
90.38252
51
95.7428572
0
ARC
8
DEFAULT_255_2_778
10
19.0749133
20
5.2447939
40
0.3687287
50
94.3005388
51
114.2206651
0
ARC
8
DEFAULT_255_2_778
10
19.0003613
20
5.4366505
40
0.1635275
50
117.979446
51
180.4962613
0
ARC
8
DEFAULT_255_2_778
10
19.3910414
20
5.3789585
40
0.5570512
50
174.2018562
51
180.3199969
0
ARC
8
DEFAULT_255_2_778
10
28.1329129
20
2.860495
40
0.2120482
50
232.3507055
51
273.0509219
0
ARC
8
DEFAULT_255_2_778
10
28.1914665
20
2.8886852
40
0.2717016
50
186.5559671
51
226.193602
0
ARC
8
DEFAULT_255_2_778
10
29.2541257
20
3.0693355
40
1.3492905
50
179.2141178
51
189.025619
0
ARC
8
DEFAULT_255_2_778
10
37.338615
20
3.159844
40
9.4339277
50
179.9094861
51
180.4372991
0
ARC
8
DEFAULT_255_2_778
10
28.4924597
20
5.2304813
40
0.0781192
50
258.8094186
51
359.3516909
0
ARC
8
DEFAULT_255_2_778
10
27.9363582
20
5.3445876
40
0.6445558
50
349.7232918
51
358.346489
0
ARC
8
DEFAULT_255_2_778
10
25.3367652
20
5.4625468
40
3.2467536
50
357.5894359
51
359.7685979
0
ARC
8
DEFAULT_255_2_778
10
7.0025382
20
5.5861722
40
21.5813871
50
359.6369757
51
0.0899342
0
ARC
8
DEFAULT_255_2_778
10
27.8691361
20
-7.4042154
40
14.2229068
50
89.8575439
51
90.5906603
0
ARC
8
DEFAULT_255_2_778
10
27.7335955
20
4.6536335
40
2.1643304
50
90.2933273
51
94.367007
0
ARC
8
DEFAULT_255_2_778
10
27.5940737
20
6.3632122
40
0.4491802
50
93.2264388
51
108.2742875
0
ARC
8
DEFAULT_255_2_778
10
27.4990368
20
6.6621252
40
0.1355869
50
109.7472437
51
189.379149
0
ARC
8
DEFAULT_255_2_778
10
27.8558453
20
6.6321289
40
0.4906465
50
179.0774122
51
180.009513
0
ARC
8
DEFAULT_255_2_778
10
27.0097451
20
5.5339737
40
0.0875035
50
79.628158
51
176.9267758
0
ARC
8
DEFAULT_255_2_778
10
27.5225401
20
5.4154141
40
0.6126974
50
168.3951384
51
177.5430438
0
ARC
8
DEFAULT_255_2_778
10
29.5603727
20
5.2943652
40
2.6540583
50
176.8181404
51
179.4480913
0
ARC
8
DEFAULT_255_2_778
10
38.9339377
20
5.1761564
40
12.0283595
50
179.3151324
51
180.1062667
0
ARC
8
DEFAULT_255_2_778
10
33.8882485
20
3.1685234
40
6.523395
50
179.4104308
51
182.6530482
0
ARC
8
DEFAULT_255_2_778
10
28.8304971
20
2.9269072
40
1.4598988
50
182.3687222
51
193.7276156
0
ARC
8
DEFAULT_255_2_778
10
27.8736147
20
2.6675622
40
0.4694644
50
190.6918617
51
250.0956512
0
ARC
8
DEFAULT_255_2_778
10
27.9592317
20
2.9370341
40
0.7520711
50
250.9519476
51
266.8384068
0
ARC
8
DEFAULT_255_2_778
10
27.99858
20
3.3676717
40
1.1843254
50
266.0866932
51
270.0783163
0
ARC
8
DEFAULT_255_2_778
10
28.0006374
20
4.0505632
40
1.8672158
50
269.9865432
51
273.5274932
0
ARC
8
DEFAULT_255_2_778
10
28.0590718
20
3.3895412
40
1.2039804
50
272.6873957
51
286.0673576
0
ARC
8
DEFAULT_255_2_778
10
28.2931231
20
2.5920663
40
0.372903
50
285.4230049
51
308.4123158
0
ARC
8
DEFAULT_255_2_778
10
28.4467534
20
2.3992552
40
0.1263724
50
308.1485038
51
358.8175829
0
ARC
8
DEFAULT_255_2_778
10
27.102729
20
2.3954828
40
1.4703703
50
0.0453818
51
2.4915836
0
ARC
8
DEFAULT_255_2_778
10
26.833785
20
2.3843836
40
1.7395427
50
2.4717214
51
9.5374102
0
ARC
8
DEFAULT_255_2_778
10
27.7086709
20
2.5331454
40
0.852103
50
9.4201187
51
14.6433877
0
ARC
8
DEFAULT_255_2_778
10
28.0844947
20
2.6266705
40
0.4648653
50
15.2007202
51
15.3397954
0
ARC
8
DEFAULT_255_2_778
10
29.7066986
20
0.0077912
40
2.9825854
50
113.1777289
51
113.2304237
0
ARC
8
DEFAULT_255_2_778
10
29.8069489
20
-0.2248139
40
3.2358741
50
113.2370848
51
113.2845937
0
ARC
8
DEFAULT_255_2_778
10
29.6905991
20
0.0463921
40
2.9407643
50
113.2911001
51
113.3422418
0
ARC
8
DEFAULT_255_2_778
10
29.822308
20
-0.2583235
40
3.2727264
50
113.3456371
51
113.4129814
0
ARC
8
DEFAULT_255_2_778
10
29.7908287
20
-0.1852417
40
3.1931533
50
113.4157099
51
113.482524
0
ARC
8
DEFAULT_255_2_778
10
29.7646352
20
-0.1244659
40
3.1269733
50
113.4860617
51
113.5521271
0
ARC
8
DEFAULT_255_2_778
10
29.8888837
20
-0.4102901
40
3.4386353
50
113.5469233
51
113.6051138
0
ARC
8
DEFAULT_255_2_778
10
30.267004
20
-1.2744497
40
4.381899
50
113.6109407
51
113.6551833
0
ARC
8
DEFAULT_255_2_778
10
26.7305232
20
6.6956907
40
4.3377093
50
292.8476291
51
294.2028704
0
ARC
8
DEFAULT_255_2_778
10
28.0715352
20
3.5372163
40
0.9064051
50
290.8860631
51
292.2522195
0
ARC
8
DEFAULT_255_2_778
10
28.1894819
20
3.2167344
40
0.5649469
50
276.1110355
51
291.2976865
0
ARC
8
DEFAULT_255_2_778
10
28.1520394
20
3.5739401
40
0.9241092
50
269.6564792
51
276.0616361
0
LINE
8
DEFAULT_255_2_778
10
8.8112988
20
3.7280474
11
8.8112988
21
3.7282474
0
LINE
8
DEFAULT_255_2_778
10
8.5450988
20
2.4328474
11
8.5448988
21
2.4297474
0
LINE
8
DEFAULT_255_2_778
10
9.9801988
20
5.6631474
11
9.1811988
21
5.6631474
0
LINE
8
DEFAULT_255_2_778
10
9.1811988
20
5.6631474
11
9.1843988
21
5.6663474
0
LINE
8
DEFAULT_255_2_778
10
3.8172988
20
5.5057474
11
3.7450988
21
5.4660474
0
LINE
8
DEFAULT_255_2_778
10
3.7450988
20
5.4660474
11
3.6767988
21
5.4327474
0
LINE
8
DEFAULT_255_2_778
10
2.7888988
20
3.7097474
11
3.5111988
21
4.1198474
0
LINE
8
DEFAULT_255_2_778
10
3.5111988
20
4.1198474
11
4.2837988
21
4.5654474
0
LINE
8
DEFAULT_255_2_778
10
5.2367988
20
6.2809474
11
5.2367988
21
6.2833474
0
LINE
8
DEFAULT_255_2_778
10
11.9092988
20
3.8611474
11
11.8891988
21
2.7490474
0
LINE
8
DEFAULT_255_2_778
10
11.8891988
20
2.7490474
11
11.8865988
21
2.7490474
0
LINE
8
DEFAULT_255_2_778
10
11.9068988
20
4.8027474
11
11.9068988
21
4.2460474
0
LINE
8
DEFAULT_255_2_778
10
12.4135988
20
2.4149474
11
12.4532988
21
4.5262474
0
LINE
8
DEFAULT_255_2_778
10
12.4532988
20
4.5262474
11
12.4532988
21
4.9075474
0
LINE
8
DEFAULT_255_2_778
10
11.7671988
20
5.7198474
11
11.7666988
21
5.7192474
0
LINE
8
DEFAULT_255_2_778
10
2.5771988
20
7.2660474
11
2.5771988
21
7.2655474
0
LINE
8
DEFAULT_255_2_778
10
2.8279988
20
5.8071474
11
2.8279988
21
5.8068474
0
LINE
8
DEFAULT_255_2_778
10
20.5508988
20
2.9953474
11
20.5508988
21
2.9953474
0
LINE
8
DEFAULT_255_2_778
10
21.6874988
20
5.4994474
11
21.6874988
21
2.2894474
0
LINE
8
DEFAULT_255_2_778
10
22.2272988
20
2.4024474
11
22.2272988
21
5.1197474
0
LINE
8
DEFAULT_255_2_778
10
23.1194988
20
4.5204474
11
23.1194988
21
2.2894474
0
LINE
8
DEFAULT_255_2_778
10
23.6787988
20
2.4024474
11
23.6787988
21
4.4937474
0
LINE
8
DEFAULT_255_2_778
10
22.7863988
20
5.7187474
11
22.7865988
21
5.7190474
0
LINE
8
DEFAULT_255_2_778
10
19.1334988
20
7.1670474
11
19.1334988
21
7.1644474
0
LINE
8
DEFAULT_255_2_778
10
13.2366988
20
5.4994474
11
13.2366988
21
2.2894474
0
LINE
8
DEFAULT_255_2_778
10
13.7764988
20
2.4024474
11
13.7764988
21
5.1197474
0
LINE
8
DEFAULT_255_2_778
10
14.6688988
20
4.5204474
11
14.6688988
21
2.2894474
0
LINE
8
DEFAULT_255_2_778
10
15.2282988
20
2.4024474
11
15.2282988
21
4.4937474
0
LINE
8
DEFAULT_255_2_778
10
15.2282988
20
4.4937474
11
15.2276988
21
4.4939474
0
LINE
8
DEFAULT_255_2_778
10
25.8414988
20
4.1548474
11
25.8417988
21
4.1545474
0
LINE
8
DEFAULT_255_2_778
10
26.4012988
20
4.6276474
11
26.4012988
21
4.6273474
0
LINE
8
DEFAULT_255_2_778
10
17.4303988
20
5.1575474
11
17.4303988
21
2.7763474
0
LINE
8
DEFAULT_255_2_778
10
17.4303988
20
2.7763474
11
17.4306988
21
2.7757474
0
LINE
8
DEFAULT_255_2_778
10
17.4306988
20
6.9376474
11
17.4306988
21
5.5883474
0
LINE
8
DEFAULT_255_2_778
10
17.9700988
20
2.3918474
11
17.9700988
21
7.1845474
0
LINE
8
DEFAULT_255_2_778
10
17.4308988
20
6.9379474
11
17.4306988
21
6.9376474
0
LINE
8
DEFAULT_255_2_778
10
18.8339988
20
5.3726474
11
18.8339988
21
2.2892474
0
LINE
8
DEFAULT_255_2_778
10
19.3895988
20
2.4022474
11
19.3895988
21
5.6219474
0
LINE
8
DEFAULT_255_2_778
10
18.8339988
20
5.3758474
11
18.8339988
21
5.3726474
0
LINE
8
DEFAULT_255_2_778
10
27.9046988
20
3.1747474
11
27.9046988
21
5.1538474
0
LINE
8
DEFAULT_255_2_778
10
27.9046988
20
5.1538474
11
28.4772988
21
5.1538474
0
LINE
8
DEFAULT_255_2_778
10
28.5838988
20
5.6200474
11
27.9044988
21
5.6200474
0
LINE
8
DEFAULT_255_2_778
10
27.9044988
20
5.6200474
11
27.9044988
21
6.8186474
0
LINE
8
DEFAULT_255_2_778
10
27.3651988
20
6.6320474
11
27.3651988
21
5.6200474
0
LINE
8
DEFAULT_255_2_778
10
27.3651988
20
5.6200474
11
27.0254988
21
5.6200474
0
LINE
8
DEFAULT_255_2_778
10
26.9055988
20
5.1538474
11
27.3651988
21
5.1538474
0
LINE
8
DEFAULT_255_2_778
10
27.3651988
20
5.1538474
11
27.3651988
21
3.2356474
0
ENDSEC
0
EOF