0
SECTION
2
HEADER
9
$MEASUREMENT
70
1
0
ENDSEC
0
SECTION
2
TABLES
0
TABLE
2
LTYPE
0
LTYPE
72
65
70
64
2
CONTINUOUS
3
______
73
0
40
0
0
ENDTAB
0
TABLE
2
LAYER
0
LAYER
2
DEFAULT_255_2_778
70
0
62
255
6
CONTINUOUS
0
ENDTAB
0
ENDSEC
0
SECTION
2
ENTITIES
0
ARC
8
DEFAULT_255_2_778
10
6.1508581
20
33.6062222
40
6.018609
50
167.8503629
51
180.0387715
0
ARC
8
DEFAULT_255_2_778
10
6.0494365
20
33.6258515
40
5.9153281
50
150.9890531
51
167.8294785
0
ARC
8
DEFAULT_255_2_778
10
6.0760702
20
33.6107119
40
5.9459624
50
110.0344947
51
150.9859382
0
ARC
8
DEFAULT_255_2_778
10
6.0688048
20
33.6136754
40
5.9406921
50
95.9496164
51
109.9784548
0
ARC
8
DEFAULT_255_2_778
10
6.0841558
20
33.4820062
40
6.0732434
50
89.9887281
51
95.9649018
0
ARC
8
DEFAULT_255_2_778
10
33.8707233
20
33.5366419
40
6.018609
50
77.8503629
51
90.0387715
0
ARC
8
DEFAULT_255_2_778
10
33.8903526
20
33.6380635
40
5.9153281
50
60.9890531
51
77.8294785
0
ARC
8
DEFAULT_255_2_778
10
33.875213
20
33.6114298
40
5.9459624
50
20.0344947
51
60.9859382
0
ARC
8
DEFAULT_255_2_778
10
33.8781765
20
33.6186952
40
5.9406921
50
5.9496164
51
19.9784548
0
ARC
8
DEFAULT_255_2_778
10
33.7465073
20
33.6033442
40
6.0732434
50
359.9887281
51
5.9649018
0
ARC
8
DEFAULT_255_2_778
10
33.801143
20
5.8167767
40
6.018609
50
347.8503629
51
0.0387715
0
ARC
8
DEFAULT_255_2_778
10
33.9025646
20
5.7971474
40
5.9153281
50
330.9890531
51
347.8294785
0
ARC
8
DEFAULT_255_2_778
10
33.8759309
20
5.812287
40
5.9459624
50
290.0344947
51
330.9859382
0
ARC
8
DEFAULT_255_2_778
10
33.8831963
20
5.8093235
40
5.9406921
50
275.9496164
51
289.9784548
0
ARC
8
DEFAULT_255_2_778
10
33.8678453
20
5.9409927
40
6.0732434
50
269.9887281
51
275.9649018
0
ARC
8
DEFAULT_255_2_778
10
6.0812778
20
5.886357
40
6.018609
50
257.8503629
51
270.0387715
0
ARC
8
DEFAULT_255_2_778
10
6.0616485
20
5.7849354
40
5.9153281
50
240.9890531
51
257.8294785
0
ARC
8
DEFAULT_255_2_778
10
6.0767881
20
5.8115691
40
5.9459624
50
200.0344947
51
240.9859382
0
ARC
8
DEFAULT_255_2_778
10
6.0738246
20
5.8043037
40
5.9406921
50
185.9496164
51
199.9784548
0
ARC
8
DEFAULT_255_2_778
10
6.2054938
20
5.8196547
40
6.0732434
50
179.9887281
51
185.9649018
0
LINE
8
DEFAULT_255_2_778
10
6.0853506
20
39.5552494
11
33.8666506
21
39.5552494
0
LINE
8
DEFAULT_255_2_778
10
39.8197506
20
33.6021494
11
39.8197506
21
5.8208494
0
LINE
8
DEFAULT_255_2_778
10
33.8666506
20
-0.1322506
11
6.0853506
21
-0.1322506
0
LINE
8
DEFAULT_255_2_778
10
0.1322506
20
5.8208494
11
0.1322506
21
33.6021494
0
LINE
8
DEFAULT_255_2_778
10
7.9612662
20
29.1682384
11
22.4564662
21
29.1682384
0
LINE
8
DEFAULT_255_2_778
10
22.4564662
20
29.1682384
11
7.9612662
21
29.1682384
0
LINE
8
DEFAULT_255_2_778
10
27.0297662
20
29.1682384
11
31.7581662
21
29.1682384
0
LINE
8
DEFAULT_255_2_778
10
31.7581662
20
29.1682384
11
27.0297662
21
29.1682384
0
LINE
8
DEFAULT_255_2_778
10
7.9612662
20
19.6339384
11
31.9907662
21
19.6339384
0
LINE
8
DEFAULT_255_2_778
10
31.9907662
20
19.6339384
11
7.9612662
21
19.6339384
0
LINE
8
DEFAULT_255_2_778
10
7.9612662
20
10.2547384
11
17.4955662
21
10.2547384
0
LINE
8
DEFAULT_255_2_778
10
17.4955662
20
10.2547384
11
7.9612662
21
10.2547384
0
LINE
8
DEFAULT_255_2_778
10
22.4564662
20
10.2547384
11
31.9907662
21
10.2547384
0
LINE
8
DEFAULT_255_2_778
10
31.9907662
20
10.2547384
11
22.4564662
21
10.2547384
0
ENDSEC
0
EOF