0
SECTION
2
HEADER
9
$MEASUREMENT
70
1
0
ENDSEC
0
SECTION
2
TABLES
0
TABLE
2
LTYPE
0
LTYPE
72
65
70
64
2
CONTINUOUS
3
______
73
0
40
0
0
ENDTAB
0
TABLE
2
LAYER
0
LAYER
2
DEFAULT_255_2_778
70
0
62
255
6
CONTINUOUS
0
ENDTAB
0
ENDSEC
0
SECTION
2
ENTITIES
0
ARC
8
DEFAULT_255_2_778
10
9.7501739
20
11.7597993
40
1.0541976
50
54.6558894
51
73.8260907
0
ARC
8
DEFAULT_255_2_778
10
9.7515742
20
11.7620992
40
1.0515988
50
73.8644588
51
87.64435
0
ARC
8
DEFAULT_255_2_778
10
9.7511095
20
11.7559628
40
1.057749
50
87.6328595
51
90.0005323
0
ARC
8
DEFAULT_255_2_778
10
9.7500214
20
11.7580799
40
1.0556325
50
89.9414755
51
135.3248373
0
ARC
8
DEFAULT_255_2_778
10
9.7562975
20
11.7541907
40
1.0628314
50
135.4136286
51
144.6970731
0
ARC
8
DEFAULT_255_2_778
10
4.4397814
20
15.4931182
40
5.4367846
50
318.1259912
51
324.9188271
0
ARC
8
DEFAULT_255_2_778
10
5.264621
20
14.749493
40
4.3262323
50
308.3782787
51
318.1675488
0
ARC
8
DEFAULT_255_2_778
10
5.6008826
20
14.3360387
40
3.7933514
50
299.993965
51
308.2738808
0
ARC
8
DEFAULT_255_2_778
10
5.6370494
20
14.3291042
40
3.7703053
50
280.6701268
51
294.7163332
0
ARC
8
DEFAULT_255_2_778
10
5.4532366
20
15.2762709
40
4.7351315
50
272.826115
51
280.7338047
0
ARC
8
DEFAULT_255_2_778
10
5.3950945
20
16.1265066
40
5.5872232
50
271.6852859
51
272.9917353
0
ARC
8
DEFAULT_255_2_778
10
5.6943789
20
15.5474761
40
5.007595
50
261.3643347
51
268.455554
0
ARC
8
DEFAULT_255_2_778
10
5.5347401
20
14.5231852
40
3.9709486
50
250.053372
51
261.4224967
0
ARC
8
DEFAULT_255_2_778
10
5.4304119
20
14.2073763
40
3.6385066
50
245.2083176
51
249.9011457
0
ARC
8
DEFAULT_255_2_778
10
5.4837111
20
14.2985267
40
3.7436198
50
228.6288398
51
245.0527307
0
ARC
8
DEFAULT_255_2_778
10
6.0433598
20
14.9419055
40
4.5963334
50
219.8684194
51
228.6942361
0
ARC
8
DEFAULT_255_2_778
10
6.8834616
20
15.6569188
40
5.6994791
50
215.2462038
51
219.9715443
0
ARC
8
DEFAULT_255_2_778
10
1.3704252
20
11.7632405
40
1.0499147
50
35.156939
51
61.8491402
0
ARC
8
DEFAULT_255_2_778
10
1.3674884
20
11.7556721
40
1.0579739
50
61.9022866
51
90.0077335
0
ARC
8
DEFAULT_255_2_778
10
1.3673439
20
11.7567024
40
1.0569436
50
89.9999085
51
92.4905686
0
ARC
8
DEFAULT_255_2_778
10
1.3667265
20
11.7635359
40
1.0500896
50
92.4731158
51
116.9478414
0
ARC
8
DEFAULT_255_2_778
10
1.3746624
20
11.7480823
40
1.0674616
50
116.9516483
51
125.3071958
0
ARC
8
DEFAULT_255_2_778
10
1.3640569
20
11.7602801
40
1.051379
50
125.2197332
51
152.2630209
0
ARC
8
DEFAULT_255_2_778
10
1.3725271
20
11.7567124
40
1.0605365
50
152.3053997
51
180.002122
0
ARC
8
DEFAULT_255_2_778
10
1.3697571
20
11.7566681
40
1.0577666
50
179.9997252
51
182.3626609
0
ARC
8
DEFAULT_255_2_778
10
1.3611488
20
11.7558459
40
1.0491318
50
182.3371772
51
207.1445017
0
ARC
8
DEFAULT_255_2_778
10
1.3746461
20
11.7629515
40
1.0643843
50
207.1533864
51
215.2860511
0
ARC
8
DEFAULT_255_2_778
10
6.5867701
20
15.4366738
40
7.4410962
50
215.1932649
51
222.8094768
0
ARC
8
DEFAULT_255_2_778
10
5.8451043
20
14.7461749
40
6.4277604
50
222.7867142
51
232.8320165
0
ARC
8
DEFAULT_255_2_778
10
5.456279
20
14.2378584
40
5.7877896
50
232.8591502
51
245.0759865
0
ARC
8
DEFAULT_255_2_778
10
5.4354671
20
14.1988773
40
5.743669
50
245.1003898
51
251.3846513
0
ARC
8
DEFAULT_255_2_778
10
9.2514614
20
0.9290265
40
9.6526214
50
125.822502
51
126.9786779
0
ARC
8
DEFAULT_255_2_778
10
8.8425399
20
1.4720349
40
8.9728603
50
126.9784127
51
128.248651
0
ARC
8
DEFAULT_255_2_778
10
7.9686514
20
2.5551067
40
7.5813035
50
128.129325
51
134.2188261
0
ARC
8
DEFAULT_255_2_778
10
6.6409361
20
3.8980861
40
5.6928852
50
134.0683195
51
145.4362394
0
ARC
8
DEFAULT_255_2_778
10
5.6094688
20
4.6157583
40
4.4363285
50
145.5114647
51
159.2167077
0
ARC
8
DEFAULT_255_2_778
10
5.3010387
20
4.747566
40
4.1012215
50
159.4093496
51
159.5289889
0
ARC
8
DEFAULT_255_2_778
10
6.3393312
20
4.3561409
40
5.2108409
50
159.4896175
51
170.4925578
0
ARC
8
DEFAULT_255_2_778
10
6.2320131
20
4.3757886
40
5.101752
50
170.5111046
51
176.7258315
0
ARC
8
DEFAULT_255_2_778
10
6.1786694
20
4.3793157
40
5.0482939
50
176.7312192
51
179.9981604
0
ARC
8
DEFAULT_255_2_778
10
6.068375
20
4.3740652
40
4.9380025
50
179.9371971
51
201.5234587
0
ARC
8
DEFAULT_255_2_778
10
6.0313589
20
4.3561728
40
4.8970041
50
201.4876078
51
221.8492047
0
ARC
8
DEFAULT_255_2_778
10
5.8843352
20
4.2254169
40
4.7002489
50
221.8576121
51
242.865097
0
ARC
8
DEFAULT_255_2_778
10
5.5447625
20
3.5994777
40
3.9883639
50
243.1052181
51
260.5454636
0
ARC
8
DEFAULT_255_2_778
10
5.6297739
20
4.0447212
40
4.4415367
50
260.4071921
51
270.0568208
0
ARC
8
DEFAULT_255_2_778
10
5.6323091
20
4.2997194
40
4.696533
50
270.0228078
51
276.6373782
0
ARC
8
DEFAULT_255_2_778
10
5.622098
20
4.4022906
40
4.7995974
50
276.6169288
51
277.8265896
0
ARC
8
DEFAULT_255_2_778
10
5.6048776
20
4.5100933
40
4.9087415
50
277.8543675
51
287.0931686
0
ARC
8
DEFAULT_255_2_778
10
5.5733113
20
4.6173451
40
5.0205342
50
287.0777375
51
294.24966
0
ARC
8
DEFAULT_255_2_778
10
5.6817016
20
4.4008104
40
4.7785985
50
294.1310459
51
304.706092
0
ARC
8
DEFAULT_255_2_778
10
6.0155506
20
3.9241911
40
4.1966962
50
304.6640352
51
317.558309
0
ARC
8
DEFAULT_255_2_778
10
6.456609
20
3.5283058
40
3.6040558
50
317.4709618
51
335.3895477
0
ARC
8
DEFAULT_255_2_778
10
6.8176483
20
3.3566962
40
3.204352
50
335.4908772
51
354.2561451
0
ARC
8
DEFAULT_255_2_778
10
6.5130032
20
3.3838751
40
3.5101895
50
354.3124066
51
358.2046795
0
ARC
8
DEFAULT_255_2_778
10
6.5912255
20
3.3809352
40
3.4319135
50
358.2128238
51
359.997994
0
ARC
8
DEFAULT_255_2_778
10
6.792631
20
3.3883584
40
3.2305168
50
359.8662128
51
15.0805696
0
ARC
8
DEFAULT_255_2_778
10
7.1249759
20
3.4835308
40
2.8848608
50
14.9728002
51
38.547507
0
ARC
8
DEFAULT_255_2_778
10
7.2785074
20
3.5960383
40
2.6946856
50
38.7108884
51
65.8634778
0
LINE
8
DEFAULT_255_2_778
10
8.3803973
20
6.0551374
11
8.3798122
21
6.0554003
0
ARC
8
DEFAULT_255_2_778
10
7.2761536
20
3.603005
40
2.6892945
50
65.7706858
51
74.3650136
0
ARC
8
DEFAULT_255_2_778
10
7.3082831
20
3.7175674
40
2.5703121
50
74.366466
51
85.9514991
0
ARC
8
DEFAULT_255_2_778
10
7.3114223
20
3.7467282
40
2.5410026
50
85.9756843
51
90.0001233
0
ARC
8
DEFAULT_255_2_778
10
7.3194417
20
3.6572266
40
2.6305164
50
90.1747917
51
115.1604407
0
ARC
8
DEFAULT_255_2_778
10
7.4587502
20
3.3455549
40
2.9718514
50
115.0367132
51
128.5807782
0
ARC
8
DEFAULT_255_2_778
10
7.6924222
20
3.0499395
40
3.3486651
50
128.5519896
51
139.3386163
0
ARC
8
DEFAULT_255_2_778
10
7.8922878
20
2.86985
40
3.6176275
50
139.2375496
51
141.8830047
0
ARC
8
DEFAULT_255_2_778
10
5.8718494
20
4.4491746
40
1.0531853
50
141.6317848
51
162.0007012
0
ARC
8
DEFAULT_255_2_778
10
5.8717531
20
4.450037
40
1.0528275
50
162.043719
51
178.3474299
0
ARC
8
DEFAULT_255_2_778
10
5.8778058
20
4.4495662
40
1.0588913
50
178.3314087
51
180.000098
0
ARC
8
DEFAULT_255_2_778
10
5.8713286
20
4.4481686
40
1.0524149
50
179.9240134
51
222.4304977
0
ARC
8
DEFAULT_255_2_778
10
5.8746025
20
4.4534068
40
1.0583667
50
222.5202267
51
231.842192
0
ARC
8
DEFAULT_255_2_778
10
5.8736478
20
4.4478619
40
1.0534203
50
231.6966873
51
252.0789541
0
ARC
8
DEFAULT_255_2_778
10
5.8728601
20
4.4480189
40
1.0533275
50
252.1223501
51
268.437311
0
ARC
8
DEFAULT_255_2_778
10
5.8733428
20
4.4543511
40
1.0596706
50
268.4205615
51
270.0001606
0
ARC
8
DEFAULT_255_2_778
10
5.8744746
20
4.4498708
40
1.0551909
50
269.9387023
51
312.0280506
0
ARC
8
DEFAULT_255_2_778
10
5.8681504
20
4.4547504
40
1.0630504
50
312.1051735
51
321.7004309
0
ARC
8
DEFAULT_255_2_778
10
7.7936452
20
2.9424679
40
1.3853289
50
133.0175691
51
141.9717195
0
ARC
8
DEFAULT_255_2_778
10
7.5116053
20
3.2471674
40
0.970137
50
121.219041
51
133.1156631
0
ARC
8
DEFAULT_255_2_778
10
7.3772528
20
3.4643963
40
0.7147318
50
111.0988229
51
121.0342593
0
ARC
8
DEFAULT_255_2_778
10
7.3219346
20
3.6120691
40
0.5570477
50
94.5055458
51
111.2581672
0
ARC
8
DEFAULT_255_2_778
10
7.3144369
20
3.6738875
40
0.4948383
50
90.0101651
51
94.2023781
0
ARC
8
DEFAULT_255_2_778
10
7.3139827
20
3.6838237
40
0.4849021
50
65.4813219
51
89.9567085
0
ARC
8
DEFAULT_255_2_778
10
7.267017
20
3.5866114
40
0.5928435
50
40.6970247
51
65.2504774
0
ARC
8
DEFAULT_255_2_778
10
7.1578734
20
3.4911559
40
0.7378363
50
20.6660184
51
40.7904643
0
ARC
8
DEFAULT_255_2_778
10
6.9464963
20
3.410687
40
0.9640113
50
5.3013641
51
20.7071379
0
ARC
8
DEFAULT_255_2_778
10
6.6986412
20
3.3808184
40
1.2135854
50
359.9295446
51
5.6243143
0
ARC
8
DEFAULT_255_2_778
10
6.5345566
20
3.3800678
40
1.3776693
50
356.409098
51
359.9691539
0
ARC
8
DEFAULT_255_2_778
10
6.4122109
20
3.3872257
40
1.500223
50
354.375849
51
356.4289146
0
ARC
8
DEFAULT_255_2_778
10
6.7589031
20
3.3718309
40
1.1538419
50
328.1743472
51
353.4494189
0
ARC
8
DEFAULT_255_2_778
10
6.280386
20
3.6557929
40
1.7101966
50
312.8251615
51
328.5451965
0
ARC
8
DEFAULT_255_2_778
10
5.8622075
20
4.0986248
40
2.3192527
50
300.1695881
51
312.96559
0
ARC
8
DEFAULT_255_2_778
10
5.6427312
20
4.4567217
40
2.7391602
50
294.2673531
51
300.3741767
0
ARC
8
DEFAULT_255_2_778
10
5.5850978
20
4.587927
40
2.8824592
50
284.2624326
51
294.2398424
0
ARC
8
DEFAULT_255_2_778
10
5.600675
20
4.5297902
40
2.8222766
50
281.4491369
51
284.2467139
0
ARC
8
DEFAULT_255_2_778
10
5.6215518
20
4.4158367
40
2.7064475
50
273.0927095
51
281.4948266
0
ARC
8
DEFAULT_255_2_778
10
5.6325022
20
4.2536114
40
2.5438686
50
270.0097998
51
273.0435597
0
ARC
8
DEFAULT_255_2_778
10
5.6259898
20
4.0002055
40
2.2904733
50
258.171014
51
270.1737931
0
ARC
8
DEFAULT_255_2_778
10
5.5339738
20
3.5727301
40
1.853215
50
243.7482926
51
258.2462418
0
ARC
8
DEFAULT_255_2_778
10
5.4468983
20
3.3777965
40
1.6398921
50
242.9493781
51
243.4643195
0
ARC
8
DEFAULT_255_2_778
10
5.9225086
20
4.273223
40
2.6537108
50
207.0963522
51
242.5961263
0
ARC
8
DEFAULT_255_2_778
10
6.1057313
20
4.3880088
40
2.8691681
50
201.5655811
51
207.4704105
0
ARC
8
DEFAULT_255_2_778
10
6.0519314
20
4.3691906
40
2.8122183
50
196.9492368
51
201.611914
0
ARC
8
DEFAULT_255_2_778
10
6.085353
20
4.3797255
40
2.8472594
50
191.3837549
51
196.9559601
0
ARC
8
DEFAULT_255_2_778
10
6.0777573
20
4.3783092
40
2.8395336
50
185.2025199
51
191.3859902
0
ARC
8
DEFAULT_255_2_778
10
6.0759352
20
4.3779936
40
2.8376903
50
179.9977149
51
185.1995095
0
ARC
8
DEFAULT_255_2_778
10
6.108483
20
4.3776381
40
2.8702381
50
173.7745253
51
179.9906457
0
ARC
8
DEFAULT_255_2_778
10
6.2009148
20
4.3671272
40
2.9632646
50
167.5920434
51
173.766298
0
ARC
8
DEFAULT_255_2_778
10
6.3586022
20
4.3322204
40
3.1247694
50
161.9471819
51
167.5882101
0
ARC
8
DEFAULT_255_2_778
10
6.5142406
20
4.2828768
40
3.2880372
50
159.4064226
51
161.9701297
0
ARC
8
DEFAULT_255_2_778
10
5.5195346
20
4.6563824
40
2.2255185
50
150.2348717
51
159.4003365
0
ARC
8
DEFAULT_255_2_778
10
5.9060032
20
4.4368484
40
2.6699864
50
143.7228363
51
150.2625589
0
ARC
8
DEFAULT_255_2_778
10
6.3822178
20
4.0887877
40
3.2598385
50
138.6810995
51
143.7435458
0
ARC
8
DEFAULT_255_2_778
10
7.0124075
20
3.5327609
40
4.1002569
50
133.7055973
51
138.6598667
0
ARC
8
DEFAULT_255_2_778
10
7.8163258
20
2.6953841
40
5.2610668
50
129.9898945
51
133.7335226
0
ARC
8
DEFAULT_255_2_778
10
8.7703683
20
1.5585964
40
6.7451433
50
126.7283117
51
129.9931873
0
ARC
8
DEFAULT_255_2_778
10
9.9211294
20
0.019636
40
8.6667695
50
124.1132608
51
126.7414101
0
ARC
8
DEFAULT_255_2_778
10
11.2531691
20
-1.9436749
40
11.0393035
50
121.9653043
51
124.1223511
0
ARC
8
DEFAULT_255_2_778
10
11.9676429
20
-3.0714599
40
12.3743309
50
121.9428769
51
122.0073539
0
ARC
8
DEFAULT_255_2_778
10
5.5638446
20
14.3817393
40
5.9583275
50
298.7717078
51
312.1978895
0
ARC
8
DEFAULT_255_2_778
10
4.9530565
20
15.0629264
40
6.873235
50
312.155717
51
320.8702504
0
ARC
8
DEFAULT_255_2_778
10
4.2645796
20
15.6376353
40
7.7699943
50
320.7867074
51
324.7082716
0
ARC
8
DEFAULT_255_2_778
10
9.7461234
20
11.7582405
40
1.0545626
50
324.6831463
51
343.8284619
0
ARC
8
DEFAULT_255_2_778
10
9.7486738
20
11.7567663
40
1.0517026
50
343.8668968
51
357.6319613
0
ARC
8
DEFAULT_255_2_778
10
9.7423766
20
11.7572319
40
1.0580137
50
357.6208568
51
0.0002573
0
ARC
8
DEFAULT_255_2_778
10
9.7447324
20
11.7583074
40
1.0556584
50
359.9418885
51
45.3439965
0
ARC
8
DEFAULT_255_2_778
10
9.7405822
20
11.7518009
40
1.0632051
50
45.4313404
51
54.7165778
0
ARC
8
DEFAULT_255_2_778
10
5.4985213
20
14.1074633
40
0.708842
50
90.0020401
51
135.2270245
0
ARC
8
DEFAULT_255_2_778
10
5.4984958
20
14.1032233
40
0.7130818
50
89.7897721
51
89.9999828
0
ARC
8
DEFAULT_255_2_778
10
5.5029913
20
14.0806396
40
0.7356631
50
90.0000143
51
90.1463478
0
ARC
8
DEFAULT_255_2_778
10
5.5031492
20
14.1044405
40
0.7118623
50
44.8746128
51
90.0127285
0
ARC
8
DEFAULT_255_2_778
10
5.509222
20
14.1039784
40
0.7078998
50
359.7022988
51
45.2479088
0
ARC
8
DEFAULT_255_2_778
10
5.503172
20
14.0976824
40
0.713945
50
0.0000293
51
0.2100955
0
ARC
8
DEFAULT_255_2_778
10
5.5077269
20
14.0977381
40
0.7093902
50
314.8028256
51
359.9955277
0
ARC
8
DEFAULT_255_2_778
10
5.5037003
20
14.0956658
40
0.7107702
50
269.7913695
51
315.1508475
0
ARC
8
DEFAULT_255_2_778
10
5.4984958
20
14.0979773
40
0.7130818
50
270.0000172
51
270.2102279
0
ARC
8
DEFAULT_255_2_778
10
5.498554
20
14.0940548
40
0.7091593
50
224.7950608
51
269.9953171
0
ARC
8
DEFAULT_255_2_778
10
5.4960993
20
14.098254
40
0.7103916
50
179.7946322
51
225.1748929
0
ARC
8
DEFAULT_255_2_778
10
5.4996541
20
14.1034182
40
0.7139467
50
180.0000292
51
180.2100955
0
ARC
8
DEFAULT_255_2_778
10
5.4946056
20
14.1034677
40
0.7088982
50
134.7748687
51
180.0040282
0
ARC
8
DEFAULT_255_2_778
10
5.5074068
20
14.080198
40
2.4156059
50
269.8506984
51
270.0017894
0
ARC
8
DEFAULT_255_2_778
10
5.5075823
20
14.0830119
40
2.41842
50
269.9976307
51
315.1996606
0
ARC
8
DEFAULT_255_2_778
10
5.5183545
20
14.0940019
40
2.4185692
50
314.8351013
51
359.9977764
0
ARC
8
DEFAULT_255_2_778
10
5.5169787
20
14.093972
40
2.4199451
50
359.9984846
51
0.1758757
0
ARC
8
DEFAULT_255_2_778
10
5.5148821
20
14.1072614
40
2.4220372
50
359.8613491
51
45.13062
0
ARC
8
DEFAULT_255_2_778
10
5.5085785
20
14.1170148
40
2.4195986
50
44.8618899
51
90.1886412
0
ARC
8
DEFAULT_255_2_778
10
5.4948857
20
14.1168759
40
2.4197312
50
89.8644032
51
135.1900199
0
ARC
8
DEFAULT_255_2_778
10
5.483066
20
14.1072666
40
2.4181654
50
134.8311197
51
179.9993856
0
ARC
8
DEFAULT_255_2_778
10
5.4848457
20
14.1072286
40
2.4199451
50
179.9984846
51
180.1758757
0
ARC
8
DEFAULT_255_2_778
10
5.4848457
20
14.092372
40
2.4199449
50
179.8241243
51
180.0015154
0
ARC
8
DEFAULT_255_2_778
10
5.4834699
20
14.0924019
40
2.4185693
50
180.0022236
51
225.1648987
0
ARC
8
DEFAULT_255_2_778
10
5.4936948
20
14.0817867
40
2.4182957
50
224.8157784
51
270.0040533
0
ARC
8
DEFAULT_255_2_778
10
5.4937921
20
14.13737
40
2.4738791
50
270.0017086
51
270.1579567
0
LINE
8
DEFAULT_255_2_778
10
7.4972122
20
11.0507003
11
7.3511122
21
10.9714003
0
LINE
8
DEFAULT_255_2_778
10
7.3511122
20
10.9714003
11
7.2135122
21
10.9042003
0
LINE
8
DEFAULT_255_2_778
10
5.4207122
20
7.4291003
11
6.8738122
21
8.2604003
0
LINE
8
DEFAULT_255_2_778
10
6.8738122
20
8.2604003
11
8.4317122
21
9.1590003
0
LINE
8
DEFAULT_255_2_778
10
10.3547122
20
12.6197003
11
10.3600122
21
12.6197003
0
LINE
8
DEFAULT_255_2_778
10
4.9953122
20
14.6067003
11
4.9953122
21
14.6067003
0
LINE
8
DEFAULT_255_2_778
10
5.5006122
20
11.6635003
11
5.5011122
21
11.6646003
0
ENDSEC
0
EOF