0
SECTION
2
HEADER
9
$MEASUREMENT
70
1
0
ENDSEC
0
SECTION
2
TABLES
0
TABLE
2
LTYPE
0
LTYPE
72
65
70
64
2
CONTINUOUS
3
______
73
0
40
0
0
ENDTAB
0
TABLE
2
LAYER
0
LAYER
2
DEFAULT_255_2_778
70
0
62
255
6
CONTINUOUS
0
ENDTAB
0
ENDSEC
0
SECTION
2
ENTITIES
0
ARC
8
DEFAULT_255_2_778
10
2.9378413
20
14.1605459
40
2.6733184
50
180.0021817
51
180.1151817
0
ARC
8
DEFAULT_255_2_778
10
2.9050869
20
14.1604092
40
2.6405639
50
134.9999396
51
179.9992423
0
ARC
8
DEFAULT_255_2_778
10
2.9050908
20
14.1604131
40
2.6405638
50
90.0007577
51
135.0000604
0
ARC
8
DEFAULT_255_2_778
10
2.9049541
20
14.1276587
40
2.6733183
50
89.8848183
51
89.9978183
0
ARC
8
DEFAULT_255_2_778
10
14.557403
20
14.1271853
40
2.6737918
50
90.002178
51
90.1151741
0
ARC
8
DEFAULT_255_2_778
10
14.5573418
20
14.1603555
40
2.6406215
50
45.0004575
51
90.0008774
0
ARC
8
DEFAULT_255_2_778
10
14.5569464
20
14.1603753
40
2.640887
50
0.0014924
51
44.994087
0
ARC
8
DEFAULT_255_2_778
10
14.5245153
20
14.1605459
40
2.6733183
50
359.8848183
51
359.9978183
0
ARC
8
DEFAULT_255_2_778
10
14.5240418
20
2.508097
40
2.6737918
50
0.002178
51
0.1151741
0
ARC
8
DEFAULT_255_2_778
10
14.5572948
20
2.5081239
40
2.6405388
50
315.0027826
51
0.0016212
0
ARC
8
DEFAULT_255_2_778
10
14.5573418
20
2.508288
40
2.6406215
50
269.9991226
51
314.9995425
0
ARC
8
DEFAULT_255_2_778
10
14.557403
20
2.5414582
40
2.6737917
50
269.8848259
51
269.997822
0
ARC
8
DEFAULT_255_2_778
10
2.9049541
20
2.5409847
40
2.6733184
50
270.0021817
51
270.1151817
0
ARC
8
DEFAULT_255_2_778
10
2.9050908
20
2.5082303
40
2.6405639
50
224.9999396
51
269.9992423
0
ARC
8
DEFAULT_255_2_778
10
2.9047386
20
2.50809
40
2.6402156
50
179.9976439
51
225.0031909
0
ARC
8
DEFAULT_255_2_778
10
2.9383147
20
2.508097
40
2.6737917
50
179.8848259
51
179.997822
0
LINE
8
DEFAULT_255_2_778
10
2.9103283
20
16.8009717
11
14.5520283
21
16.8009717
0
LINE
8
DEFAULT_255_2_778
10
17.1978283
20
14.1551717
11
17.1978283
21
2.5134717
0
LINE
8
DEFAULT_255_2_778
10
14.5520283
20
-0.1323283
11
2.9103283
21
-0.1323283
0
LINE
8
DEFAULT_255_2_778
10
0.2645283
20
2.5134717
11
0.2645283
21
14.1551717
0
LINE
8
DEFAULT_255_2_778
10
4.37068
20
12.3925546
11
5.43248
21
12.4208546
0
LINE
8
DEFAULT_255_2_778
10
5.43248
20
12.4208546
11
5.65228
21
4.1314546
0
LINE
8
DEFAULT_255_2_778
10
5.65228
20
4.1314546
11
4.59058
21
4.1031546
0
LINE
8
DEFAULT_255_2_778
10
4.59058
20
4.1031546
11
4.37068
21
12.3925546
0
LINE
8
DEFAULT_255_2_778
10
11.8636977
20
10.4655349
11
12.9270977
21
10.4938349
0
LINE
8
DEFAULT_255_2_778
10
12.9270977
20
10.4938349
11
13.0902977
21
4.3250349
0
LINE
8
DEFAULT_255_2_778
10
13.0902977
20
4.3250349
11
12.0268977
21
4.2967349
0
LINE
8
DEFAULT_255_2_778
10
12.0268977
20
4.2967349
11
11.8636977
21
10.4655349
0
LINE
8
DEFAULT_255_2_778
10
4.5910758
20
4.1057594
11
13.0907758
21
4.3317594
0
LINE
8
DEFAULT_255_2_778
10
13.0907758
20
4.3317594
11
13.1190758
21
3.2683594
0
LINE
8
DEFAULT_255_2_778
10
13.1190758
20
3.2683594
11
4.6193758
21
3.0424594
0
LINE
8
DEFAULT_255_2_778
10
4.6193758
20
3.0424594
11
4.5910758
21
4.1057594
0
LINE
8
DEFAULT_255_2_778
10
4.3423596
20
13.4553251
11
9.6541596
21
13.5966251
0
LINE
8
DEFAULT_255_2_778
10
9.6541596
20
13.5966251
11
9.6824596
21
12.5332251
0
LINE
8
DEFAULT_255_2_778
10
9.6824596
20
12.5332251
11
4.3706596
21
12.3919251
0
LINE
8
DEFAULT_255_2_778
10
4.3706596
20
12.3919251
11
4.3423596
21
13.4553251
0
LINE
8
DEFAULT_255_2_778
10
10.746582
20
12.5631342
11
10.718282
21
13.6254342
0
LINE
8
DEFAULT_255_2_778
10
10.718282
20
13.6254342
11
9.654082
21
13.5971342
0
LINE
8
DEFAULT_255_2_778
10
9.654082
20
13.5971342
11
9.738782
21
10.4091342
0
LINE
8
DEFAULT_255_2_778
10
9.738782
20
10.4091342
11
12.926682
21
10.4938342
0
LINE
8
DEFAULT_255_2_778
10
12.926682
20
10.4938342
11
12.898382
21
11.5561342
0
LINE
8
DEFAULT_255_2_778
10
12.898382
20
11.5561342
11
11.834282
21
11.5278342
0
LINE
8
DEFAULT_255_2_778
10
11.834282
20
11.5278342
11
11.805982
21
12.5901342
0
LINE
8
DEFAULT_255_2_778
10
11.805982
20
12.5901342
11
10.746582
21
12.5631342
0
LINE
8
DEFAULT_255_2_778
10
11.8649677
20
10.4661363
11
12.9283677
21
10.4944363
0
LINE
8
DEFAULT_255_2_778
10
12.9283677
20
10.4944363
11
12.9566677
21
9.4310363
0
LINE
8
DEFAULT_255_2_778
10
12.9566677
20
9.4310363
11
11.8932677
21
9.4027363
0
LINE
8
DEFAULT_255_2_778
10
11.8932677
20
9.4027363
11
11.8649677
21
10.4661363
0
ENDSEC
0
EOF