0
SECTION
2
HEADER
9
$MEASUREMENT
70
1
0
ENDSEC
0
SECTION
2
TABLES
0
TABLE
2
LTYPE
0
LTYPE
72
65
70
64
2
CONTINUOUS
3
______
73
0
40
0
0
ENDTAB
0
TABLE
2
LAYER
0
LAYER
2
DEFAULT_255_2_778
70
0
62
255
6
CONTINUOUS
0
ENDTAB
0
ENDSEC
0
SECTION
2
ENTITIES
0
ARC
8
DEFAULT_255_2_778
10
8.8469621
20
15.5697834
40
1.0898229
50
44.9778273
51
90.0042429
0
ARC
8
DEFAULT_255_2_778
10
8.8468729
20
15.5696093
40
1.0899969
50
89.9995521
51
135.0183815
0
ARC
8
DEFAULT_255_2_778
10
8.9069104
20
11.6645637
40
1.2647916
50
90.3299006
51
109.3094653
0
ARC
8
DEFAULT_255_2_778
10
8.9073217
20
11.6645556
40
1.2648021
50
89.9985184
51
90.3485306
0
ARC
8
DEFAULT_255_2_778
10
8.9061214
20
11.6446623
40
1.284696
50
54.1732143
51
89.9450067
0
ARC
8
DEFAULT_255_2_778
10
8.8835918
20
11.610917
40
1.3252446
50
44.9755321
51
54.2374424
0
ARC
8
DEFAULT_255_2_778
10
8.9032875
20
11.6315204
40
1.2967493
50
359.9938814
51
44.9466358
0
ARC
8
DEFAULT_255_2_778
10
8.9053069
20
11.6313733
40
1.29473
50
356.0201593
51
0.0003797
0
ARC
8
DEFAULT_255_2_778
10
8.9045569
20
11.6315374
40
1.2954895
50
340.8801597
51
356.0152211
0
ARC
8
DEFAULT_255_2_778
10
12.4309007
20
8.0957184
40
1.3058287
50
90.073672
51
109.0131345
0
ARC
8
DEFAULT_255_2_778
10
12.4305825
20
8.5784265
40
0.8231207
50
89.9684426
51
90.0947281
0
ARC
8
DEFAULT_255_2_778
10
12.433129
20
8.1132495
40
1.2882995
50
53.6894383
51
90.0930928
0
ARC
8
DEFAULT_255_2_778
10
12.4247895
20
8.1043968
40
1.3003724
50
44.9008466
51
53.6243195
0
ARC
8
DEFAULT_255_2_778
10
12.4279924
20
8.1045642
40
1.2979871
50
0.0006241
51
44.9954137
0
ARC
8
DEFAULT_255_2_778
10
12.430931
20
8.1045696
40
1.2950487
50
355.2079996
51
0.0003845
0
ARC
8
DEFAULT_255_2_778
10
12.4294438
20
8.1047647
40
1.2965471
50
344.9776987
51
355.204898
0
ARC
8
DEFAULT_255_2_778
10
12.4278411
20
8.1050564
40
1.2981706
50
284.9976693
51
344.9836015
0
ARC
8
DEFAULT_255_2_778
10
12.4279418
20
8.1061751
40
1.2992252
50
274.8722635
51
284.9806137
0
ARC
8
DEFAULT_255_2_778
10
12.428207
20
8.1040678
40
1.2971029
50
269.9999231
51
274.8684974
0
ARC
8
DEFAULT_255_2_778
10
12.4280566
20
8.1051694
40
1.2982046
50
225.0058689
51
270.0065629
0
ARC
8
DEFAULT_255_2_778
10
12.4216662
20
8.1007106
40
1.2905337
50
200.0067869
51
225.0665413
0
ARC
8
DEFAULT_255_2_778
10
12.4340025
20
8.1044235
40
1.3033962
50
180.0914782
51
199.9746193
0
ARC
8
DEFAULT_255_2_778
10
12.4136129
20
8.1048242
40
1.2830073
50
180
51
180.1108235
0
ARC
8
DEFAULT_255_2_778
10
12.430487
20
8.1055058
40
1.2998816
50
157.7165607
51
180.0300441
0
ARC
8
DEFAULT_255_2_778
10
8.8872281
20
4.5524709
40
1.3282428
50
45.3258244
51
63.6303428
0
ARC
8
DEFAULT_255_2_778
10
8.9066612
20
4.5804551
40
1.2946931
50
24.5662449
51
45.0666823
0
ARC
8
DEFAULT_255_2_778
10
8.9028563
20
4.5802845
40
1.2982253
50
359.9721909
51
24.5032757
0
ARC
8
DEFAULT_255_2_778
10
8.9061919
20
4.5784645
40
1.2948899
50
327.3139437
51
0.0483065
0
ARC
8
DEFAULT_255_2_778
10
8.900582
20
4.5838434
40
1.3025171
50
314.9552773
51
327.2480672
0
ARC
8
DEFAULT_255_2_778
10
8.9037411
20
4.5776348
40
1.2958931
50
294.5749303
51
315.0503866
0
ARC
8
DEFAULT_255_2_778
10
8.9038876
20
4.5807195
40
1.2986382
50
270.001204
51
294.5124527
0
LINE
8
DEFAULT_255_2_778
10
8.9039149
20
3.2820814
11
8.9032814
21
3.2820812
0
ARC
8
DEFAULT_255_2_778
10
8.902045
20
4.5766376
40
1.294557
50
236.9606718
51
270.0547201
0
ARC
8
DEFAULT_255_2_778
10
8.9077012
20
4.5826166
40
1.3026538
50
224.9623861
51
236.8955003
0
ARC
8
DEFAULT_255_2_778
10
8.900443
20
4.5786931
40
1.2947476
50
204.564908
51
225.066502
0
ARC
8
DEFAULT_255_2_778
10
8.9043879
20
4.5789225
40
1.2984316
50
179.9720338
51
204.5017463
0
ARC
8
DEFAULT_255_2_778
10
8.9010467
20
4.5807528
40
1.2950908
50
147.3251667
51
180.0529398
0
ARC
8
DEFAULT_255_2_778
10
8.906384
20
4.575536
40
1.302401
50
134.9667904
51
147.2587473
0
ARC
8
DEFAULT_255_2_778
10
8.8742261
20
4.6242665
40
1.2452523
50
111.8445064
51
135.5044599
0
ARC
8
DEFAULT_255_2_778
10
8.8987134
20
11.6215765
40
1.2882114
50
224.8848379
51
247.7474728
0
ARC
8
DEFAULT_255_2_778
10
8.9010854
20
11.6292915
40
1.2953419
50
187.3007027
51
225.0525849
0
ARC
8
DEFAULT_255_2_778
10
8.9031089
20
11.6300535
40
1.297446
50
180.0013313
51
187.3227248
0
ARC
8
DEFAULT_255_2_778
10
8.9008363
20
11.6300335
40
1.2951735
50
176.7163582
51
180.0004491
0
ARC
8
DEFAULT_255_2_778
10
8.9000584
20
11.6300169
40
1.2943977
50
157.8461261
51
176.7136538
0
ARC
8
DEFAULT_255_2_778
10
8.9051174
20
11.6284143
40
1.2996876
50
157.2457675
51
157.8647909
0
ARC
8
DEFAULT_255_2_778
10
1.4860401
20
8.2155556
40
1.0896586
50
134.9445289
51
179.9973398
0
ARC
8
DEFAULT_255_2_778
10
1.486272
20
8.215653
40
1.0898906
50
180.0024591
51
225.050414
0
ARC
8
DEFAULT_255_2_778
10
8.8807007
20
0.8222291
40
1.0898229
50
224.9778273
51
270.0042429
0
ARC
8
DEFAULT_255_2_778
10
8.8807899
20
0.8224032
40
1.0899969
50
269.9995521
51
315.0183815
0
ARC
8
DEFAULT_255_2_778
10
16.2402895
20
8.1706196
40
1.0902918
50
314.9731914
51
359.9992959
0
ARC
8
DEFAULT_255_2_778
10
16.2402892
20
8.1705927
40
1.0902922
50
0.0007116
51
45.026806
0
LINE
8
DEFAULT_255_2_778
10
17.0108814
20
8.9472062
11
9.6178814
21
16.3401062
0
LINE
8
DEFAULT_255_2_778
10
8.0758814
20
16.3401062
11
6.5412814
21
14.8056062
0
LINE
8
DEFAULT_255_2_778
10
6.5412814
20
14.8056062
11
8.4886814
21
12.8582062
0
LINE
8
DEFAULT_255_2_778
10
10.1285814
20
11.2072062
11
12.0054814
21
9.3303062
0
LINE
8
DEFAULT_255_2_778
10
11.2276814
20
8.5984062
11
9.4771814
21
10.3489062
0
LINE
8
DEFAULT_255_2_778
10
9.4771814
20
10.3489062
11
9.4771814
21
5.7425062
0
LINE
8
DEFAULT_255_2_778
10
8.4108814
20
5.7801062
11
8.4108814
21
10.4293062
0
LINE
8
DEFAULT_255_2_778
10
7.7065814
20
12.1311062
11
5.7856814
21
14.0510062
0
LINE
8
DEFAULT_255_2_778
10
5.7856814
20
14.0510062
11
0.7162814
21
8.9868062
0
LINE
8
DEFAULT_255_2_778
10
0.7162814
20
7.4443062
11
8.1097814
21
0.0519062
0
LINE
8
DEFAULT_255_2_778
10
9.6517814
20
0.0519062
11
17.0108814
21
7.3993062
0
ENDSEC
0
EOF