0
SECTION
2
HEADER
9
$MEASUREMENT
70
1
0
ENDSEC
0
SECTION
2
TABLES
0
TABLE
2
LTYPE
0
LTYPE
72
65
70
64
2
CONTINUOUS
3
______
73
0
40
0
0
ENDTAB
0
TABLE
2
LAYER
0
LAYER
2
DEFAULT_255_2_778
70
0
62
255
6
CONTINUOUS
0
ENDTAB
0
ENDSEC
0
SECTION
2
ENTITIES
0
ARC
8
DEFAULT_255_2_778
10
7.1637557
20
0.7620723
40
0.4011551
50
318.5379027
51
358.2534864
0
ARC
8
DEFAULT_255_2_778
10
6.7984498
20
1.0565837
40
0.8701741
50
304.0123337
51
319.9321524
0
ARC
8
DEFAULT_255_2_778
10
6.3421521
20
1.7142866
40
1.6706271
50
294.5198887
51
304.3667109
0
ARC
8
DEFAULT_255_2_778
10
5.8735292
20
2.7199248
40
2.7800714
50
288.0550938
51
294.7056242
0
ARC
8
DEFAULT_255_2_778
10
5.4553879
20
3.9905353
40
4.1177124
50
282.555475
51
288.1072672
0
ARC
8
DEFAULT_255_2_778
10
5.1311721
20
5.4335816
40
5.5967298
50
277.436998
51
282.5837933
0
ARC
8
DEFAULT_255_2_778
10
4.9590289
20
6.7186841
40
6.8933047
50
272.7023998
51
277.4732101
0
ARC
8
DEFAULT_255_2_778
10
4.921223
20
7.3942697
40
7.5699238
50
269.9901718
51
272.7471405
0
ARC
8
DEFAULT_255_2_778
10
4.914542
20
7.2134701
40
7.389126
50
264.9102597
51
270.0417362
0
ARC
8
DEFAULT_255_2_778
10
4.818067
20
6.1501122
40
6.3214025
50
260.2556626
51
264.9261918
0
ARC
8
DEFAULT_255_2_778
10
4.576415
20
4.7663795
40
4.9167348
50
254.9173769
51
260.3018788
0
ARC
8
DEFAULT_255_2_778
10
4.1913374
20
3.3467504
40
3.4458089
50
248.8319085
51
254.9574209
0
ARC
8
DEFAULT_255_2_778
10
3.7293254
20
2.16521
40
2.1771619
50
240.7573901
51
248.94184
0
ARC
8
DEFAULT_255_2_778
10
3.2526236
20
1.324016
40
1.2103078
50
228.6500703
51
240.9950311
0
ARC
8
DEFAULT_255_2_778
10
2.8387491
20
0.8633521
40
0.5910981
50
206.6345742
51
229.2656436
0
ARC
8
DEFAULT_255_2_778
10
2.6283171
20
0.752195
40
0.3532005
50
180.3810563
51
205.8193643
0
ARC
8
DEFAULT_255_2_778
10
2.6762257
20
0.7376183
40
0.4012875
50
138.5498297
51
178.2538574
0
ARC
8
DEFAULT_255_2_778
10
3.0415412
20
0.4432167
40
0.870245
50
124.0247661
51
139.9433811
0
ARC
8
DEFAULT_255_2_778
10
3.4978009
20
-0.2141343
40
1.6703873
50
114.5309018
51
124.3789096
0
ARC
8
DEFAULT_255_2_778
10
3.9663599
20
-1.2191419
40
2.7792332
50
108.0641243
51
114.7164979
0
ARC
8
DEFAULT_255_2_778
10
4.3844328
20
-2.4888672
40
4.1160122
50
102.5622341
51
108.1162985
0
ARC
8
DEFAULT_255_2_778
10
4.7086111
20
-3.9309595
40
5.5940907
50
97.4411048
51
102.5905296
0
ARC
8
DEFAULT_255_2_778
10
4.8807885
20
-5.2156753
40
6.8902867
50
92.7038523
51
97.4772582
0
ARC
8
DEFAULT_255_2_778
10
4.9186232
20
-5.8914299
40
7.5670761
50
89.9901468
51
92.7486373
0
ARC
8
DEFAULT_255_2_778
10
4.9252851
20
-5.7027643
40
7.3784122
50
84.9021588
51
90.0416271
0
ARC
8
DEFAULT_255_2_778
10
5.0215066
20
-4.6439177
40
6.3152043
50
80.2426644
51
84.9180833
0
ARC
8
DEFAULT_255_2_778
10
5.2627765
20
-3.2642714
40
4.9146277
50
74.9017921
51
80.2888682
0
ARC
8
DEFAULT_255_2_778
10
5.6476126
20
-1.8470488
40
3.4460873
50
68.81644
51
74.9417254
0
ARC
8
DEFAULT_255_2_778
10
6.1096397
20
-0.6664099
40
2.1782743
50
60.7456992
51
68.9262449
0
ARC
8
DEFAULT_255_2_778
10
6.5866438
20
0.1749224
40
1.2111508
50
48.6469624
51
60.983122
0
ARC
8
DEFAULT_255_2_778
10
7.0009887
20
0.6360516
40
0.5912806
50
26.6446149
51
49.263518
0
ARC
8
DEFAULT_255_2_778
10
7.2118979
20
0.7474779
40
0.3528347
50
0.3845506
51
25.8310109
0
ARC
8
DEFAULT_255_2_778
10
7.1637557
20
0.7620723
40
0.4011551
50
318.5379027
51
358.2534864
0
ARC
8
DEFAULT_255_2_778
10
6.7984498
20
1.0565837
40
0.8701741
50
304.0123337
51
319.9321524
0
ARC
8
DEFAULT_255_2_778
10
6.3421521
20
1.7142866
40
1.6706271
50
294.5198887
51
304.3667109
0
ARC
8
DEFAULT_255_2_778
10
5.8735292
20
2.7199248
40
2.7800714
50
288.0550938
51
294.7056242
0
ARC
8
DEFAULT_255_2_778
10
5.4553879
20
3.9905353
40
4.1177124
50
282.555475
51
288.1072672
0
ARC
8
DEFAULT_255_2_778
10
5.1311721
20
5.4335816
40
5.5967298
50
277.436998
51
282.5837933
0
ARC
8
DEFAULT_255_2_778
10
4.9590289
20
6.7186841
40
6.8933047
50
272.7023998
51
277.4732101
0
ARC
8
DEFAULT_255_2_778
10
4.921223
20
7.3942697
40
7.5699238
50
269.9901718
51
272.7471405
0
ARC
8
DEFAULT_255_2_778
10
4.914542
20
7.2134701
40
7.389126
50
264.9102597
51
270.0417362
0
ARC
8
DEFAULT_255_2_778
10
4.818067
20
6.1501122
40
6.3214025
50
260.2556626
51
264.9261918
0
ARC
8
DEFAULT_255_2_778
10
4.576415
20
4.7663795
40
4.9167348
50
254.9173769
51
260.3018788
0
ARC
8
DEFAULT_255_2_778
10
4.1913374
20
3.3467504
40
3.4458089
50
248.8319085
51
254.9574209
0
ARC
8
DEFAULT_255_2_778
10
3.7293254
20
2.16521
40
2.1771619
50
240.7573901
51
248.94184
0
ARC
8
DEFAULT_255_2_778
10
3.2526236
20
1.324016
40
1.2103078
50
228.6500703
51
240.9950311
0
ARC
8
DEFAULT_255_2_778
10
2.8387491
20
0.8633521
40
0.5910981
50
206.6345742
51
229.2656436
0
ARC
8
DEFAULT_255_2_778
10
2.6283171
20
0.752195
40
0.3532005
50
180.3810563
51
205.8193643
0
ARC
8
DEFAULT_255_2_778
10
2.6762257
20
0.7376183
40
0.4012875
50
138.5498297
51
178.2538574
0
ARC
8
DEFAULT_255_2_778
10
3.0415412
20
0.4432167
40
0.870245
50
124.0247661
51
139.9433811
0
ARC
8
DEFAULT_255_2_778
10
3.4978009
20
-0.2141343
40
1.6703873
50
114.5309018
51
124.3789096
0
ARC
8
DEFAULT_255_2_778
10
3.9663599
20
-1.2191419
40
2.7792332
50
108.0641243
51
114.7164979
0
ARC
8
DEFAULT_255_2_778
10
4.3844328
20
-2.4888672
40
4.1160122
50
102.5622341
51
108.1162985
0
ARC
8
DEFAULT_255_2_778
10
4.7086111
20
-3.9309595
40
5.5940907
50
97.4411048
51
102.5905296
0
ARC
8
DEFAULT_255_2_778
10
4.8807885
20
-5.2156753
40
6.8902867
50
92.7038523
51
97.4772582
0
ARC
8
DEFAULT_255_2_778
10
4.9186232
20
-5.8914299
40
7.5670761
50
89.9901468
51
92.7486373
0
ARC
8
DEFAULT_255_2_778
10
4.9252851
20
-5.7027643
40
7.3784122
50
84.9021588
51
90.0416271
0
ARC
8
DEFAULT_255_2_778
10
5.0215066
20
-4.6439177
40
6.3152043
50
80.2426644
51
84.9180833
0
ARC
8
DEFAULT_255_2_778
10
5.2627765
20
-3.2642714
40
4.9146277
50
74.9017921
51
80.2888682
0
ARC
8
DEFAULT_255_2_778
10
5.6476126
20
-1.8470488
40
3.4460873
50
68.81644
51
74.9417254
0
ARC
8
DEFAULT_255_2_778
10
6.1096397
20
-0.6664099
40
2.1782743
50
60.7456992
51
68.9262449
0
ARC
8
DEFAULT_255_2_778
10
6.5866438
20
0.1749224
40
1.2111508
50
48.6469624
51
60.983122
0
ARC
8
DEFAULT_255_2_778
10
7.0009887
20
0.6360516
40
0.5912806
50
26.6446149
51
49.263518
0
ARC
8
DEFAULT_255_2_778
10
7.2118979
20
0.7474779
40
0.3528347
50
0.3845506
51
25.8310109
0
ARC
8
DEFAULT_255_2_778
10
1.8904435
20
3.1926277
40
0.0693117
50
169.0649835
51
172.4801865
0
ARC
8
DEFAULT_255_2_778
10
1.9313874
20
3.1865918
40
0.110695
50
172.1563319
51
173.1913704
0
ARC
8
DEFAULT_255_2_778
10
1.9541721
20
3.184086
40
0.1336162
50
173.2827308
51
180.0366784
0
ARC
8
DEFAULT_255_2_778
10
1.9367658
20
3.1830509
40
0.1162138
50
179.5318285
51
197.6491309
0
ARC
8
DEFAULT_255_2_778
10
1.9000907
20
3.1708897
40
0.0775792
50
197.3025126
51
249.5646217
0
ARC
8
DEFAULT_255_2_778
10
1.9132955
20
3.2016068
40
0.1109859
50
248.7133778
51
259.5107006
0
ARC
8
DEFAULT_255_2_778
10
1.8965505
20
3.1791698
40
0.086763
50
267.7144137
51
309.820439
0
ARC
8
DEFAULT_255_2_778
10
1.8988423
20
3.1679549
40
0.076873
50
313.864669
51
351.362738
0
ARC
8
DEFAULT_255_2_778
10
1.8506068
20
3.1787309
40
0.1262257
50
349.8147625
51
0.2238717
0
ARC
8
DEFAULT_255_2_778
10
1.8258206
20
3.1791448
40
0.151011
50
0.0300671
51
11.5068902
0
ARC
8
DEFAULT_255_2_778
10
1.863799
20
3.1863462
40
0.1123605
50
11.7718155
51
12.5315879
0
ARC
8
DEFAULT_255_2_778
10
1.8735485
20
3.1885522
40
0.1023647
50
12.5102869
51
12.9980025
0
LINE
8
DEFAULT_255_2_778
10
1.8988903
20
3.4716758
11
1.8223903
21
3.2057758
0
LINE
8
DEFAULT_255_2_778
10
1.9732903
20
3.2115758
11
1.8986903
21
3.4716758
0
LINE
8
DEFAULT_255_2_778
10
1.8986903
20
3.4716758
11
1.8988903
21
3.4716758
0
ARC
8
DEFAULT_255_2_778
10
8.3611867
20
-1.553929
40
6.2973126
50
78.7047875
51
80.0080648
0
ARC
8
DEFAULT_255_2_778
10
8.1565822
20
-2.812483
40
7.5722968
50
80.1357123
51
85.371886
0
ARC
8
DEFAULT_255_2_778
10
8.0088398
20
-4.468111
40
9.2344576
50
85.287061
51
87.8756759
0
ARC
8
DEFAULT_255_2_778
10
7.9736066
20
-5.3536562
40
10.1207005
50
87.8621817
51
89.7606368
0
ARC
8
DEFAULT_255_2_778
10
7.9707938
20
-5.6502246
40
10.4172782
50
89.7519805
51
89.9999578
0
ARC
8
DEFAULT_255_2_778
10
7.9709567
20
-5.7334415
40
10.500495
50
90.0008472
51
90.9499507
0
ARC
8
DEFAULT_255_2_778
10
7.9706062
20
-5.7215729
40
10.4886223
50
90.9491111
51
91.6804354
0
ARC
8
DEFAULT_255_2_778
10
7.9650008
20
-5.5338195
40
10.3007853
50
91.6798956
51
92.3623882
0
ARC
8
DEFAULT_255_2_778
10
4.9431391
20
5.4537715
40
2.6887903
50
345.0077172
51
354.9560561
0
ARC
8
DEFAULT_255_2_778
10
2.2887963
20
5.7001351
40
5.3545282
50
354.8272183
51
0.2134975
0
ARC
8
DEFAULT_255_2_778
10
-0.6735699
20
5.7371974
40
8.3168748
50
359.882127
51
0.000095
0
ARC
8
DEFAULT_255_2_778
10
5.7722957
20
5.7458226
40
1.8710289
50
359.7362957
51
14.6789402
0
ARC
8
DEFAULT_255_2_778
10
5.9233432
20
5.774856
40
1.7175847
50
15.0188633
51
45.5565316
0
ARC
8
DEFAULT_255_2_778
10
6.0037594
20
7.3485058
40
1.1747842
50
342.7999231
51
344.180802
0
ARC
8
DEFAULT_255_2_778
10
5.9612964
20
7.3607108
40
1.2189662
50
344.1729408
51
344.6461314
0
ARC
8
DEFAULT_255_2_778
10
5.8632938
20
7.3865688
40
1.320318
50
344.690136
51
349.0070698
0
ARC
8
DEFAULT_255_2_778
10
5.7317018
20
7.4122783
40
1.4543978
50
349.0013665
51
354.0866167
0
ARC
8
DEFAULT_255_2_778
10
5.6300908
20
7.4228891
40
1.5565614
50
354.0834565
51
359.8350327
0
ARC
8
DEFAULT_255_2_778
10
5.5944862
20
7.4237613
40
1.5921685
50
359.807336
51
0.0023243
0
ARC
8
DEFAULT_255_2_778
10
5.5314878
20
7.4228812
40
1.6551673
50
0.0327002
51
6.518997
0
ARC
8
DEFAULT_255_2_778
10
5.4173094
20
7.4096826
40
1.7701059
50
6.5238615
51
13.1192348
0
ARC
8
DEFAULT_255_2_778
10
5.2625343
20
7.3732108
40
1.9291199
50
13.1307973
51
19.9432844
0
ARC
8
DEFAULT_255_2_778
10
5.1339274
20
7.328587
40
2.0652359
50
19.8900519
51
21.8048403
0
ARC
8
DEFAULT_255_2_778
10
7.0313508
20
8.0295288
40
0.069154
50
73.1425979
51
76.022001
0
ARC
8
DEFAULT_255_2_778
10
7.0029803
20
7.9175154
40
0.184704
50
75.8750685
51
79.2688601
0
ARC
8
DEFAULT_255_2_778
10
6.9845322
20
7.823485
40
0.2805257
50
79.1428405
51
81.2109676
0
ARC
8
DEFAULT_255_2_778
10
6.970262
20
7.729203
40
0.3758812
50
81.2572151
51
84.57492
0
ARC
8
DEFAULT_255_2_778
10
6.9585618
20
7.6066793
40
0.4989621
50
84.5675781
51
88.015467
0
ARC
8
DEFAULT_255_2_778
10
6.9544167
20
7.5020075
40
0.6037149
50
87.9663237
51
90.0237628
0
ARC
8
DEFAULT_255_2_778
10
6.9576114
20
7.3023676
40
0.8033622
50
90.2457046
51
97.260319
0
ARC
8
DEFAULT_255_2_778
10
7.0006183
20
6.9544292
40
1.1539467
50
97.1952977
51
103.1991311
0
ARC
8
DEFAULT_255_2_778
10
7.0999311
20
6.5297831
40
1.5900514
50
103.1892974
51
108.8555683
0
ARC
8
DEFAULT_255_2_778
10
7.2767721
20
6.0081167
40
2.1408757
50
108.8223031
51
113.5989588
0
ARC
8
DEFAULT_255_2_778
10
7.5439473
20
5.394413
40
2.8102145
50
113.5815435
51
117.761224
0
ARC
8
DEFAULT_255_2_778
10
7.9183232
20
4.680803
40
3.6160652
50
117.7436855
51
121.3163518
0
ARC
8
DEFAULT_255_2_778
10
8.3602372
20
3.9497445
40
4.4703073
50
121.2850092
51
123.8435057
0
ARC
8
DEFAULT_255_2_778
10
4.8781683
20
3.6123519
40
4.1700756
50
76.2320582
51
90.1602538
0
ARC
8
DEFAULT_255_2_778
10
4.866529
20
3.3451765
40
4.4372347
50
90.0003116
51
92.001019
0
ARC
8
DEFAULT_255_2_778
10
4.8466227
20
3.5949338
40
4.1869495
50
91.8481195
51
105.105651
0
ARC
8
DEFAULT_255_2_778
10
1.1893307
20
3.8840059
40
4.546625
50
55.6384634
51
58.8403667
0
ARC
8
DEFAULT_255_2_778
10
1.6974755
20
4.7264752
40
3.5627735
50
58.8230017
51
62.6259075
0
ARC
8
DEFAULT_255_2_778
10
2.0757518
20
5.4583752
40
2.7388984
50
62.6131846
51
66.9145906
0
ARC
8
DEFAULT_255_2_778
10
2.3399998
20
6.0807864
40
2.0627169
50
66.8878759
51
71.9849121
0
ARC
8
DEFAULT_255_2_778
10
2.5086682
20
6.6013653
40
1.5154958
50
71.9622796
51
77.7267377
0
ARC
8
DEFAULT_255_2_778
10
2.6008024
20
7.0287029
40
1.07834
50
77.6835598
51
84.3468215
0
ARC
8
DEFAULT_255_2_778
10
2.6326074
20
7.3412485
40
0.764182
50
84.4114938
51
89.8509917
0
ARC
8
DEFAULT_255_2_778
10
2.6339866
20
7.5259662
40
0.579462
50
89.9398565
51
93.2373287
0
ARC
8
DEFAULT_255_2_778
10
2.6266877
20
7.6528376
40
0.4523809
50
93.2218109
51
96.6792979
0
ARC
8
DEFAULT_255_2_778
10
2.6153787
20
7.7519706
40
0.3526055
50
96.7277284
51
98.8062278
0
ARC
8
DEFAULT_255_2_778
10
2.6006442
20
7.8446673
40
0.2587461
50
98.7244062
51
102.0262184
0
ARC
8
DEFAULT_255_2_778
10
2.5758517
20
7.9599634
40
0.1408147
50
101.9345127
51
105.2934772
0
ARC
8
DEFAULT_255_2_778
10
2.5499661
20
8.0547412
40
0.0425657
50
105.333768
51
107.163701
0
ARC
8
DEFAULT_255_2_778
10
4.3933082
20
7.3514973
40
1.9994462
50
158.1572836
51
164.3355414
0
ARC
8
DEFAULT_255_2_778
10
4.232123
20
7.3970056
40
1.8319601
50
164.3448491
51
170.4072359
0
ARC
8
DEFAULT_255_2_778
10
4.1114643
20
7.4175416
40
1.7095662
50
170.4119854
51
176.4889139
0
ARC
8
DEFAULT_255_2_778
10
4.0331282
20
7.4229503
40
1.6310461
50
176.5100293
51
179.990285
0
ARC
8
DEFAULT_255_2_778
10
3.9644332
20
7.4225807
40
1.5623512
50
179.9763045
51
185.2432462
0
ARC
8
DEFAULT_255_2_778
10
3.8747602
20
7.4143262
40
1.4722991
50
185.2422652
51
189.9129143
0
ARC
8
DEFAULT_255_2_778
10
3.7642227
20
7.3948928
40
1.3600665
50
189.9081043
51
194.0244575
0
ARC
8
DEFAULT_255_2_778
10
3.6690174
20
7.3717705
40
1.2620959
50
194.0534502
51
195.3420693
0
ARC
8
DEFAULT_255_2_778
10
3.5765033
20
7.3458991
40
1.1660336
50
195.3188792
51
198.0244277
0
ARC
8
DEFAULT_255_2_778
10
3.4324766
20
7.2991169
40
1.0145995
50
198.0288719
51
200.1194774
0
ARC
8
DEFAULT_255_2_778
10
3.2741563
20
7.2410215
40
0.8459568
50
200.1132882
51
202.0372124
0
ARC
8
DEFAULT_255_2_778
10
3.7248704
20
5.7611496
40
1.6959392
50
136.7299202
51
179.9985039
0
ARC
8
DEFAULT_255_2_778
10
3.7285121
20
5.7612024
40
1.6995809
50
180.0002849
51
180.8189257
0
ARC
8
DEFAULT_255_2_778
10
5.7463321
20
5.7160647
40
3.7172857
50
179.6786846
51
187.6366807
0
ARC
8
DEFAULT_255_2_778
10
4.3758658
20
5.5298577
40
2.3342305
50
187.5769639
51
199.2544893
0
ARC
8
DEFAULT_255_2_778
10
1.7969258
20
-5.5456779
40
10.3126196
50
87.9145304
51
88.6514994
0
ARC
8
DEFAULT_255_2_778
10
1.7934786
20
-5.6843595
40
10.451344
50
88.6504985
51
89.3049319
0
ARC
8
DEFAULT_255_2_778
10
1.7934701
20
-5.6807909
40
10.4477756
50
89.3046482
51
89.9994418
0
ARC
8
DEFAULT_255_2_778
10
1.7922611
20
-5.4107832
40
10.1777681
50
89.9926209
51
91.8863862
0
ARC
8
DEFAULT_255_2_778
10
1.763092
20
-4.588461
40
9.3549315
50
91.87362
51
94.4104192
0
ARC
8
DEFAULT_255_2_778
10
1.634776
20
-3.0417095
40
7.8028978
50
94.3444045
51
99.0886973
0
ARC
8
DEFAULT_255_2_778
10
1.468685
20
-1.9247423
40
6.6737296
50
99.1954476
51
100.0067718
0
ARC
8
DEFAULT_255_2_778
10
1.4049216
20
-1.5660376
40
6.309402
50
100.002565
51
101.2834587
0
ARC
8
DEFAULT_255_2_778
10
1.4047293
20
-1.556253
40
6.2644879
50
99.9959672
51
101.2992745
0
ARC
8
DEFAULT_255_2_778
10
1.6080932
20
-2.8067503
40
7.531321
50
94.6306312
51
99.868287
0
ARC
8
DEFAULT_255_2_778
10
1.7549895
20
-4.4520785
40
9.1831478
50
92.125672
51
94.7154005
0
ARC
8
DEFAULT_255_2_778
10
1.7899948
20
-5.3313343
40
10.0630974
50
90.2396102
51
92.1391567
0
ARC
8
DEFAULT_255_2_778
10
1.7927269
20
-5.6210878
40
10.3528598
50
89.9997795
51
90.2480241
0
ARC
8
DEFAULT_255_2_778
10
1.7926188
20
-5.7056776
40
10.4374497
50
89.1379287
51
89.9991876
0
ARC
8
DEFAULT_255_2_778
10
1.792758
20
-5.7036562
40
10.4354264
50
88.4694421
51
89.138526
0
ARC
8
DEFAULT_255_2_778
10
1.7965683
20
-5.5652693
40
10.2969871
50
87.8414407
51
88.4700687
0
ARC
8
DEFAULT_255_2_778
10
3.8993814
20
5.3746449
40
1.834107
50
200.7642334
51
206.6068357
0
ARC
8
DEFAULT_255_2_778
10
2.5920158
20
-5.718529
40
10.2771207
50
91.854099
51
93.2328162
0
ARC
8
DEFAULT_255_2_778
10
2.6000314
20
-5.8807096
40
10.4394952
50
93.2265428
51
95.0301666
0
ARC
8
DEFAULT_255_2_778
10
2.5470046
20
-5.3056558
40
9.8620072
50
95.016213
51
97.5582208
0
ARC
8
DEFAULT_255_2_778
10
2.3484079
20
-3.8677401
40
8.410466
50
97.5055131
51
101.8817412
0
ARC
8
DEFAULT_255_2_778
10
2.0870198
20
-2.5790522
40
7.0955772
50
101.9588011
51
103.7550287
0
ARC
8
DEFAULT_255_2_778
10
1.9231188
20
-1.9104868
40
6.4072146
50
103.7529279
51
105.7354763
0
ARC
8
DEFAULT_255_2_778
10
1.9270837
20
-1.9282214
40
6.3901541
50
103.7317184
51
105.727015
0
ARC
8
DEFAULT_255_2_778
10
2.2406671
20
-3.2715742
40
7.7695612
50
98.626994
51
103.6265661
0
ARC
8
DEFAULT_255_2_778
10
2.5023194
20
-4.9204308
40
9.4390174
50
95.8155869
51
98.6959591
0
ARC
8
DEFAULT_255_2_778
10
2.5886913
20
-5.7351028
40
10.2582486
50
93.8534615
51
95.8344607
0
ARC
8
DEFAULT_255_2_778
10
2.5954337
20
-5.8142033
40
10.3376234
50
92.3576741
51
93.8612828
0
ARC
8
DEFAULT_255_2_778
10
2.5782328
20
-5.4072897
40
9.9303466
50
91.7336635
51
92.3550955
0
ARC
8
DEFAULT_255_2_778
10
3.6442587
20
5.2482269
40
1.5490904
50
208.103177
51
234.9548007
0
ARC
8
DEFAULT_255_2_778
10
3.8903241
20
5.5966385
40
1.9756316
50
234.9145493
51
247.0891087
0
ARC
8
DEFAULT_255_2_778
10
4.1941958
20
6.3063579
40
2.7476616
50
247.0139038
51
255.473177
0
ARC
8
DEFAULT_255_2_778
10
4.4804626
20
7.3951152
40
3.8734191
50
255.4137359
51
261.6094001
0
ARC
8
DEFAULT_255_2_778
10
4.6538517
20
8.4880805
40
4.9800011
50
261.4707982
51
263.9179154
0
ARC
8
DEFAULT_255_2_778
10
4.5800745
20
2.8607788
40
0.8136778
50
123.9038031
51
124.9759462
0
ARC
8
DEFAULT_255_2_778
10
4.561125
20
2.8858595
40
0.7822652
50
124.891724
51
144.0430498
0
ARC
8
DEFAULT_255_2_778
10
4.61793
20
2.8491438
40
0.8498129
50
144.2881094
51
161.6755823
0
ARC
8
DEFAULT_255_2_778
10
4.7824158
20
2.7899389
40
1.0245816
50
161.4245573
51
167.9514105
0
ARC
8
DEFAULT_255_2_778
10
3.263651
20
4.0859777
40
1.1992159
50
293.818332
51
295.5253089
0
ARC
8
DEFAULT_255_2_778
10
3.2376861
20
4.1445664
40
1.2633003
50
291.8489956
51
293.8225562
0
ARC
8
DEFAULT_255_2_778
10
3.231458
20
4.1598226
40
1.2797785
50
290.5617447
51
291.8536039
0
ARC
8
DEFAULT_255_2_778
10
3.2403028
20
4.1349725
40
1.2534051
50
285.6709953
51
290.5821507
0
ARC
8
DEFAULT_255_2_778
10
3.2754251
20
4.0049457
40
1.1187252
50
277.9461997
51
285.7378418
0
ARC
8
DEFAULT_255_2_778
10
3.2991461
20
3.8370627
40
0.949175
50
270.1043766
51
277.929021
0
ARC
8
DEFAULT_255_2_778
10
3.2987838
20
3.6956041
40
0.8077174
50
258.9524913
51
270.1483568
0
ARC
8
DEFAULT_255_2_778
10
3.2866102
20
3.6248647
40
0.735958
50
253.727033
51
258.8273602
0
ARC
8
DEFAULT_255_2_778
10
3.2791173
20
3.5996541
40
0.709658
50
237.8642936
51
253.7374026
0
ARC
8
DEFAULT_255_2_778
10
3.3140567
20
3.6527436
40
0.7731999
50
225.3318638
51
237.7645062
0
ARC
8
DEFAULT_255_2_778
10
3.4275283
20
3.7675792
40
0.9346403
50
215.6394296
51
225.3336644
0
ARC
8
DEFAULT_255_2_778
10
3.5945363
20
3.8897665
40
1.1415657
50
210.0795667
51
215.7392567
0
ARC
8
DEFAULT_255_2_778
10
2.3267268
20
3.1613649
40
0.3206254
50
29.1644074
51
31.2469522
0
ARC
8
DEFAULT_255_2_778
10
1.9960799
20
2.9622197
40
0.7066118
50
31.1448946
51
34.079596
0
ARC
8
DEFAULT_255_2_778
10
1.8091807
20
2.8363885
40
0.9319218
50
34.0484284
51
38.4264338
0
ARC
8
DEFAULT_255_2_778
10
1.7736185
20
2.8093889
40
0.9765625
50
38.3706654
51
45.0580615
0
ARC
8
DEFAULT_255_2_778
10
1.8059265
20
2.8410638
40
0.9313203
50
45.088425
51
46.9217299
0
ARC
8
DEFAULT_255_2_778
10
1.8712637
20
2.9149985
40
0.8326963
50
46.7308892
51
59.0933908
0
ARC
8
DEFAULT_255_2_778
10
1.9485847
20
3.0450657
40
0.6813828
50
59.0542186
51
77.2760245
0
ARC
8
DEFAULT_255_2_778
10
1.9593284
20
3.0817802
40
0.6432079
50
77.4892189
51
85.7402416
0
ARC
8
DEFAULT_255_2_778
10
2.0059715
20
3.6287589
40
0.094459
50
89.312546
51
89.6090437
0
ARC
8
DEFAULT_255_2_778
10
2.0052718
20
3.5275076
40
0.1957128
50
89.6064601
51
90.0238412
0
ARC
8
DEFAULT_255_2_778
10
2.0061987
20
3.2936039
40
0.4296177
50
90.1344741
51
92.3082342
0
ARC
8
DEFAULT_255_2_778
10
2.0087
20
3.2079613
40
0.5152924
50
92.2026055
51
96.749761
0
ARC
8
DEFAULT_255_2_778
10
1.9944282
20
3.327292
40
0.3951113
50
96.7283605
51
101.1288456
0
ARC
8
DEFAULT_255_2_778
10
1.9409379
20
3.5574456
40
0.1591653
50
98.2257914
51
126.4191262
0
ARC
8
DEFAULT_255_2_778
10
1.8754942
20
3.6495121
40
0.0462699
50
128.8921467
51
179.5129561
0
ARC
8
DEFAULT_255_2_778
10
1.9042881
20
3.6531803
40
0.0751335
50
182.498165
51
212.4623367
0
ARC
8
DEFAULT_255_2_778
10
2.0167255
20
3.7186339
40
0.2051979
50
211.0314254
51
223.9785693
0
ARC
8
DEFAULT_255_2_778
10
2.203446
20
3.893847
40
0.4612418
50
223.5346738
51
230.6663808
0
ARC
8
DEFAULT_255_2_778
10
2.470704
20
4.2158776
40
0.8797235
50
230.4969475
51
234.9702971
0
ARC
8
DEFAULT_255_2_778
10
2.6811284
20
4.5087121
40
1.2403033
50
234.7753695
51
235.6171752
0
ARC
8
DEFAULT_255_2_778
10
1.8802823
20
3.2825837
40
0.2260577
50
58.6487652
51
63.6256429
0
ARC
8
DEFAULT_255_2_778
10
1.7201353
20
3.0155066
40
0.5374661
50
52.3003405
51
58.8823515
0
ARC
8
DEFAULT_255_2_778
10
1.5608412
20
2.8077411
40
0.7992683
50
44.8471624
51
52.3731259
0
ARC
8
DEFAULT_255_2_778
10
1.3948251
20
2.6417365
40
1.0340418
50
37.0717193
51
44.8814163
0
ARC
8
DEFAULT_255_2_778
10
1.2382993
20
2.5209304
40
1.2317563
50
32.3697622
51
37.1662824
0
ARC
8
DEFAULT_255_2_778
10
1.1016042
20
2.4339628
40
1.3937712
50
28.164178
51
32.3808517
0
ARC
8
DEFAULT_255_2_778
10
0.9458987
20
2.3505996
40
1.5703884
50
24.0345587
51
28.1641752
0
ARC
8
DEFAULT_255_2_778
10
0.7885412
20
2.2797031
40
1.7429785
50
21.2777367
51
24.0562551
0
ARC
8
DEFAULT_255_2_778
10
2.6341168
20
2.9807406
40
0.2317748
50
197.1978628
51
199.7921959
0
ARC
8
DEFAULT_255_2_778
10
2.9158012
20
3.0809145
40
0.5307403
50
199.6707709
51
203.2872061
0
ARC
8
DEFAULT_255_2_778
10
3.1007956
20
3.1599296
40
0.731902
50
203.2435554
51
207.9253237
0
ARC
8
DEFAULT_255_2_778
10
3.1921834
20
3.2079102
40
0.8351188
50
207.8975302
51
214.1136651
0
ARC
8
DEFAULT_255_2_778
10
3.2175296
20
3.2246344
40
0.8654831
50
214.0892578
51
222.1542754
0
ARC
8
DEFAULT_255_2_778
10
3.2175839
20
3.2246321
40
0.8655219
50
222.151749
51
223.8034286
0
ARC
8
DEFAULT_255_2_778
10
3.2177366
20
3.2248188
40
0.8657615
50
223.8053534
51
234.1108682
0
ARC
8
DEFAULT_255_2_778
10
3.2334364
20
3.2474652
40
0.8933122
50
234.1465623
51
244.7878146
0
ARC
8
DEFAULT_255_2_778
10
3.2700036
20
3.3263684
40
0.9802754
50
244.8186054
51
254.6097201
0
ARC
8
DEFAULT_255_2_778
10
3.31233
20
3.4814755
40
1.1410535
50
254.6275828
51
263.4641535
0
ARC
8
DEFAULT_255_2_778
10
3.3390787
20
3.707482
40
1.3686362
50
263.4285804
51
270.1022613
0
ARC
8
DEFAULT_255_2_778
10
3.3406632
20
3.925241
40
1.5863932
50
270.0309981
51
273.4282027
0
ARC
8
DEFAULT_255_2_778
10
3.3290188
20
4.1185723
40
1.7800749
50
273.4302229
51
276.7604248
0
ARC
8
DEFAULT_255_2_778
10
3.3023318
20
4.3447303
40
2.0078021
50
276.7569604
51
279.76466
0
ARC
8
DEFAULT_255_2_778
10
3.2580166
20
4.6023627
40
2.2692179
50
279.7641114
51
282.6019055
0
ARC
8
DEFAULT_255_2_778
10
3.4996415
20
1.6150416
40
0.2546572
50
350.7239066
51
354.4496765
0
ARC
8
DEFAULT_255_2_778
10
3.2650299
20
1.6517709
40
0.4921238
50
344.6137672
51
350.9065221
0
ARC
8
DEFAULT_255_2_778
10
3.2294117
20
1.6599658
40
0.5286421
50
333.5531064
51
344.7816799
0
ARC
8
DEFAULT_255_2_778
10
3.2740854
20
1.6385862
40
0.4791224
50
328.3833652
51
333.4629235
0
ARC
8
DEFAULT_255_2_778
10
3.3227443
20
1.6065709
40
0.420906
50
309.6794726
51
328.6222441
0
ARC
8
DEFAULT_255_2_778
10
3.3347056
20
1.5956173
40
0.4048447
50
290.6923521
51
309.3664193
0
ARC
8
DEFAULT_255_2_778
10
3.3208835
20
1.6279405
40
0.4399693
50
289.9643861
51
290.8888722
0
ARC
8
DEFAULT_255_2_778
10
3.5650163
20
1.0819924
40
0.1623395
50
125.3442986
51
128.6165143
0
ARC
8
DEFAULT_255_2_778
10
3.6106323
20
1.0230034
40
0.236902
50
128.3326402
51
136.4869241
0
ARC
8
DEFAULT_255_2_778
10
3.5074281
20
1.1113581
40
0.101463
50
132.5411918
51
173.8499699
0
ARC
8
DEFAULT_255_2_778
10
3.4567436
20
1.1221699
40
0.0501947
50
179.93356
51
190.5681533
0
ARC
8
DEFAULT_255_2_778
10
3.4664622
20
1.1259983
40
0.0604831
50
192.4450871
51
232.5714382
0
ARC
8
DEFAULT_255_2_778
10
3.5233734
20
1.1942184
40
0.1492933
50
231.1392198
51
247.8127624
0
ARC
8
DEFAULT_255_2_778
10
3.5716605
20
1.2994544
40
0.2650186
50
246.7379923
51
250.387425
0
ARC
8
DEFAULT_255_2_778
10
3.4967367
20
1.2275312
40
0.1782731
50
265.4855845
51
266.1472882
0
ARC
8
DEFAULT_255_2_778
10
3.512371
20
1.4545742
40
0.4058537
50
266.0987907
51
266.7672683
0
ARC
8
DEFAULT_255_2_778
10
3.5233313
20
1.6469384
40
0.5985298
50
266.7581625
51
267.4583508
0
ARC
8
DEFAULT_255_2_778
10
3.5306038
20
1.8114666
40
0.7632188
50
267.460664
51
268.358898
0
ARC
8
DEFAULT_255_2_778
10
3.534354
20
1.9393402
40
0.8911473
50
268.3533311
51
269.1537018
0
ARC
8
DEFAULT_255_2_778
10
3.5356279
20
2.0238604
40
0.975677
50
269.152211
51
270.0060643
0
ARC
8
DEFAULT_255_2_778
10
3.5351914
20
2.1317785
40
1.0835952
50
270.0285419
51
273.1455043
0
ARC
8
DEFAULT_255_2_778
10
3.5353264
20
2.1413051
40
1.0931003
50
273.111042
51
277.5295611
0
ARC
8
DEFAULT_255_2_778
10
3.5574855
20
1.9883952
40
0.9386071
50
277.4116825
51
285.5887975
0
ARC
8
DEFAULT_255_2_778
10
3.5942243
20
1.847813
40
0.793327
50
285.7615145
51
288.1389546
0
ARC
8
DEFAULT_255_2_778
10
3.6897742
20
1.6079462
40
0.5358762
50
286.4145502
51
320.3933476
0
ARC
8
DEFAULT_255_2_778
10
3.7549493
20
1.5357713
40
0.4398748
50
322.224567
51
344.6945501
0
ARC
8
DEFAULT_255_2_778
10
3.6239409
20
1.5714179
40
0.5756462
50
344.7143978
51
359.0810683
0
ARC
8
DEFAULT_255_2_778
10
3.4913785
20
1.5786685
40
0.7083263
50
358.6666131
51
0.0034516
0
ARC
8
DEFAULT_255_2_778
10
4.429539
20
2.4665263
40
0.2305469
50
183.7559777
51
184.5066352
0
ARC
8
DEFAULT_255_2_778
10
4.7278769
20
2.4865209
40
0.529554
50
182.9046393
51
183.8001602
0
ARC
8
DEFAULT_255_2_778
10
4.8696747
20
2.4941413
40
0.6715559
50
182.6133695
51
182.9409117
0
ARC
8
DEFAULT_255_2_778
10
5.0230484
20
2.5008672
40
0.8250768
50
181.3694308
51
182.5943206
0
ARC
8
DEFAULT_255_2_778
10
5.1566092
20
2.504202
40
0.9586792
50
179.9897975
51
181.3779108
0
ARC
8
DEFAULT_255_2_778
10
5.2098094
20
2.5043283
40
1.0118796
50
176.366532
51
179.9974859
0
ARC
8
DEFAULT_255_2_778
10
5.0475951
20
2.5171915
40
0.8491799
50
168.6883392
51
176.5390794
0
ARC
8
DEFAULT_255_2_778
10
4.8765474
20
2.5483372
40
0.6753525
50
166.9267627
51
168.4330096
0
ARC
8
DEFAULT_255_2_778
10
4.5780482
20
2.6377447
40
0.3648915
50
133.2022838
51
170.0012718
0
ARC
8
DEFAULT_255_2_778
10
4.4681599
20
2.7334578
40
0.2203782
50
125.3024892
51
129.409077
0
ARC
8
DEFAULT_255_2_778
10
3.8954021
20
1.5018269
40
0.4457709
50
356.0188855
51
357.6709155
0
ARC
8
DEFAULT_255_2_778
10
3.4000036
20
1.5353075
40
0.9422991
50
353.1166672
51
356.0793565
0
ARC
8
DEFAULT_255_2_778
10
3.2748457
20
1.5488058
40
1.0681739
50
347.9555738
51
353.2024319
0
ARC
8
DEFAULT_255_2_778
10
3.466904
20
1.5062907
40
0.8714733
50
341.1088767
51
348.0543503
0
ARC
8
DEFAULT_255_2_778
10
3.8773719
20
1.3461544
40
0.4316691
50
309.6132172
51
343.5801685
0
ARC
8
DEFAULT_255_2_778
10
4.2777373
20
0.9453961
40
0.1425182
50
151.4032958
51
153.5383106
0
ARC
8
DEFAULT_255_2_778
10
4.3880378
20
0.8899328
40
0.2659778
50
153.4300179
51
157.4487953
0
ARC
8
DEFAULT_255_2_778
10
4.3956274
20
0.8865157
40
0.2742975
50
157.3976051
51
159.1417972
0
ARC
8
DEFAULT_255_2_778
10
4.3244333
20
0.9108997
40
0.1991036
50
158.4041751
51
173.8841253
0
ARC
8
DEFAULT_255_2_778
10
4.2455953
20
0.9216818
40
0.1195882
50
174.9963754
51
179.9181799
0
ARC
8
DEFAULT_255_2_778
10
4.1883129
20
0.9168073
40
0.0625095
50
175.3704494
51
253.4333682
0
ARC
8
DEFAULT_255_2_778
10
4.2119191
20
0.9896477
40
0.1390695
50
252.6681494
51
271.2815461
0
ARC
8
DEFAULT_255_2_778
10
4.2138255
20
1.1212514
40
0.2706409
50
270.2548699
51
276.7570511
0
ARC
8
DEFAULT_255_2_778
10
4.1969542
20
1.2674458
40
0.4178052
50
276.695749
51
281.5682672
0
ARC
8
DEFAULT_255_2_778
10
4.1721534
20
1.3955853
40
0.5483168
50
281.422029
51
282.8077932
0
ARC
8
DEFAULT_255_2_778
10
4.2563548
20
1.1012856
40
0.2432589
50
278.8321512
51
281.897718
0
ARC
8
DEFAULT_255_2_778
10
4.1998696
20
1.3754305
40
0.5231611
50
281.7611001
51
286.4927216
0
ARC
8
DEFAULT_255_2_778
10
4.1629877
20
1.5029884
40
0.6559419
50
286.4186124
51
293.1434193
0
ARC
8
DEFAULT_255_2_778
10
4.1613021
20
1.5091999
40
0.6623166
50
293.066305
51
303.5020813
0
ARC
8
DEFAULT_255_2_778
10
4.1767788
20
1.4846984
40
0.6333434
50
303.5580378
51
306.4028402
0
ARC
8
DEFAULT_255_2_778
10
4.1950695
20
1.4612988
40
0.6036557
50
306.3236087
51
321.6898666
0
ARC
8
DEFAULT_255_2_778
10
4.1859942
20
1.4664444
40
0.6139687
50
321.8380911
51
337.2148714
0
ARC
8
DEFAULT_255_2_778
10
4.0841564
20
1.5083412
40
0.7240858
50
337.2791259
51
349.9275387
0
ARC
8
DEFAULT_255_2_778
10
3.9031524
20
1.5421972
40
0.9082227
50
349.8216979
51
357.7986547
0
ARC
8
DEFAULT_255_2_778
10
5.8337785
20
1.5392286
40
0.8831689
50
182.1035604
51
192.3649775
0
ARC
8
DEFAULT_255_2_778
10
5.6503986
20
1.4989269
40
0.6954125
50
192.3568887
51
205.299421
0
ARC
8
DEFAULT_255_2_778
10
5.568323
20
1.4610655
40
0.6050297
50
205.3794344
51
220.9154446
0
ARC
8
DEFAULT_255_2_778
10
5.5683593
20
1.4626161
40
0.6060735
50
221.0239727
51
233.6666451
0
ARC
8
DEFAULT_255_2_778
10
5.595921
20
1.500414
40
0.6528527
50
233.6834322
51
245.1138917
0
ARC
8
DEFAULT_255_2_778
10
5.602287
20
1.5118804
40
0.6659339
50
245.0321867
51
252.4274175
0
ARC
8
DEFAULT_255_2_778
10
5.5716753
20
1.4129156
40
0.5623457
50
252.3565469
51
257.4448132
0
ARC
8
DEFAULT_255_2_778
10
5.5197231
20
1.1782281
40
0.321977
50
257.3902637
51
260.5680765
0
ARC
8
DEFAULT_255_2_778
10
5.4804081
20
0.9434717
40
0.0839522
50
260.7815002
51
261.6419086
0
ARC
8
DEFAULT_255_2_778
10
5.5754607
20
1.3270126
40
0.47877
50
257.054518
51
261.5562823
0
ARC
8
DEFAULT_255_2_778
10
5.5510842
20
1.1601581
40
0.3101451
50
261.4845586
51
267.6872302
0
ARC
8
DEFAULT_255_2_778
10
5.5469483
20
1.0802449
40
0.2301319
50
267.9132119
51
269.9750197
0
ARC
8
DEFAULT_255_2_778
10
5.5507575
20
0.980969
40
0.1309143
50
268.2887213
51
290.3500956
0
ARC
8
DEFAULT_255_2_778
10
5.5736773
20
0.9163195
40
0.0623373
50
291.2627677
51
4.606461
0
ARC
8
DEFAULT_255_2_778
10
5.5161402
20
0.921153
40
0.1196731
50
0.08279
51
5.0139202
0
ARC
8
DEFAULT_255_2_778
10
5.437305
20
0.9103545
40
0.1991879
50
6.1263727
51
21.5969605
0
ARC
8
DEFAULT_255_2_778
10
5.3650352
20
0.8855446
40
0.2755385
50
20.862378
51
25.6780554
0
ARC
8
DEFAULT_255_2_778
10
5.4379684
20
0.9209421
40
0.19447
50
25.5900051
51
28.1075214
0
ARC
8
DEFAULT_255_2_778
10
5.5647747
20
0.988565
40
0.0507598
50
28.2138513
51
28.9191986
0
ARC
8
DEFAULT_255_2_778
10
5.8848235
20
1.3456211
40
0.4318894
50
196.3992009
51
230.3445417
0
ARC
8
DEFAULT_255_2_778
10
6.3500667
20
1.5214235
40
0.9285891
50
189.2288112
51
198.7012571
0
ARC
8
DEFAULT_255_2_778
10
6.4920439
20
1.5492496
40
1.0732013
50
185.6074902
51
189.4795166
0
ARC
8
DEFAULT_255_2_778
10
6.2083006
20
1.5224761
40
0.7882004
50
183.1552916
51
185.6860002
0
ARC
8
DEFAULT_255_2_778
10
5.6897416
20
1.4935504
40
0.2688357
50
182.2041045
51
183.0830202
0
ARC
8
DEFAULT_255_2_778
10
5.1838059
20
2.6232082
40
0.3640654
50
12.2613751
51
49.3223239
0
ARC
8
DEFAULT_255_2_778
10
4.8293619
20
2.5165378
40
0.7336499
50
4.7045553
51
14.5239038
0
ARC
8
DEFAULT_255_2_778
10
4.6639474
20
2.4992348
40
0.8999337
50
0.5260104
51
4.9387057
0
ARC
8
DEFAULT_255_2_778
10
4.6740202
20
2.4992299
40
0.8898614
50
0.0021957
51
0.5322848
0
ARC
8
DEFAULT_255_2_778
10
4.7191015
20
2.4991021
40
0.8447799
50
358.5310772
51
0.0109798
0
ARC
8
DEFAULT_255_2_778
10
4.8427889
20
2.4958323
40
0.7210494
50
357.2254598
51
358.538862
0
ARC
8
DEFAULT_255_2_778
10
5.049567
20
2.4856523
40
0.514021
50
356.0748932
51
357.2431608
0
ARC
8
DEFAULT_255_2_778
10
5.334044
20
2.4659724
40
0.2288643
50
355.201101
51
356.1150986
0
ARC
8
DEFAULT_255_2_778
10
6.1611667
20
1.5733801
40
0.5990775
50
179.5857724
51
193.4091919
0
ARC
8
DEFAULT_255_2_778
10
6.0141871
20
1.5381977
40
0.4479459
50
193.3915218
51
214.7094651
0
ARC
8
DEFAULT_255_2_778
10
6.0566345
20
1.5856132
40
0.510054
50
216.3730917
51
251.1189098
0
ARC
8
DEFAULT_255_2_778
10
6.1503618
20
1.7944375
40
0.7382743
50
249.4805875
51
251.8556988
0
ARC
8
DEFAULT_255_2_778
10
6.1942149
20
1.9401311
40
0.8903874
50
252.0936668
51
261.4895297
0
ARC
8
DEFAULT_255_2_778
10
6.2245211
20
2.1228995
40
1.0756325
50
261.3337499
51
266.2367636
0
ARC
8
DEFAULT_255_2_778
10
6.2268683
20
2.1478208
40
1.1006544
50
266.1999882
51
269.1239993
0
ARC
8
DEFAULT_255_2_778
10
6.2257619
20
2.0891472
40
1.0419708
50
269.1355033
51
269.9951431
0
ARC
8
DEFAULT_255_2_778
10
6.2258506
20
2.0094418
40
0.9622654
50
269.9894623
51
271.1694018
0
ARC
8
DEFAULT_255_2_778
10
6.2286692
20
1.8738453
40
0.8266395
50
271.1658848
51
272.2133758
0
ARC
8
DEFAULT_255_2_778
10
6.2327654
20
1.7628447
40
0.7155636
50
272.2288917
51
272.5571913
0
ARC
8
DEFAULT_255_2_778
10
6.2389886
20
1.6275686
40
0.5801444
50
272.539274
51
273.377764
0
ARC
8
DEFAULT_255_2_778
10
6.2514409
20
1.4168483
40
0.3690565
50
273.3754025
51
274.0289242
0
ARC
8
DEFAULT_255_2_778
10
6.2674331
20
1.191284
40
0.142926
50
273.9870221
51
274.563498
0
ARC
8
DEFAULT_255_2_778
10
6.2139313
20
1.2397217
40
0.2016319
50
288.7683263
51
301.9418135
0
ARC
8
DEFAULT_255_2_778
10
6.2787282
20
1.1387741
40
0.0817032
50
300.834735
51
329.0018139
0
ARC
8
DEFAULT_255_2_778
10
6.304518
20
1.1214526
40
0.0507002
50
330.7714258
51
349.2508732
0
ARC
8
DEFAULT_255_2_778
10
6.3050474
20
1.1211881
40
0.050131
50
349.4350566
51
0.0666329
0
ARC
8
DEFAULT_255_2_778
10
6.2544289
20
1.1103898
40
0.1013327
50
6.1503684
51
47.4591711
0
ARC
8
DEFAULT_255_2_778
10
6.1515261
20
1.0223315
40
0.2363494
50
43.5092625
51
51.5144192
0
ARC
8
DEFAULT_255_2_778
10
6.1938485
20
1.0769167
40
0.1672862
50
51.2264312
51
54.6169698
0
ARC
8
DEFAULT_255_2_778
10
6.4297621
20
1.5981322
40
0.4091749
50
231.9150121
51
250.1323946
0
ARC
8
DEFAULT_255_2_778
10
6.4370022
20
1.603737
40
0.4180584
50
212.5452575
51
231.6078162
0
ARC
8
DEFAULT_255_2_778
10
6.4712501
20
1.6279801
40
0.4599745
50
211.7326034
51
212.795863
0
ARC
8
DEFAULT_255_2_778
10
6.5126923
20
1.6513612
40
0.5075225
50
197.9408219
51
211.5168846
0
ARC
8
DEFAULT_255_2_778
10
6.5278586
20
1.6582105
40
0.5240642
50
190.8658444
51
198.1424861
0
ARC
8
DEFAULT_255_2_778
10
6.3627336
20
1.627438
40
0.3560999
50
186.4769737
51
191.0117633
0
ARC
8
DEFAULT_255_2_778
10
6.1104615
20
1.5983221
40
0.1021548
50
185.060552
51
186.2117913
0
ARC
8
DEFAULT_255_2_778
10
4.6872385
20
2.7369673
40
1.321488
50
359.6723853
51
10.894598
0
ARC
8
DEFAULT_255_2_778
10
5.0434883
20
2.8065542
40
0.9585075
50
10.8347939
51
26.2398862
0
ARC
8
DEFAULT_255_2_778
10
5.1922458
20
2.8777242
40
0.7936152
50
26.3795274
51
45.6214775
0
ARC
8
DEFAULT_255_2_778
10
5.1925351
20
2.8759427
40
0.7946875
50
45.726224
51
54.7572114
0
ARC
8
DEFAULT_255_2_778
10
5.1794357
20
2.8582132
40
0.8167265
50
54.7243915
51
55.7999298
0
ARC
8
DEFAULT_255_2_778
10
5.162899
20
8.4416403
40
4.9309198
50
275.5349993
51
280.1848577
0
ARC
8
DEFAULT_255_2_778
10
5.4339858
20
6.9490014
40
3.4138675
50
280.1365258
51
286.4148746
0
ARC
8
DEFAULT_255_2_778
10
5.7402174
20
5.9201131
40
2.3403797
50
286.3415351
51
295.1852347
0
ARC
8
DEFAULT_255_2_778
10
6.0433446
20
5.2823045
40
1.6342112
50
295.0837687
51
308.5435974
0
ARC
8
DEFAULT_255_2_778
10
6.2195089
20
5.0512451
40
1.3437364
50
308.8075894
51
336.6941926
0
ARC
8
DEFAULT_255_2_778
10
7.1803162
20
-5.484853
40
10.0081961
50
87.1681682
51
88.4352592
0
ARC
8
DEFAULT_255_2_778
10
7.1623194
20
-5.8677769
40
10.3915416
50
85.4601564
51
87.1733701
0
ARC
8
DEFAULT_255_2_778
10
7.1923904
20
-5.5126782
40
10.035177
50
83.2052266
51
85.4708316
0
ARC
8
DEFAULT_255_2_778
10
7.3313345
20
-4.3859486
40
8.8999236
50
79.7431747
51
83.2352331
0
ARC
8
DEFAULT_255_2_778
10
7.5948609
20
-2.926588
40
7.4169606
50
76.3007016
51
79.7390048
0
ARC
8
DEFAULT_255_2_778
10
7.8346068
20
-1.924599
40
6.3866996
50
74.2631477
51
76.261483
0
ARC
8
DEFAULT_255_2_778
10
7.8378181
20
-1.9136472
40
6.4104933
50
74.2646765
51
76.2386536
0
ARC
8
DEFAULT_255_2_778
10
7.5204322
20
-3.2720982
40
7.8054633
50
76.3478104
51
81.4140268
0
ARC
8
DEFAULT_255_2_778
10
7.2542084
20
-4.9564697
40
9.5107108
50
81.3430911
51
84.2475314
0
ARC
8
DEFAULT_255_2_778
10
7.1661567
20
-5.7959147
40
10.3547546
50
84.2283313
51
86.2157806
0
ARC
8
DEFAULT_255_2_778
10
7.1582319
20
-5.894153
40
10.4533019
50
86.2079761
51
87.7063535
0
ARC
8
DEFAULT_255_2_778
10
7.1742667
20
-5.5042136
40
10.0630332
50
87.7087232
51
88.3233216
0
ARC
8
DEFAULT_255_2_778
10
5.8295201
20
5.2265581
40
1.771602
50
337.7069339
51
343.470155
0
ARC
8
DEFAULT_255_2_778
10
7.9567324
20
-5.100544
40
9.832411
50
91.9200559
51
92.4996721
0
ARC
8
DEFAULT_255_2_778
10
7.967539
20
-5.4235996
40
10.1556473
50
91.1166104
51
91.9199239
0
ARC
8
DEFAULT_255_2_778
10
7.9704567
20
-5.5627356
40
10.2948137
50
90.2892072
51
91.1177555
0
ARC
8
DEFAULT_255_2_778
10
7.9704708
20
-5.5642025
40
10.2962807
50
90.0002191
51
90.2892445
0
ARC
8
DEFAULT_255_2_778
10
7.9715758
20
-5.3462138
40
10.078292
50
88.1086309
51
90.0065056
0
ARC
8
DEFAULT_255_2_778
10
7.999377
20
-4.567187
40
9.2987724
50
85.5899273
51
88.121414
0
ARC
8
DEFAULT_255_2_778
10
8.1251048
20
-3.0522015
40
7.7786096
50
80.9361251
51
85.6552016
0
ARC
8
DEFAULT_255_2_778
10
8.2891192
20
-1.9464737
40
6.6608616
50
80.0250226
51
80.8309679
0
ARC
8
DEFAULT_255_2_778
10
8.3533427
20
-1.5841379
40
6.2928783
50
78.7120992
51
80.0294798
0
LINE
8
DEFAULT_255_2_778
10
9.5877048
20
4.5868112
11
9.5946048
21
4.6214112
0
LINE
8
DEFAULT_255_2_778
10
0.1704048
20
4.6214112
11
0.1773048
21
4.5868112
0
LINE
8
DEFAULT_255_2_778
10
0.1855048
20
4.2566112
11
0.1950048
21
4.2227112
0
LINE
8
DEFAULT_255_2_778
10
3.7531048
20
2.3878112
11
3.7531048
21
1.5904112
0
LINE
8
DEFAULT_255_2_778
10
4.1997048
20
1.5787112
11
4.1997048
21
2.4484112
0
LINE
8
DEFAULT_255_2_778
10
4.3408048
20
2.9133112
11
4.3408048
21
1.4837112
0
LINE
8
DEFAULT_255_2_778
10
4.8107048
20
1.5073112
11
4.8218048
21
2.9527112
0
LINE
8
DEFAULT_255_2_778
10
4.8218048
20
2.9527112
11
4.9403048
21
2.9527112
0
LINE
8
DEFAULT_255_2_778
10
4.9403048
20
2.9527112
11
4.9512048
21
1.5068112
0
LINE
8
DEFAULT_255_2_778
10
5.4211048
20
1.4832112
11
5.4211048
21
2.8993112
0
LINE
8
DEFAULT_255_2_778
10
5.5621048
20
2.4468112
11
5.5621048
21
1.5777112
0
LINE
8
DEFAULT_255_2_778
10
6.0087048
20
1.5893112
11
6.0087048
21
2.7294112
0
LINE
8
DEFAULT_255_2_778
10
9.5668048
20
4.2227112
11
9.5763048
21
4.2566112
0
ARC
8
DEFAULT_255_2_778
10
5.8063487
20
4.8628646
40
1.1993777
50
27.7859095
51
48.5870386
0
ARC
8
DEFAULT_255_2_778
10
6.1111421
20
5.0275086
40
0.8529839
50
0.2917291
51
27.5458016
0
ARC
8
DEFAULT_255_2_778
10
4.9091112
20
5.0214947
40
2.0550299
50
351.908232
51
0.2887605
0
ARC
8
DEFAULT_255_2_778
10
5.6222016
20
4.9162735
40
1.3342335
50
338.9574456
51
352.0714013
0
ARC
8
DEFAULT_255_2_778
10
6.0051077
20
4.7664414
40
0.923066
50
314.5214861
51
339.1035435
0
ARC
8
DEFAULT_255_2_778
10
5.899726
20
4.915252
40
1.1034439
50
286.1020958
51
313.0047687
0
ARC
8
DEFAULT_255_2_778
10
5.538952
20
6.0485378
40
2.2925581
50
276.4009533
51
286.9094621
0
ARC
8
DEFAULT_255_2_778
10
5.2154855
20
8.7622559
40
5.0254565
50
271.4955621
51
276.6165484
0
ARC
8
DEFAULT_255_2_778
10
4.9212977
20
19.0935996
40
15.3609783
50
269.7639573
51
271.5867387
0
ARC
8
DEFAULT_255_2_778
10
4.8217311
20
11.2143125
40
7.4816488
50
265.8589647
51
270.2778688
0
ARC
8
DEFAULT_255_2_778
10
4.5450773
20
7.4426697
40
3.6998766
50
258.5795709
51
265.9143184
0
ARC
8
DEFAULT_255_2_778
10
4.1968982
20
5.7537315
40
1.9754483
50
246.1365456
51
258.7786564
0
ARC
8
DEFAULT_255_2_778
10
3.7851331
20
4.8881041
40
1.0175802
50
200.2222705
51
247.6213522
0
ARC
8
DEFAULT_255_2_778
10
4.0574407
20
4.9729121
40
1.3024986
50
185.1516401
51
199.5823773
0
ARC
8
DEFAULT_255_2_778
10
4.5423361
20
5.0280692
40
1.7904242
50
179.8949574
51
185.5162841
0
ARC
8
DEFAULT_255_2_778
10
3.6650572
20
5.0149765
40
0.913289
50
139.9605317
51
178.9726422
0
ARC
8
DEFAULT_255_2_778
10
4.0091
20
4.7682513
40
1.3358047
50
132.2172291
51
141.3518691
0
ARC
8
DEFAULT_255_2_778
10
3.6327388
20
5.1628698
40
0.7907723
50
97.8964454
51
131.2337606
0
ARC
8
DEFAULT_255_2_778
10
3.7983202
20
4.265551
40
1.702818
50
90.4029711
51
99.2672092
0
ARC
8
DEFAULT_255_2_778
10
3.8285383
20
3.2827235
40
2.6859347
50
89.9900231
51
90.9001131
0
ARC
8
DEFAULT_255_2_778
10
3.8154245
20
1.9063693
40
4.0623115
50
86.8996345
51
89.8084441
0
ARC
8
DEFAULT_255_2_778
10
3.4248616
20
-5.4541873
40
11.4332211
50
85.885483
51
86.9402555
0
ARC
8
DEFAULT_255_2_778
10
-9.4172167
20
-189.5989727
40
196.0252346
50
85.9822342
51
86.0034033
0
ARC
8
DEFAULT_255_2_778
10
5.2868063
20
19.2866556
40
13.3773184
50
265.8445333
51
266.9813112
0
ARC
8
DEFAULT_255_2_778
10
4.8704768
20
11.4138631
40
5.4935255
50
266.9933814
51
269.8700269
0
ARC
8
DEFAULT_255_2_778
10
4.8455073
20
11.3067851
40
5.386448
50
270.1330445
51
273.0801826
0
ARC
8
DEFAULT_255_2_778
10
4.4282728
20
19.0077174
40
13.0986746
50
273.0925797
51
274.2585568
0
ARC
8
DEFAULT_255_2_778
10
6.7553668
20
-12.1870706
40
18.1827925
50
93.4976139
51
94.271869
0
ARC
8
DEFAULT_255_2_778
10
5.9228393
20
1.4465639
40
4.5237628
50
90.7770952
51
93.5073661
0
ARC
8
DEFAULT_255_2_778
10
5.8914111
20
3.0166912
40
2.953371
50
90.0053109
51
90.5805613
0
ARC
8
DEFAULT_255_2_778
10
5.9066361
20
4.0954765
40
1.8746497
50
82.4399722
51
90.4737008
0
ARC
8
DEFAULT_255_2_778
10
6.0366734
20
5.022129
40
0.9389697
50
64.3620139
51
82.8666303
0
ARC
8
DEFAULT_255_2_778
10
6.135388
20
5.2487569
40
0.6920013
50
47.8563662
51
63.6116501
0
ARC
8
DEFAULT_255_2_778
10
3.3173069
20
4.9603675
40
0.8406326
50
336.7397469
51
0.4362034
0
ARC
8
DEFAULT_255_2_778
10
3.5812646
20
4.8396736
40
0.5505064
50
307.6205684
51
337.4313607
0
ARC
8
DEFAULT_255_2_778
10
3.7159972
20
4.6696504
40
0.333604
50
270.6385699
51
307.1172289
0
ARC
8
DEFAULT_255_2_778
10
3.7348639
20
4.7096124
40
0.3738521
50
215.0655196
51
267.6777116
0
ARC
8
DEFAULT_255_2_778
10
3.9878031
20
4.9168156
40
0.7003435
50
191.8249723
51
217.0521327
0
ARC
8
DEFAULT_255_2_778
10
4.1685849
20
4.9652338
40
0.887271
50
179.9009672
51
192.4929751
0
ARC
8
DEFAULT_255_2_778
10
4.1216571
20
4.9731598
40
0.8403661
50
156.7259344
51
180.4358366
0
ARC
8
DEFAULT_255_2_778
10
3.8581693
20
5.0937205
40
0.5507224
50
127.6091548
51
157.4165816
0
ARC
8
DEFAULT_255_2_778
10
3.7234493
20
5.2638224
40
0.3337659
50
90.6410264
51
127.1086264
0
ARC
8
DEFAULT_255_2_778
10
3.7045998
20
5.2242664
40
0.3736069
50
35.0443602
51
87.681287
0
ARC
8
DEFAULT_255_2_778
10
3.451243
20
5.016924
40
0.7005108
50
11.8089619
51
37.0300574
0
ARC
8
DEFAULT_255_2_778
10
3.2695205
20
4.9683139
40
0.8883961
50
359.9002596
51
12.4791894
0
ARC
8
DEFAULT_255_2_778
10
3.4753106
20
4.9521045
40
0.5419304
50
331.4792772
51
0.7139636
0
ARC
8
DEFAULT_255_2_778
10
3.689958
20
4.8247288
40
0.2926647
50
286.5239167
51
333.325511
0
ARC
8
DEFAULT_255_2_778
10
3.7250681
20
4.7447191
40
0.2062618
50
270.0085756
51
283.4935432
0
ARC
8
DEFAULT_255_2_778
10
3.7399376
20
4.7995391
40
0.2615031
50
209.0824982
51
266.747085
0
ARC
8
DEFAULT_255_2_778
10
3.9548721
20
4.9466891
40
0.5214223
50
182.124192
51
211.7343339
0
ARC
8
DEFAULT_255_2_778
10
4.0444827
20
4.9588063
40
0.6114836
50
179.9952229
51
182.9476018
0
ARC
8
DEFAULT_255_2_778
10
3.9762211
20
4.9656846
40
0.543265
50
151.5502369
51
180.7200591
0
ARC
8
DEFAULT_255_2_778
10
3.7595319
20
5.0939529
40
0.2917951
50
106.2453602
51
153.4257555
0
ARC
8
DEFAULT_255_2_778
10
3.7251119
20
5.1727265
40
0.2068306
50
90.0035921
51
103.1943176
0
ARC
8
DEFAULT_255_2_778
10
3.71045
20
5.1186261
40
0.2613421
50
29.0240999
51
86.7867288
0
ARC
8
DEFAULT_255_2_778
10
3.4942645
20
4.971157
40
0.5224812
50
2.1056635
51
31.6635815
0
ARC
8
DEFAULT_255_2_778
10
3.4031715
20
4.9588993
40
0.6140276
50
359.9960822
51
2.9363891
0
ARC
8
DEFAULT_255_2_778
10
5.6692809
20
4.9603638
40
0.8395628
50
336.6491197
51
0.4370165
0
ARC
8
DEFAULT_255_2_778
10
5.9323372
20
4.8396323
40
0.5502383
50
307.5577453
51
337.3340585
0
ARC
8
DEFAULT_255_2_778
10
6.0666802
20
4.6696748
40
0.3336284
50
270.6421402
51
307.0597813
0
ARC
8
DEFAULT_255_2_778
10
6.0855367
20
4.7093853
40
0.3736239
50
215.0475389
51
267.6810814
0
ARC
8
DEFAULT_255_2_778
10
6.3387898
20
4.916677
40
0.7004152
50
191.8121551
51
217.0334981
0
ARC
8
DEFAULT_255_2_778
10
6.5202223
20
4.9652255
40
0.8880044
50
179.900519
51
192.4819484
0
ARC
8
DEFAULT_255_2_778
10
6.4727175
20
4.9731487
40
0.8405224
50
156.7296986
51
180.4350006
0
ARC
8
DEFAULT_255_2_778
10
6.210184
20
5.09308
40
0.5520023
50
127.861174
51
157.3998316
0
ARC
8
DEFAULT_255_2_778
10
6.0742848
20
5.2636518
40
0.333938
50
90.663253
51
127.4144016
0
ARC
8
DEFAULT_255_2_778
10
6.0551304
20
5.224011
40
0.3738691
50
35.0639852
51
87.6563181
0
ARC
8
DEFAULT_255_2_778
10
5.8020537
20
5.0165306
40
0.7006369
50
11.8396702
51
37.0625778
0
ARC
8
DEFAULT_255_2_778
10
5.6221568
20
4.9682924
40
0.8866638
50
359.9014533
51
12.5053868
0
ARC
8
DEFAULT_255_2_778
10
5.8261067
20
4.9520589
40
0.5419304
50
331.4792772
51
0.7139636
0
ARC
8
DEFAULT_255_2_778
10
6.0407541
20
4.8246832
40
0.2926647
50
286.5239167
51
333.325511
0
ARC
8
DEFAULT_255_2_778
10
6.0758642
20
4.7446735
40
0.2062618
50
270.0085756
51
283.4935432
0
ARC
8
DEFAULT_255_2_778
10
6.0907337
20
4.7994935
40
0.2615031
50
209.0824982
51
266.747085
0
ARC
8
DEFAULT_255_2_778
10
6.3056682
20
4.9466435
40
0.5214223
50
182.124192
51
211.7343339
0
ARC
8
DEFAULT_255_2_778
10
6.3952787
20
4.9587608
40
0.6114836
50
179.9952229
51
182.9476018
0
ARC
8
DEFAULT_255_2_778
10
6.3263411
20
4.965519
40
0.5425875
50
151.497048
51
180.7082819
0
ARC
8
DEFAULT_255_2_778
10
6.111457
20
5.0929351
40
0.2930972
50
106.6887948
51
153.3405432
0
ARC
8
DEFAULT_255_2_778
10
6.0759301
20
5.1735069
40
0.2060049
50
90.0097342
51
103.657882
0
ARC
8
DEFAULT_255_2_778
10
6.0610375
20
5.118624
40
0.2613104
50
29.1328399
51
86.74053
0
ARC
8
DEFAULT_255_2_778
10
5.8458797
20
4.9710537
40
0.5216515
50
2.1924803
51
31.7868679
0
ARC
8
DEFAULT_255_2_778
10
5.7563381
20
4.958855
40
0.6116571
50
359.9959459
51
3.0134785
0
ARC
8
DEFAULT_255_2_778
10
4.8644694
20
4.4070375
40
0.1094258
50
269.9610816
51
0.0912194
0
ARC
8
DEFAULT_255_2_778
10
4.864306
20
4.4071227
40
0.109511
50
179.9534289
51
270.0465711
0
ARC
8
DEFAULT_255_2_778
10
4.8642849
20
4.407222
40
0.1094898
50
89.9423462
51
180.0053789
0
ARC
8
DEFAULT_255_2_778
10
4.8644908
20
4.4073075
40
0.1094043
50
359.9498362
51
90.0501639
0
ARC
8
DEFAULT_255_2_778
10
4.6422271
20
4.1418992
40
0.0352339
50
184.1172433
51
199.8906129
0
ARC
8
DEFAULT_255_2_778
10
4.6419728
20
4.1418715
40
0.0349784
50
180.003933
51
184.10191
0
ARC
8
DEFAULT_255_2_778
10
4.6416028
20
4.1419092
40
0.0346083
50
139.2242685
51
180.0662882
0
ARC
8
DEFAULT_255_2_778
10
4.6421157
20
4.1417404
40
0.0351074
50
90.0742111
51
139.5623131
0
ARC
8
DEFAULT_255_2_778
10
4.6420698
20
4.1420173
40
0.0348304
50
82.9118394
51
89.9992647
0
ARC
8
DEFAULT_255_2_778
10
4.642043
20
4.1418359
40
0.0350135
50
79.0480608
51
82.9049512
0
ARC
8
DEFAULT_255_2_778
10
4.6420524
20
4.1413575
40
0.0354816
50
19.5176905
51
79.2097311
0
ARC
8
DEFAULT_255_2_778
10
4.8636104
20
4.2195964
40
0.1994851
50
199.4376005
51
269.9094228
0
ARC
8
DEFAULT_255_2_778
10
4.8628709
20
4.2201749
40
0.2000636
50
270.1214859
51
340.4451351
0
ARC
8
DEFAULT_255_2_778
10
5.0849581
20
4.1409386
40
0.0357367
50
90.4165214
51
159.9137795
0
ARC
8
DEFAULT_255_2_778
10
5.0846981
20
4.142514
40
0.0341604
50
81.8241647
51
89.9995446
0
ARC
8
DEFAULT_255_2_778
10
5.0846467
20
4.1422636
40
0.0344155
50
70.0397487
51
81.7988054
0
ARC
8
DEFAULT_255_2_778
10
5.0844192
20
4.1411523
40
0.0355381
50
0.3191258
51
70.306652
0
ARC
8
DEFAULT_255_2_778
10
5.0855982
20
4.1413492
40
0.0343585
50
351.2465497
51
0.0017246
0
ARC
8
DEFAULT_255_2_778
10
5.0851893
20
4.1414256
40
0.0347741
50
340.1394472
51
351.2245878
0
ARC
8
DEFAULT_255_2_778
10
4.8635062
20
4.2219361
40
0.2706242
50
269.955303
51
340.0528545
0
ARC
8
DEFAULT_255_2_778
10
4.8631781
20
4.2215001
40
0.2701884
50
199.8823627
51
270.0247979
0
ARC
8
DEFAULT_255_2_778
10
2.1133661
20
3.6424205
40
0.0674222
50
261.9610402
51
348.1336989
0
ARC
8
DEFAULT_255_2_778
10
2.1029707
20
3.6868516
40
0.1111949
50
269.9880409
51
270.4981126
0
ARC
8
DEFAULT_255_2_778
10
2.0930586
20
3.6434253
40
0.0684864
50
193.4980491
51
278.3020394
0
ARC
8
DEFAULT_255_2_778
10
2.0643788
20
3.6285619
40
0.0379316
50
180.0080119
51
181.6952478
0
ARC
8
DEFAULT_255_2_778
10
2.0922191
20
3.6148205
40
0.0671907
50
82.5198883
51
168.2036137
0
ARC
8
DEFAULT_255_2_778
10
2.1029559
20
3.5676684
40
0.1137884
50
90.0042728
51
91.0019774
0
ARC
8
DEFAULT_255_2_778
10
2.1127365
20
3.6136933
40
0.0684667
50
13.4206251
51
98.220016
0
ARC
8
DEFAULT_255_2_778
10
2.1417077
20
3.6285504
40
0.03764
50
0.0094126
51
1.5739825
0
ARC
8
DEFAULT_255_2_778
10
2.3253391
20
3.5247035
40
0.0671106
50
262.4564192
51
348.2671263
0
ARC
8
DEFAULT_255_2_778
10
2.3145619
20
3.5719526
40
0.1137958
50
269.9927407
51
270.9903787
0
ARC
8
DEFAULT_255_2_778
10
2.3046535
20
3.5257203
40
0.0682843
50
193.1401822
51
278.3311012
0
ARC
8
DEFAULT_255_2_778
10
2.2765705
20
3.5110558
40
0.0384229
50
179.9988484
51
181.2808154
0
ARC
8
DEFAULT_255_2_778
10
2.3041288
20
3.4971927
40
0.0674222
50
81.9610402
51
168.1336989
0
ARC
8
DEFAULT_255_2_778
10
2.3145242
20
3.4527617
40
0.1111949
50
89.9880409
51
90.4981126
0
ARC
8
DEFAULT_255_2_778
10
2.3244363
20
3.4961879
40
0.0684864
50
13.4980491
51
98.3020394
0
ARC
8
DEFAULT_255_2_778
10
2.3531161
20
3.5110513
40
0.0379316
50
0.0080119
51
1.6952478
0
ARC
8
DEFAULT_255_2_778
10
2.4544938
20
3.3726487
40
0.0674215
50
262.6976875
51
348.0222802
0
ARC
8
DEFAULT_255_2_778
10
2.4439391
20
3.4189967
40
0.1132401
50
270.0042117
51
271.0044493
0
ARC
8
DEFAULT_255_2_778
10
2.4340901
20
3.3735484
40
0.0685047
50
193.4404827
51
278.2732223
0
ARC
8
DEFAULT_255_2_778
10
2.4053456
20
3.3586628
40
0.0378983
50
180.0093702
51
181.5684677
0
ARC
8
DEFAULT_255_2_778
10
2.43352
20
3.3446804
40
0.0675346
50
81.9670062
51
168.0563727
0
ARC
8
DEFAULT_255_2_778
10
2.4439242
20
3.3003596
40
0.1111969
50
89.988042
51
90.4981138
0
ARC
8
DEFAULT_255_2_778
10
2.4538048
20
3.3437648
40
0.0685047
50
13.4404827
51
98.2732223
0
ARC
8
DEFAULT_255_2_778
10
2.4825493
20
3.3586504
40
0.0378983
50
0.0093702
51
1.5684677
0
ARC
8
DEFAULT_255_2_778
10
2.5718039
20
3.1961092
40
0.0675013
50
262.023867
51
348.0708714
0
ARC
8
DEFAULT_255_2_778
10
2.5614707
20
3.2404516
40
0.1111949
50
269.9880409
51
270.4981126
0
ARC
8
DEFAULT_255_2_778
10
2.5516518
20
3.1971384
40
0.068585
50
193.4988597
51
278.2113562
0
ARC
8
DEFAULT_255_2_778
10
2.5225873
20
3.1821628
40
0.03764
50
180.0094129
51
181.573983
0
ARC
8
DEFAULT_255_2_778
10
2.55102
20
3.1681804
40
0.0675346
50
81.9670062
51
168.0563727
0
ARC
8
DEFAULT_255_2_778
10
2.5614242
20
3.1238596
40
0.1111969
50
89.988042
51
90.4981138
0
ARC
8
DEFAULT_255_2_778
10
2.5713414
20
3.1674929
40
0.0682843
50
13.1401822
51
98.3311012
0
ARC
8
DEFAULT_255_2_778
10
2.5994244
20
3.1821574
40
0.0384229
50
359.9988484
51
1.2808154
0
ARC
8
DEFAULT_255_2_778
10
2.7013849
20
3.0309367
40
0.0673092
50
262.6930501
51
348.0994555
0
ARC
8
DEFAULT_255_2_778
10
2.690839
20
3.0774042
40
0.1132476
50
270.0042844
51
271.004419
0
ARC
8
DEFAULT_255_2_778
10
2.6810855
20
3.0321817
40
0.0687219
50
193.8873782
51
278.1664543
0
ARC
8
DEFAULT_255_2_778
10
2.6520554
20
3.0170547
40
0.0377079
50
179.9971711
51
182.0780687
0
ARC
8
DEFAULT_255_2_778
10
2.6800558
20
3.0034097
40
0.0671106
50
82.4564192
51
168.2671263
0
ARC
8
DEFAULT_255_2_778
10
2.690833
20
2.9561607
40
0.1137958
50
89.9927407
51
90.9903787
0
ARC
8
DEFAULT_255_2_778
10
2.7007414
20
3.0023929
40
0.0682843
50
13.1401822
51
98.3311012
0
ARC
8
DEFAULT_255_2_778
10
2.7288244
20
3.0170574
40
0.0384229
50
359.9988484
51
1.2808154
0
ARC
8
DEFAULT_255_2_778
10
2.8780391
20
2.8897035
40
0.0671106
50
262.4564192
51
348.2671263
0
ARC
8
DEFAULT_255_2_778
10
2.8672619
20
2.9369526
40
0.1137958
50
269.9927407
51
270.9903787
0
ARC
8
DEFAULT_255_2_778
10
2.8573535
20
2.8907203
40
0.0682843
50
193.1401822
51
278.3311012
0
ARC
8
DEFAULT_255_2_778
10
2.8292705
20
2.8760558
40
0.0384229
50
179.9988484
51
181.2808154
0
ARC
8
DEFAULT_255_2_778
10
2.8568288
20
2.8621927
40
0.0674222
50
81.9610402
51
168.1336989
0
ARC
8
DEFAULT_255_2_778
10
2.8672242
20
2.8177617
40
0.1111949
50
89.9880409
51
90.4981126
0
ARC
8
DEFAULT_255_2_778
10
2.8771363
20
2.8611879
40
0.0684864
50
13.4980491
51
98.3020394
0
ARC
8
DEFAULT_255_2_778
10
2.9058161
20
2.8760513
40
0.0379316
50
0.0080119
51
1.6952478
0
ARC
8
DEFAULT_255_2_778
10
3.1244725
20
2.7959959
40
0.0673092
50
262.6930501
51
348.0994555
0
ARC
8
DEFAULT_255_2_778
10
3.1139266
20
2.8424634
40
0.1132476
50
270.0042844
51
271.004419
0
ARC
8
DEFAULT_255_2_778
10
3.1040462
20
2.7969846
40
0.0684864
50
193.4980491
51
278.3020394
0
ARC
8
DEFAULT_255_2_778
10
3.0753664
20
2.7821212
40
0.0379316
50
180.0080119
51
181.6952478
0
ARC
8
DEFAULT_255_2_778
10
3.1031434
20
2.768469
40
0.0671106
50
82.4564192
51
168.2671263
0
ARC
8
DEFAULT_255_2_778
10
3.1139206
20
2.7212199
40
0.1137958
50
89.9927407
51
90.9903787
0
ARC
8
DEFAULT_255_2_778
10
3.123829
20
2.7674521
40
0.0682843
50
13.1401822
51
98.3311012
0
ARC
8
DEFAULT_255_2_778
10
3.151912
20
2.7821166
40
0.0384229
50
359.9988484
51
1.2808154
0
ARC
8
DEFAULT_255_2_778
10
3.3702765
20
2.7959959
40
0.0673092
50
262.6930501
51
348.0994555
0
ARC
8
DEFAULT_255_2_778
10
3.3597306
20
2.8424634
40
0.1132476
50
270.0042844
51
271.004419
0
ARC
8
DEFAULT_255_2_778
10
3.3498502
20
2.7969846
40
0.0684864
50
193.4980491
51
278.3020394
0
ARC
8
DEFAULT_255_2_778
10
3.3211705
20
2.7821212
40
0.0379316
50
180.0080119
51
181.6952478
0
ARC
8
DEFAULT_255_2_778
10
3.3489475
20
2.768469
40
0.0671106
50
82.4564192
51
168.2671263
0
ARC
8
DEFAULT_255_2_778
10
3.3597247
20
2.7212199
40
0.1137958
50
89.9927407
51
90.9903787
0
ARC
8
DEFAULT_255_2_778
10
3.369633
20
2.7674521
40
0.0682843
50
13.1401822
51
98.3311012
0
ARC
8
DEFAULT_255_2_778
10
3.397716
20
2.7821166
40
0.0384229
50
359.9988484
51
1.2808154
0
ARC
8
DEFAULT_255_2_778
10
3.6193537
20
2.8369798
40
0.0674222
50
261.9610402
51
348.1336989
0
ARC
8
DEFAULT_255_2_778
10
3.6089582
20
2.8814108
40
0.1111949
50
269.9880409
51
270.4981126
0
ARC
8
DEFAULT_255_2_778
10
3.5990462
20
2.8379846
40
0.0684864
50
193.4980491
51
278.3020394
0
ARC
8
DEFAULT_255_2_778
10
3.5703664
20
2.8231212
40
0.0379316
50
180.0080119
51
181.6952478
0
ARC
8
DEFAULT_255_2_778
10
3.5981434
20
2.809469
40
0.0671106
50
82.4564192
51
168.2671263
0
ARC
8
DEFAULT_255_2_778
10
3.6089206
20
2.7622199
40
0.1137958
50
89.9927407
51
90.9903787
0
ARC
8
DEFAULT_255_2_778
10
3.618829
20
2.8084521
40
0.0682843
50
13.1401822
51
98.3311012
0
ARC
8
DEFAULT_255_2_778
10
3.646912
20
2.8231166
40
0.0384229
50
359.9988484
51
1.2808154
0
ARC
8
DEFAULT_255_2_778
10
12.6767181
20
8.3811525
40
2.1317183
50
270.3566116
51
280.9166692
0
ARC
8
DEFAULT_255_2_778
10
12.478038
20
9.4410145
40
3.2100318
50
280.8161245
51
288.0198669
0
ARC
8
DEFAULT_255_2_778
10
12.1269755
20
10.5648938
40
4.3874059
50
287.8393131
51
290.8895998
0
ARC
8
DEFAULT_255_2_778
10
12.9682083
20
7.5996595
40
2.1863501
50
285.1077639
51
289.3154783
0
ARC
8
DEFAULT_255_2_778
10
12.2588594
20
10.182052
40
4.8643839
50
282.7294537
51
285.2463895
0
LINE
8
DEFAULT_255_2_778
10
13.330715
20
5.4372278
11
13.3304859
21
5.4371755
0
ARC
8
DEFAULT_255_2_778
10
12.1422635
20
5.010168
40
1.2626195
50
5.4196915
51
19.7667425
0
ARC
8
DEFAULT_255_2_778
10
12.4526034
20
5.0485574
40
0.9500828
50
0.0433068
51
4.882599
0
ARC
8
DEFAULT_255_2_778
10
11.847803
20
5.0240348
40
1.5550878
50
320.6763586
51
0.9300108
0
ARC
8
DEFAULT_255_2_778
10
11.9878199
20
4.882388
40
1.3571722
50
277.1858433
51
321.5564614
0
ARC
8
DEFAULT_255_2_778
10
12.2249118
20
3.0055666
40
0.5345655
50
97.2353277
51
119.6190685
0
ARC
8
DEFAULT_255_2_778
10
12.1360203
20
3.180692
40
0.3385177
50
121.1893313
51
180.3057326
0
ARC
8
DEFAULT_255_2_778
10
12.3675673
20
3.148271
40
0.5708814
50
176.9259254
51
180.0296578
0
ARC
8
DEFAULT_255_2_778
10
12.0461752
20
3.1489036
40
0.249491
50
180.2131507
51
198.0387246
0
ARC
8
DEFAULT_255_2_778
10
12.1584484
20
3.1922452
40
0.3697229
50
199.0375164
51
223.4154915
0
ARC
8
DEFAULT_255_2_778
10
12.2980679
20
3.3081078
40
0.5508977
50
222.1884609
51
225.7832731
0
ARC
8
DEFAULT_255_2_778
10
12.3808847
20
3.344652
40
0.6357465
50
222.7293081
51
252.8133972
0
ARC
8
DEFAULT_255_2_778
10
12.5121208
20
3.7088429
40
1.0226079
50
251.8180904
51
261.7274585
0
ARC
8
DEFAULT_255_2_778
10
11.8911758
20
-0.4649343
40
3.1971138
50
74.8248563
51
81.4774095
0
ARC
8
DEFAULT_255_2_778
10
12.1897347
20
0.6234648
40
2.0685158
50
65.6336835
51
74.9145296
0
ARC
8
DEFAULT_255_2_778
10
12.511081
20
1.3209498
40
1.3005902
50
50.8544628
51
65.8522869
0
ARC
8
DEFAULT_255_2_778
10
12.7844853
20
1.6525006
40
0.8708639
50
359.1917658
51
51.0341912
0
ARC
8
DEFAULT_255_2_778
10
12.4850109
20
1.6232211
40
1.1703751
50
359.9977661
51
0.8320303
0
ARC
8
DEFAULT_255_2_778
10
11.7618496
20
1.6101845
40
1.8935809
50
348.8325099
51
0.3930818
0
ARC
8
DEFAULT_255_2_778
10
12.3848721
20
1.4819065
40
1.2575213
50
328.9910096
51
349.0686861
0
ARC
8
DEFAULT_255_2_778
10
12.5191734
20
1.4209095
40
1.1111183
50
295.4270421
51
328.1190675
0
ARC
8
DEFAULT_255_2_778
10
12.2715374
20
1.9080352
40
1.6574463
50
282.9217344
51
295.9281294
0
ARC
8
DEFAULT_255_2_778
10
12.0776504
20
2.7300296
40
2.5019871
50
274.1296121
51
283.0399622
0
ARC
8
DEFAULT_255_2_778
10
11.9940858
20
3.7188386
40
3.4942676
50
269.9081785
51
274.328683
0
ARC
8
DEFAULT_255_2_778
10
11.9756208
20
3.4450843
40
3.2205345
50
262.3714482
51
270.2288817
0
ARC
8
DEFAULT_255_2_778
10
11.8411526
20
2.46853
40
2.2347754
50
251.3039186
51
262.4647754
0
ARC
8
DEFAULT_255_2_778
10
11.6702307
20
1.9478457
40
1.6867851
50
241.3150692
51
251.1340247
0
ARC
8
DEFAULT_255_2_778
10
11.3898976
20
1.4561552
40
1.1209248
50
219.7219054
51
241.8221654
0
ARC
8
DEFAULT_255_2_778
10
11.3149492
20
1.3710901
40
1.0090684
50
186.4118337
51
218.7263958
0
ARC
8
DEFAULT_255_2_778
10
11.6709208
20
1.4309294
40
1.3696379
50
179.8809397
51
187.2364749
0
ARC
8
DEFAULT_255_2_778
10
11.3821049
20
1.4477014
40
1.0809087
50
159.2380357
51
180.7381908
0
ARC
8
DEFAULT_255_2_778
10
11.2578816
20
1.4767687
40
0.9545973
50
124.8501715
51
158.2262877
0
ARC
8
DEFAULT_255_2_778
10
11.5599891
20
1.0661468
40
1.4642681
50
111.6843342
51
125.3698787
0
ARC
8
DEFAULT_255_2_778
10
11.7670074
20
0.5867283
40
1.9863101
50
108.4013545
51
112.123557
0
ARC
8
DEFAULT_255_2_778
10
11.4557553
20
3.0242266
40
0.6210226
50
181.5529434
51
239.4382409
0
ARC
8
DEFAULT_255_2_778
10
11.7562168
20
3.0662059
40
0.9231311
50
179.9646462
51
183.6525853
0
ARC
8
DEFAULT_255_2_778
10
12.1213737
20
3.0792954
40
1.2883486
50
169.4676121
51
180.5567976
0
ARC
8
DEFAULT_255_2_778
10
11.4986814
20
3.2011143
40
0.6539073
50
149.2832711
51
169.9884108
0
ARC
8
DEFAULT_255_2_778
10
11.284341
20
3.3247648
40
0.4064906
50
113.2032871
51
148.8348981
0
ARC
8
DEFAULT_255_2_778
10
11.4065912
20
4.5049172
40
0.8375862
50
225.0957519
51
250.2957186
0
ARC
8
DEFAULT_255_2_778
10
11.7854504
20
4.9002883
40
1.3851103
50
212.859744
51
225.5408844
0
ARC
8
DEFAULT_255_2_778
10
12.1426878
20
5.1503671
40
1.8209514
50
212.6678595
51
213.370582
0
ARC
8
DEFAULT_255_2_778
10
11.7938503
20
4.9812848
40
1.4367651
50
180.0641759
51
214.5008031
0
ARC
8
DEFAULT_255_2_778
10
11.889755
20
4.9941884
40
1.5327378
50
160.4678445
51
180.5425202
0
ARC
8
DEFAULT_255_2_778
10
11.7833526
20
5.0128299
40
1.4263395
50
132.6224734
51
159.7445532
0
ARC
8
DEFAULT_255_2_778
10
11.8470194
20
4.9606853
40
1.5078662
50
90.0035424
51
133.0608798
0
ARC
8
DEFAULT_255_2_778
10
11.846913
20
4.9581796
40
1.5103719
50
88.9046405
51
89.9994993
0
ARC
8
DEFAULT_255_2_778
10
11.8859879
20
4.831849
40
1.6364583
50
90.0011636
51
90.3571947
0
ARC
8
DEFAULT_255_2_778
10
11.8858847
20
4.8409966
40
1.6273106
50
60.1119046
51
89.9975341
0
ARC
8
DEFAULT_255_2_778
10
12.3270896
20
4.957981
40
0.9836856
50
179.2605776
51
193.5212876
0
ARC
8
DEFAULT_255_2_778
10
11.8606744
20
4.8382689
40
0.5022622
50
192.6835912
51
224.6104335
0
ARC
8
DEFAULT_255_2_778
10
11.8343198
20
4.8411698
40
0.4859734
50
227.0367489
51
261.7101534
0
ARC
8
DEFAULT_255_2_778
10
11.9068785
20
5.1939199
40
0.8457585
50
260.2913834
51
270.3324573
0
ARC
8
DEFAULT_255_2_778
10
11.9245388
20
5.0270069
40
0.6789512
50
268.9237387
51
289.0474621
0
ARC
8
DEFAULT_255_2_778
10
11.9924232
20
4.8046084
40
0.4466544
50
290.1266559
51
346.3383008
0
ARC
8
DEFAULT_255_2_778
10
11.5223504
20
4.9536676
40
0.9392425
50
344.2750046
51
359.0261065
0
ARC
8
DEFAULT_255_2_778
10
11.0836458
20
4.9793292
40
1.3784401
50
358.2695345
51
0.0143924
0
ARC
8
DEFAULT_255_2_778
10
11.6246689
20
4.9936551
40
0.8375337
50
359.0436071
51
24.0469969
0
ARC
8
DEFAULT_255_2_778
10
11.7415217
20
5.03567
40
0.7137619
50
24.7893323
51
33.6207833
0
ARC
8
DEFAULT_255_2_778
10
11.9313988
20
5.141072
40
0.4975901
50
35.62051
51
92.2589354
0
ARC
8
DEFAULT_255_2_778
10
11.8986994
20
4.9515986
40
0.6868015
50
88.9082017
51
109.4644744
0
ARC
8
DEFAULT_255_2_778
10
11.8330714
20
5.166015
40
0.4628697
50
110.6493004
51
164.9440334
0
ARC
8
DEFAULT_255_2_778
10
12.2937721
20
5.0091042
40
0.9490501
50
163.0207324
51
177.6434283
0
ARC
8
DEFAULT_255_2_778
10
12.779314
20
4.9716336
40
1.4358285
50
176.9461112
51
180.0462134
0
ARC
8
DEFAULT_255_2_778
10
12.3512112
20
1.5222349
40
0.3822293
50
357.5319914
51
65.9831906
0
ARC
8
DEFAULT_255_2_778
10
12.1559087
20
1.1449592
40
0.8067143
50
64.2185863
51
79.9719589
0
ARC
8
DEFAULT_255_2_778
10
12.0096304
20
0.3768864
40
1.588558
50
79.600496
51
88.733003
0
ARC
8
DEFAULT_255_2_778
10
11.9759116
20
-0.3587613
40
2.3248369
50
88.3030818
51
90.0203479
0
ARC
8
DEFAULT_255_2_778
10
11.9625754
20
0.3121818
40
1.653941
50
89.5666054
51
98.5241062
0
ARC
8
DEFAULT_255_2_778
10
11.8388001
20
1.1032873
40
0.8532433
50
98.1785464
51
113.4388733
0
ARC
8
DEFAULT_255_2_778
10
11.6456107
20
1.5133336
40
0.400437
50
111.41468
51
178.6659115
0
ARC
8
DEFAULT_255_2_778
10
11.8377362
20
1.4882872
40
0.5934502
50
176.6798817
51
180.0300961
0
ARC
8
DEFAULT_255_2_778
10
11.6312722
20
1.4729799
40
0.3872767
50
177.7809241
51
245.9219778
0
ARC
8
DEFAULT_255_2_778
10
11.8340903
20
1.856173
40
0.8203811
50
243.9076598
51
259.066487
0
ARC
8
DEFAULT_255_2_778
10
11.9878608
20
2.6044833
40
1.5842995
50
258.7392886
51
267.7623312
0
ARC
8
DEFAULT_255_2_778
10
12.0359329
20
3.4206872
40
2.4018126
50
267.3766613
51
270.0489761
0
ARC
8
DEFAULT_255_2_778
10
12.0504332
20
2.4716577
40
1.4528356
50
269.5091077
51
279.464753
0
ARC
8
DEFAULT_255_2_778
10
12.1729472
20
1.7704487
40
0.7410465
50
279.0365074
51
296.7195341
0
ARC
8
DEFAULT_255_2_778
10
12.3211949
20
1.4767352
40
0.4120408
50
296.6698835
51
2.8372377
0
ARC
8
DEFAULT_255_2_778
10
12.0637034
20
1.5057409
40
0.6690826
50
359.2626703
51
0.0029626
0
ARC
8
DEFAULT_255_2_778
10
14.7055268
20
7.726819
40
0.6021586
50
222.0923634
51
270.4052592
0
ARC
8
DEFAULT_255_2_778
10
14.7527929
20
7.782574
40
0.6746767
50
180.0007931
51
222.9153076
0
ARC
8
DEFAULT_255_2_778
10
14.7521888
20
7.7825752
40
0.6740727
50
179.1754532
51
180.0008939
0
ARC
8
DEFAULT_255_2_778
10
14.7632321
20
7.8067685
40
0.6851995
50
137.4213568
51
181.2119811
0
ARC
8
DEFAULT_255_2_778
10
14.7055303
20
7.8664206
40
0.6023699
50
89.5952157
51
137.8858869
0
ARC
8
DEFAULT_255_2_778
10
14.7128332
20
7.9035069
40
0.5652767
50
40.4667623
51
90.3088644
0
ARC
8
DEFAULT_255_2_778
10
14.6640974
20
7.8041372
40
0.6682938
50
358.982989
51
44.2391408
0
ARC
8
DEFAULT_255_2_778
10
14.6761777
20
7.7844054
40
0.6561554
50
0.0002155
51
0.6872372
0
ARC
8
DEFAULT_255_2_778
10
14.6762827
20
7.7843518
40
0.6560504
50
315.3351429
51
0.0048975
0
ARC
8
DEFAULT_255_2_778
10
14.7127017
20
7.6900465
40
0.5653785
50
269.7045142
51
319.5416945
0
ARC
8
DEFAULT_255_2_778
10
11.4335558
20
2.6739003
40
2.7739315
50
354.6461655
51
357.493762
0
ARC
8
DEFAULT_255_2_778
10
7.2533389
20
2.8695028
40
6.9587145
50
357.3898345
51
358.9840014
0
ARC
8
DEFAULT_255_2_778
10
0.123276
20
3.0060357
40
14.090081
50
358.9429957
51
359.9344736
0
ARC
8
DEFAULT_255_2_778
10
-5.5849307
20
3.028814
40
19.7983167
50
359.8874463
51
0.0004674
0
ARC
8
DEFAULT_255_2_778
10
17.8378379
20
6.1628794
40
2.6379983
50
174.3875045
51
177.5341334
0
ARC
8
DEFAULT_255_2_778
10
21.7507139
20
5.9787649
40
6.555191
50
177.3978191
51
179.0385823
0
ARC
8
DEFAULT_255_2_778
10
28.0988105
20
5.8636053
40
12.9043292
50
179.0002742
51
180.048973
0
ARC
8
DEFAULT_255_2_778
10
18.423015
20
3.8730475
40
1.3198866
50
179.4648383
51
189.5723521
0
ARC
8
DEFAULT_255_2_778
10
17.7448709
20
3.7527027
40
0.6311998
50
189.0369098
51
207.831508
0
ARC
8
DEFAULT_255_2_778
10
17.4811782
20
3.6130462
40
0.3328082
50
207.7642641
51
273.2568873
0
ARC
8
DEFAULT_255_2_778
10
17.5088918
20
4.1619068
40
0.8811753
50
269.4274169
51
269.9998907
0
ARC
8
DEFAULT_255_2_778
10
17.5091095
20
4.1595219
40
0.8787905
50
269.9856986
51
304.3833161
0
ARC
8
DEFAULT_255_2_778
10
17.3209817
20
3.8220456
40
1.4579887
50
279.4897754
51
297.9964398
0
ARC
8
DEFAULT_255_2_778
10
17.2122402
20
4.4171237
40
2.062872
50
269.7263005
51
279.7436914
0
ARC
8
DEFAULT_255_2_778
10
17.1897438
20
3.7891401
40
1.4349203
50
257.2268801
51
270.5048015
0
ARC
8
DEFAULT_255_2_778
10
17.0427353
20
3.2243891
40
0.851844
50
208.0836063
51
258.4719241
0
ARC
8
DEFAULT_255_2_778
10
17.3595416
20
3.3821248
40
1.205647
50
195.276443
51
207.6095391
0
ARC
8
DEFAULT_255_2_778
10
18.2614771
20
3.6378675
40
2.1431148
50
187.9175706
51
195.5188619
0
ARC
8
DEFAULT_255_2_778
10
19.6572068
20
3.8378212
40
3.5530873
50
182.6415992
51
188.0109079
0
ARC
8
DEFAULT_255_2_778
10
21.3268699
20
3.9267387
40
5.2250877
50
179.93161
51
182.7717723
0
ARC
8
DEFAULT_255_2_778
10
16.0223471
20
3.2739092
40
2.3015475
50
91.1716427
51
98.8467814
0
ARC
8
DEFAULT_255_2_778
10
12.6482603
20
6.7866299
40
3.4619446
50
359.8104269
51
3.583513
0
ARC
8
DEFAULT_255_2_778
10
14.4175358
20
6.9017829
40
1.6889366
50
3.4362071
51
9.525374
0
ARC
8
DEFAULT_255_2_778
10
19.4131717
20
6.8342724
40
2.3095032
50
171.3585805
51
178.3961037
0
ARC
8
DEFAULT_255_2_778
10
20.3107109
20
6.7948718
40
3.2078252
50
178.1413412
51
180.024941
0
ARC
8
DEFAULT_255_2_778
10
20.3157593
20
5.1735261
40
1.2744001
50
90.5113437
51
110.8182443
0
ARC
8
DEFAULT_255_2_778
10
20.5310183
20
4.5863239
40
1.8997843
50
110.5923778
51
122.20097
0
ARC
8
DEFAULT_255_2_778
10
20.7744228
20
4.1694845
40
2.38227
50
121.8121897
51
122.5668703
0
ARC
8
DEFAULT_255_2_778
10
17.4888959
20
8.2625768
40
1.0070285
50
4.2166032
51
9.7476268
0
ARC
8
DEFAULT_255_2_778
10
15.0688824
20
8.0641742
40
3.4351372
50
2.0386965
51
4.5490031
0
ARC
8
DEFAULT_255_2_778
10
10.3311588
20
7.8812798
40
8.1763807
50
0.7958054
51
2.1384597
0
ARC
8
DEFAULT_255_2_778
10
2.7046695
20
7.7672408
40
15.8037203
50
359.9602455
51
0.8251856
0
ARC
8
DEFAULT_255_2_778
10
18.8026165
20
2.3933797
40
0.7257878
50
1.6971865
51
5.1023557
0
ARC
8
DEFAULT_255_2_778
10
13.1051274
20
1.9507141
40
6.4404048
50
4.5170038
51
5.1499264
0
ARC
8
DEFAULT_255_2_778
10
-2.9465837
20
0.5190865
40
22.5558299
50
5.1118533
51
5.3744801
0
ARC
8
DEFAULT_255_2_778
10
20.4611209
20
4.19287
40
1.3994042
50
121.896034
51
133.8253562
0
ARC
8
DEFAULT_255_2_778
10
20.1497835
20
4.7038419
40
0.8011005
50
100.6028734
51
122.3007875
0
ARC
8
DEFAULT_255_2_778
10
20.1065547
20
4.8867997
40
0.6133759
50
90.0531269
51
99.7783674
0
ARC
8
DEFAULT_255_2_778
10
20.1149296
20
4.9534745
40
0.5467741
50
30.4489503
51
90.9372343
0
ARC
8
DEFAULT_255_2_778
10
19.8333275
20
4.7395983
40
0.8988904
50
27.6881279
51
33.1060344
0
ARC
8
DEFAULT_255_2_778
10
19.5148265
20
4.6156656
40
1.2390968
50
9.5216586
51
25.9190281
0
ARC
8
DEFAULT_255_2_778
10
18.8261
20
4.4925026
40
1.9387232
50
359.6445549
51
9.7443953
0
ARC
8
DEFAULT_255_2_778
10
14.9263175
20
3.2749013
40
5.8294821
50
357.7665958
51
359.8759059
0
ARC
8
DEFAULT_255_2_778
10
10.0162449
20
3.4609875
40
10.743078
50
356.3050326
51
357.7954088
0
ARC
8
DEFAULT_255_2_778
10
2.475569
20
3.94106
40
18.2990183
50
355.2884215
51
356.3265798
0
ARC
8
DEFAULT_255_2_778
10
-3.2670728
20
4.397716
40
24.0597702
50
355.2708034
51
355.3279222
0
ARC
8
DEFAULT_255_2_778
10
23.3749457
20
2.6770171
40
1.5942923
50
184.551604
51
189.4929855
0
ARC
8
DEFAULT_255_2_778
10
25.9575445
20
2.8958241
40
4.186131
50
182.1220246
51
184.7318599
0
ARC
8
DEFAULT_255_2_778
10
31.0012309
20
3.0957431
40
9.2337703
50
180.7833873
51
182.2028455
0
ARC
8
DEFAULT_255_2_778
10
40.1460699
20
3.2297973
40
18.3795895
50
179.9554898
51
180.8114778
0
ARC
8
DEFAULT_255_2_778
10
18.7611851
20
4.4934046
40
3.00533
50
359.7477892
51
9.9774245
0
ARC
8
DEFAULT_255_2_778
10
19.4885116
20
4.6257632
40
2.2660752
50
9.8676876
51
26.3971692
0
ARC
8
DEFAULT_255_2_778
10
19.7011609
20
4.7201861
40
2.0336428
50
26.6779025
51
32.590705
0
ARC
8
DEFAULT_255_2_778
10
20.1346162
20
5.0308388
40
1.5013774
50
31.5120483
51
47.3935677
0
ARC
8
DEFAULT_255_2_778
10
20.3455965
20
5.2453274
40
1.2007267
50
47.8748526
51
88.9934506
0
ARC
8
DEFAULT_255_2_778
10
20.3049879
20
4.8691763
40
1.5778992
50
87.7589628
51
90.0109646
0
ARC
8
DEFAULT_255_2_778
10
23.7580898
20
3.6773208
40
1.2988175
50
252.2592554
51
270.6041994
0
ARC
8
DEFAULT_255_2_778
10
23.7082857
20
3.4740161
40
1.0901016
50
214.7946068
51
251.4964093
0
ARC
8
DEFAULT_255_2_778
10
24.0374838
20
3.7341028
40
1.5090745
50
208.666861
51
215.7716188
0
ARC
8
DEFAULT_255_2_778
10
24.5349174
20
3.9535983
40
2.0513468
50
195.040065
51
207.3809218
0
ARC
8
DEFAULT_255_2_778
10
25.4018094
20
4.1920522
40
2.9504254
50
186.5341928
51
195.1436071
0
ARC
8
DEFAULT_255_2_778
10
26.6194799
20
4.3363781
40
4.1766127
50
180.2063101
51
186.6003452
0
ARC
8
DEFAULT_255_2_778
10
27.4283908
20
4.354246
40
4.985605
50
179.9996607
51
180.3781769
0
ARC
8
DEFAULT_255_2_778
10
25.546552
20
6.1563694
40
2.0739383
50
172.6865782
51
176.0916627
0
ARC
8
DEFAULT_255_2_778
10
28.9290137
20
5.9040889
40
5.4657701
50
175.8700209
51
177.2654997
0
ARC
8
DEFAULT_255_2_778
10
34.2477898
20
5.6465196
40
10.7907784
50
177.2467655
51
178.246815
0
ARC
8
DEFAULT_255_2_778
10
41.8888292
20
5.4040814
40
18.4356601
50
178.2202294
51
178.8050065
0
ARC
8
DEFAULT_255_2_778
10
51.2373865
20
5.2064054
40
27.7863068
50
178.7995046
51
179.2459611
0
ARC
8
DEFAULT_255_2_778
10
26.8965121
20
4.3415834
40
3.4520484
50
179.7943212
51
184.5562009
0
ARC
8
DEFAULT_255_2_778
10
25.3562185
20
4.2149543
40
1.9065671
50
184.4398184
51
191.5038217
0
ARC
8
DEFAULT_255_2_778
10
24.4071285
20
4.0161018
40
0.9369019
50
191.1627177
51
203.4802353
0
ARC
8
DEFAULT_255_2_778
10
24.0818672
20
3.8840328
40
0.5860133
50
204.3075422
51
207.4191767
0
ARC
8
DEFAULT_255_2_778
10
23.9945885
20
3.8160119
40
0.4776427
50
204.9968093
51
267.1981815
0
ARC
8
DEFAULT_255_2_778
10
24.056352
20
4.1663046
40
0.8317307
50
264.1266175
51
270.112559
0
ARC
8
DEFAULT_255_2_778
10
24.0457304
20
3.8918558
40
0.5574151
50
271.2598335
51
296.6343511
0
ARC
8
DEFAULT_255_2_778
10
23.8179484
20
4.3741547
40
1.0907214
50
295.9723915
51
308.5588887
0
ARC
8
DEFAULT_255_2_778
10
23.3821646
20
4.9442858
40
1.8082368
50
308.0961284
51
313.4787418
0
ARC
8
DEFAULT_255_2_778
10
27.6157002
20
6.2079576
40
1.9902631
50
173.7979523
51
177.3052856
0
ARC
8
DEFAULT_255_2_778
10
31.1732752
20
6.0229642
40
5.552629
50
177.1243785
51
178.8292646
0
ARC
8
DEFAULT_255_2_778
10
37.174436
20
5.890066
40
11.5552569
50
178.7784105
51
179.7899336
0
ARC
8
DEFAULT_255_2_778
10
42.8146164
20
5.8557817
40
17.1955305
50
179.7446007
51
180.003686
0
ARC
8
DEFAULT_255_2_778
10
23.5811295
20
3.971634
40
1.6346685
50
296.0201751
51
311.2101345
0
ARC
8
DEFAULT_255_2_778
10
23.7708605
20
3.5846378
40
1.203666
50
270.1440133
51
295.9854538
0
ARC
8
DEFAULT_255_2_778
10
28.1872111
20
3.4505951
40
1.0608838
50
270.0002783
51
271.2787293
0
ARC
8
DEFAULT_255_2_778
10
28.1872211
20
3.4481542
40
1.058443
50
221.857536
51
269.9997376
0
ARC
8
DEFAULT_255_2_778
10
25.1340477
20
2.6319005
40
1.3259726
50
350.6718553
51
355.9593471
0
ARC
8
DEFAULT_255_2_778
10
22.7776623
20
2.8156489
40
3.6894886
50
355.6914519
51
358.2591186
0
ARC
8
DEFAULT_255_2_778
10
18.7238056
20
2.9492687
40
7.7455406
50
358.1821554
51
359.6911868
0
ARC
8
DEFAULT_255_2_778
10
14.8603323
20
2.9840535
40
11.6091536
50
359.6222835
51
0.0060307
0
ARC
8
DEFAULT_255_2_778
10
29.2230646
20
8.2447346
40
1.7619203
50
173.8799838
51
177.2142068
0
ARC
8
DEFAULT_255_2_778
10
32.2451038
20
8.0779286
40
4.7885358
50
176.9781163
51
178.251188
0
ARC
8
DEFAULT_255_2_778
10
37.8813569
20
7.9080831
40
10.4273474
50
178.2634937
51
179.3579401
0
ARC
8
DEFAULT_255_2_778
10
48.9531942
20
7.7732945
40
21.5000025
50
179.3293959
51
179.9975463
0
ARC
8
DEFAULT_255_2_778
10
57.9561978
20
7.7557318
40
30.5030117
50
179.9652815
51
180.0001059
0
ARC
8
DEFAULT_255_2_778
10
28.4819271
20
4.5801328
40
1.9068497
50
110.5359183
51
122.6494553
0
ARC
8
DEFAULT_255_2_778
10
28.275773
20
5.1410767
40
1.30924
50
90.4545685
51
110.6988266
0
ARC
8
DEFAULT_255_2_778
10
28.2800762
20
5.1273718
40
1.3229853
50
68.873977
51
90.6362178
0
ARC
8
DEFAULT_255_2_778
10
28.2895544
20
5.2054656
40
1.2468735
50
39.9314438
51
67.9868239
0
ARC
8
DEFAULT_255_2_778
10
27.9679838
20
4.9121604
40
1.6818238
50
32.6160776
51
40.5618296
0
ARC
8
DEFAULT_255_2_778
10
27.5277011
20
4.674596
40
2.1810409
50
12.4953416
51
31.6384018
0
ARC
8
DEFAULT_255_2_778
10
26.8582709
20
4.51868
40
2.8683581
50
1.9247548
51
12.6428541
0
ARC
8
DEFAULT_255_2_778
10
26.2689578
20
4.4841929
40
3.4585282
50
359.9864586
51
2.16786
0
ARC
8
DEFAULT_255_2_778
10
26.6233034
20
4.4699698
40
3.1042115
50
349.1887941
51
0.2474344
0
ARC
8
DEFAULT_255_2_778
10
27.2779528
20
4.3400341
40
2.4368141
50
328.9943322
51
349.3024685
0
ARC
8
DEFAULT_255_2_778
10
27.820417
20
4.0407672
40
1.8178445
50
315.4181244
51
328.2716199
0
ARC
8
DEFAULT_255_2_778
10
28.2322321
20
3.6180369
40
1.2278627
50
270.1968475
51
315.9792279
0
ARC
8
DEFAULT_255_2_778
10
28.2117171
20
3.8734557
40
1.4834804
50
269.9987983
51
270.9553143
0
ARC
8
DEFAULT_255_2_778
10
28.0876119
20
4.7938754
40
0.7089905
50
90.9153225
51
117.3429217
0
ARC
8
DEFAULT_255_2_778
10
28.3138862
20
4.3306152
40
1.2244802
50
116.791285
51
129.6885163
0
ARC
8
DEFAULT_255_2_778
10
28.6413716
20
3.9120257
40
1.7557999
50
129.188978
51
132.5657337
0
ARC
8
DEFAULT_255_2_778
10
28.3311929
20
4.5289747
40
1.2480678
50
225.3243646
51
238.1991645
0
ARC
8
DEFAULT_255_2_778
10
28.0488233
20
4.0618744
40
0.7023135
50
237.6961852
51
262.7272345
0
ARC
8
DEFAULT_255_2_778
10
28.0221145
20
3.9265272
40
0.5647517
50
263.6768713
51
269.9869615
0
ARC
8
DEFAULT_255_2_778
10
28.0248677
20
3.8942275
40
0.5324598
50
269.6899096
51
328.8710682
0
ARC
8
DEFAULT_255_2_778
10
27.6785631
20
4.1575446
40
0.9661381
50
326.1198804
51
335.028689
0
ARC
8
DEFAULT_255_2_778
10
27.2071752
20
4.3708694
40
1.4835291
50
335.245748
51
351.6462971
0
ARC
8
DEFAULT_255_2_778
10
26.5859659
20
4.4718326
40
2.1128377
50
351.3848653
51
0.2343767
0
ARC
8
DEFAULT_255_2_778
10
26.1042889
20
4.4930679
40
2.5945276
50
359.721916
51
6.519742
0
ARC
8
DEFAULT_255_2_778
10
27.1894448
20
4.6210046
40
1.501868
50
6.3711619
51
16.5058547
0
ARC
8
DEFAULT_255_2_778
10
27.8443942
20
4.820984
40
0.8171113
50
16.1090726
51
34.0805321
0
ARC
8
DEFAULT_255_2_778
10
28.100512
20
4.990384
40
0.510067
50
34.4413262
51
92.7223337
0
LINE
8
DEFAULT_255_2_778
10
13.6913859
20
6.4658755
11
13.6913859
21
5.5363755
0
LINE
8
DEFAULT_255_2_778
10
11.1399859
20
2.4714755
11
11.1399859
21
2.4894755
0
LINE
8
DEFAULT_255_2_778
10
11.1241859
20
3.6983755
11
11.1241859
21
3.7163755
0
LINE
8
DEFAULT_255_2_778
10
14.2133859
20
3.0289755
11
14.2133859
21
5.8342755
0
LINE
8
DEFAULT_255_2_778
10
14.2133859
20
5.8342755
11
14.1953859
21
6.4208755
0
LINE
8
DEFAULT_255_2_778
10
14.1953859
20
6.4208755
11
15.2124859
21
6.4208755
0
LINE
8
DEFAULT_255_2_778
10
15.1944859
20
5.8525755
11
15.1944859
21
3.0823755
0
LINE
8
DEFAULT_255_2_778
10
15.1944859
20
3.0823755
11
15.2124859
21
2.4145755
0
LINE
8
DEFAULT_255_2_778
10
15.2124859
20
2.4145755
11
14.1927859
21
2.4145755
0
LINE
8
DEFAULT_255_2_778
10
17.1031859
20
6.4208755
11
17.8881859
21
6.4208755
0
LINE
8
DEFAULT_255_2_778
10
17.8881859
20
6.4208755
11
17.8881859
21
5.5456755
0
LINE
8
DEFAULT_255_2_778
10
17.8881859
20
5.5456755
11
17.7167859
21
5.5546755
0
LINE
8
DEFAULT_255_2_778
10
17.7167859
20
5.5546755
11
17.4910859
21
5.5636755
0
LINE
8
DEFAULT_255_2_778
10
17.4910859
20
5.5636755
11
17.1031859
21
5.5636755
0
LINE
8
DEFAULT_255_2_778
10
17.1031859
20
5.5636755
11
17.1031859
21
3.8853755
0
LINE
8
DEFAULT_255_2_778
10
18.0053859
20
3.4342755
11
18.0053859
21
2.5346755
0
LINE
8
DEFAULT_255_2_778
10
16.1017859
20
3.9329755
11
16.1017859
21
5.5480755
0
LINE
8
DEFAULT_255_2_778
10
16.1017859
20
5.5480755
11
16.1107859
21
5.5480755
0
LINE
8
DEFAULT_255_2_778
10
16.1107859
20
5.5480755
11
16.1107859
21
5.5660755
0
LINE
8
DEFAULT_255_2_778
10
16.1107859
20
5.5660755
11
15.9752859
21
5.5749755
0
LINE
8
DEFAULT_255_2_778
10
15.6683859
20
5.5480755
11
15.6683859
21
6.4232755
0
LINE
8
DEFAULT_255_2_778
10
15.6683859
20
6.4232755
11
16.1101859
21
6.4232755
0
LINE
8
DEFAULT_255_2_778
10
16.1101859
20
6.4232755
11
16.1101859
21
6.7751755
0
LINE
8
DEFAULT_255_2_778
10
16.0831859
20
7.1812755
11
17.1298859
21
7.1812755
0
LINE
8
DEFAULT_255_2_778
10
17.1028859
20
6.7934755
11
17.1028859
21
6.4235755
0
LINE
8
DEFAULT_255_2_778
10
19.4920859
20
6.1771755
11
19.4920859
21
7.7562755
0
LINE
8
DEFAULT_255_2_778
10
19.4920859
20
7.7562755
11
19.5100859
21
8.4330755
0
LINE
8
DEFAULT_255_2_778
10
19.5100859
20
8.4330755
11
18.4813859
21
8.4330755
0
LINE
8
DEFAULT_255_2_778
10
18.5083859
20
7.7562755
11
18.5083859
21
2.9831755
0
LINE
8
DEFAULT_255_2_778
10
18.5083859
20
2.9831755
11
18.4813859
21
2.4148755
0
LINE
8
DEFAULT_255_2_778
10
18.4813859
20
2.4148755
11
19.5280859
21
2.4148755
0
LINE
8
DEFAULT_255_2_778
10
19.5100859
20
2.6317755
11
19.4920859
21
2.9836755
0
LINE
8
DEFAULT_255_2_778
10
19.4920859
20
2.9836755
11
19.4920859
21
5.2024755
0
LINE
8
DEFAULT_255_2_778
10
20.7647859
20
4.4804755
11
20.7557859
21
3.2622755
0
LINE
8
DEFAULT_255_2_778
10
20.7107859
20
2.4140755
11
21.8024859
21
2.4140755
0
LINE
8
DEFAULT_255_2_778
10
21.7664859
20
3.2440755
11
21.7664859
21
4.4801755
0
LINE
8
DEFAULT_255_2_778
10
22.4427859
20
4.3542755
11
22.4427859
21
5.5903755
0
LINE
8
DEFAULT_255_2_778
10
22.4427859
20
5.5903755
11
22.4067859
21
6.4203755
0
LINE
8
DEFAULT_255_2_778
10
22.4067859
20
6.4203755
11
23.4894859
21
6.4203755
0
LINE
8
DEFAULT_255_2_778
10
23.4534859
20
5.5720755
11
23.4444859
21
4.3539755
0
LINE
8
DEFAULT_255_2_778
10
24.6263859
20
3.6321755
11
24.6263859
21
5.8546755
0
LINE
8
DEFAULT_255_2_778
10
24.6263859
20
5.8546755
11
24.6083859
21
6.2065755
0
LINE
8
DEFAULT_255_2_778
10
24.6083859
20
6.2065755
11
24.5903859
21
6.4229755
0
LINE
8
DEFAULT_255_2_778
10
24.5903859
20
6.4229755
11
25.6370859
21
6.4229755
0
LINE
8
DEFAULT_255_2_778
10
25.6190859
20
5.8546755
11
25.6190859
21
3.0910755
0
LINE
8
DEFAULT_255_2_778
10
25.6190859
20
3.0910755
11
25.6370859
21
2.4142755
0
LINE
8
DEFAULT_255_2_778
10
25.6370859
20
2.4142755
11
24.6580859
21
2.4142755
0
LINE
8
DEFAULT_255_2_778
10
24.6580859
20
2.4142755
11
24.6580859
21
2.7418755
0
LINE
8
DEFAULT_255_2_778
10
27.3988859
20
2.7418755
11
27.3988859
21
2.4169755
0
LINE
8
DEFAULT_255_2_778
10
27.3988859
20
2.4169755
11
26.4424859
21
2.4169755
0
LINE
8
DEFAULT_255_2_778
10
26.4694859
20
2.9852755
11
26.4694859
21
7.7556755
0
LINE
8
DEFAULT_255_2_778
10
26.4694859
20
7.7556755
11
26.4424859
21
8.4325755
0
LINE
8
DEFAULT_255_2_778
10
26.4424859
20
8.4325755
11
27.4711859
21
8.4325755
0
LINE
8
DEFAULT_255_2_778
10
27.4531859
20
7.7556755
11
27.4531859
21
6.1856755
0
LINE
8
DEFAULT_255_2_778
10
27.4536859
20
5.2051755
11
27.4536859
21
3.6414755
0
ENDSEC
0
EOF