0
SECTION
2
HEADER
9
$MEASUREMENT
70
1
0
ENDSEC
0
SECTION
2
TABLES
0
TABLE
2
LTYPE
0
LTYPE
72
65
70
64
2
CONTINUOUS
3
______
73
0
40
0
0
ENDTAB
0
TABLE
2
LAYER
0
LAYER
2
DEFAULT_255_2_778
70
0
62
255
6
CONTINUOUS
0
ENDTAB
0
ENDSEC
0
SECTION
2
ENTITIES
0
ARC
8
DEFAULT_255_2_778
10
7.1760517
20
0.7127723
40
0.4011551
50
318.5379027
51
358.2534864
0
ARC
8
DEFAULT_255_2_778
10
6.8107457
20
1.0072837
40
0.8701741
50
304.0123337
51
319.9321524
0
ARC
8
DEFAULT_255_2_778
10
6.354448
20
1.6649866
40
1.6706271
50
294.5198887
51
304.3667109
0
ARC
8
DEFAULT_255_2_778
10
5.8858252
20
2.6706248
40
2.7800714
50
288.0550938
51
294.7056242
0
ARC
8
DEFAULT_255_2_778
10
5.4676839
20
3.9412353
40
4.1177124
50
282.555475
51
288.1072672
0
ARC
8
DEFAULT_255_2_778
10
5.1434681
20
5.3842816
40
5.5967298
50
277.436998
51
282.5837933
0
ARC
8
DEFAULT_255_2_778
10
4.9713248
20
6.6693841
40
6.8933047
50
272.7023998
51
277.4732101
0
ARC
8
DEFAULT_255_2_778
10
4.933519
20
7.3449697
40
7.5699238
50
269.9901718
51
272.7471405
0
ARC
8
DEFAULT_255_2_778
10
4.926838
20
7.1641701
40
7.389126
50
264.9102597
51
270.0417362
0
ARC
8
DEFAULT_255_2_778
10
4.830363
20
6.1008122
40
6.3214025
50
260.2556626
51
264.9261918
0
ARC
8
DEFAULT_255_2_778
10
4.588711
20
4.7170795
40
4.9167348
50
254.9173769
51
260.3018788
0
ARC
8
DEFAULT_255_2_778
10
4.2036333
20
3.2974504
40
3.4458089
50
248.8319085
51
254.9574209
0
ARC
8
DEFAULT_255_2_778
10
3.7416214
20
2.11591
40
2.1771619
50
240.7573901
51
248.94184
0
ARC
8
DEFAULT_255_2_778
10
3.2649195
20
1.274716
40
1.2103078
50
228.6500703
51
240.9950311
0
ARC
8
DEFAULT_255_2_778
10
2.8510451
20
0.8140521
40
0.5910981
50
206.6345742
51
229.2656436
0
ARC
8
DEFAULT_255_2_778
10
2.640613
20
0.702895
40
0.3532005
50
180.3810563
51
205.8193643
0
ARC
8
DEFAULT_255_2_778
10
2.6885216
20
0.6883183
40
0.4012875
50
138.5498297
51
178.2538574
0
ARC
8
DEFAULT_255_2_778
10
3.0538372
20
0.3939167
40
0.870245
50
124.0247661
51
139.9433811
0
ARC
8
DEFAULT_255_2_778
10
3.5100969
20
-0.2634343
40
1.6703873
50
114.5309018
51
124.3789096
0
ARC
8
DEFAULT_255_2_778
10
3.9786559
20
-1.2684419
40
2.7792332
50
108.0641243
51
114.7164979
0
ARC
8
DEFAULT_255_2_778
10
4.3967287
20
-2.5381672
40
4.1160122
50
102.5622341
51
108.1162985
0
ARC
8
DEFAULT_255_2_778
10
4.720907
20
-3.9802595
40
5.5940907
50
97.4411048
51
102.5905296
0
ARC
8
DEFAULT_255_2_778
10
4.8930845
20
-5.2649753
40
6.8902867
50
92.7038523
51
97.4772582
0
ARC
8
DEFAULT_255_2_778
10
4.9309191
20
-5.9407299
40
7.5670761
50
89.9901468
51
92.7486373
0
ARC
8
DEFAULT_255_2_778
10
4.9375811
20
-5.7520643
40
7.3784122
50
84.9021588
51
90.0416271
0
ARC
8
DEFAULT_255_2_778
10
5.0338026
20
-4.6932177
40
6.3152043
50
80.2426644
51
84.9180833
0
ARC
8
DEFAULT_255_2_778
10
5.2750724
20
-3.3135714
40
4.9146277
50
74.9017921
51
80.2888682
0
ARC
8
DEFAULT_255_2_778
10
5.6599086
20
-1.8963488
40
3.4460873
50
68.81644
51
74.9417254
0
ARC
8
DEFAULT_255_2_778
10
6.1219356
20
-0.7157099
40
2.1782743
50
60.7456992
51
68.9262449
0
ARC
8
DEFAULT_255_2_778
10
6.5989397
20
0.1256224
40
1.2111508
50
48.6469624
51
60.983122
0
ARC
8
DEFAULT_255_2_778
10
7.0132847
20
0.5867516
40
0.5912806
50
26.6446149
51
49.263518
0
ARC
8
DEFAULT_255_2_778
10
7.2241938
20
0.6981779
40
0.3528347
50
0.3845506
51
25.8310109
0
ARC
8
DEFAULT_255_2_778
10
7.1760517
20
0.7127723
40
0.4011551
50
318.5379027
51
358.2534864
0
ARC
8
DEFAULT_255_2_778
10
6.8107457
20
1.0072837
40
0.8701741
50
304.0123337
51
319.9321524
0
ARC
8
DEFAULT_255_2_778
10
6.354448
20
1.6649866
40
1.6706271
50
294.5198887
51
304.3667109
0
ARC
8
DEFAULT_255_2_778
10
5.8858252
20
2.6706248
40
2.7800714
50
288.0550938
51
294.7056242
0
ARC
8
DEFAULT_255_2_778
10
5.4676839
20
3.9412353
40
4.1177124
50
282.555475
51
288.1072672
0
ARC
8
DEFAULT_255_2_778
10
5.1434681
20
5.3842816
40
5.5967298
50
277.436998
51
282.5837933
0
ARC
8
DEFAULT_255_2_778
10
4.9713248
20
6.6693841
40
6.8933047
50
272.7023998
51
277.4732101
0
ARC
8
DEFAULT_255_2_778
10
4.933519
20
7.3449697
40
7.5699238
50
269.9901718
51
272.7471405
0
ARC
8
DEFAULT_255_2_778
10
4.926838
20
7.1641701
40
7.389126
50
264.9102597
51
270.0417362
0
ARC
8
DEFAULT_255_2_778
10
4.830363
20
6.1008122
40
6.3214025
50
260.2556626
51
264.9261918
0
ARC
8
DEFAULT_255_2_778
10
4.588711
20
4.7170795
40
4.9167348
50
254.9173769
51
260.3018788
0
ARC
8
DEFAULT_255_2_778
10
4.2036333
20
3.2974504
40
3.4458089
50
248.8319085
51
254.9574209
0
ARC
8
DEFAULT_255_2_778
10
3.7416214
20
2.11591
40
2.1771619
50
240.7573901
51
248.94184
0
ARC
8
DEFAULT_255_2_778
10
3.2649195
20
1.274716
40
1.2103078
50
228.6500703
51
240.9950311
0
ARC
8
DEFAULT_255_2_778
10
2.8510451
20
0.8140521
40
0.5910981
50
206.6345742
51
229.2656436
0
ARC
8
DEFAULT_255_2_778
10
2.640613
20
0.702895
40
0.3532005
50
180.3810563
51
205.8193643
0
ARC
8
DEFAULT_255_2_778
10
2.6885216
20
0.6883183
40
0.4012875
50
138.5498297
51
178.2538574
0
ARC
8
DEFAULT_255_2_778
10
3.0538372
20
0.3939167
40
0.870245
50
124.0247661
51
139.9433811
0
ARC
8
DEFAULT_255_2_778
10
3.5100969
20
-0.2634343
40
1.6703873
50
114.5309018
51
124.3789096
0
ARC
8
DEFAULT_255_2_778
10
3.9786559
20
-1.2684419
40
2.7792332
50
108.0641243
51
114.7164979
0
ARC
8
DEFAULT_255_2_778
10
4.3967287
20
-2.5381672
40
4.1160122
50
102.5622341
51
108.1162985
0
ARC
8
DEFAULT_255_2_778
10
4.720907
20
-3.9802595
40
5.5940907
50
97.4411048
51
102.5905296
0
ARC
8
DEFAULT_255_2_778
10
4.8930845
20
-5.2649753
40
6.8902867
50
92.7038523
51
97.4772582
0
ARC
8
DEFAULT_255_2_778
10
4.9309191
20
-5.9407299
40
7.5670761
50
89.9901468
51
92.7486373
0
ARC
8
DEFAULT_255_2_778
10
4.9375811
20
-5.7520643
40
7.3784122
50
84.9021588
51
90.0416271
0
ARC
8
DEFAULT_255_2_778
10
5.0338026
20
-4.6932177
40
6.3152043
50
80.2426644
51
84.9180833
0
ARC
8
DEFAULT_255_2_778
10
5.2750724
20
-3.3135714
40
4.9146277
50
74.9017921
51
80.2888682
0
ARC
8
DEFAULT_255_2_778
10
5.6599086
20
-1.8963488
40
3.4460873
50
68.81644
51
74.9417254
0
ARC
8
DEFAULT_255_2_778
10
6.1219356
20
-0.7157099
40
2.1782743
50
60.7456992
51
68.9262449
0
ARC
8
DEFAULT_255_2_778
10
6.5989397
20
0.1256224
40
1.2111508
50
48.6469624
51
60.983122
0
ARC
8
DEFAULT_255_2_778
10
7.0132847
20
0.5867516
40
0.5912806
50
26.6446149
51
49.263518
0
ARC
8
DEFAULT_255_2_778
10
7.2241938
20
0.6981779
40
0.3528347
50
0.3845506
51
25.8310109
0
ARC
8
DEFAULT_255_2_778
10
1.9025526
20
3.1433453
40
0.0691202
50
169.0525815
51
172.473803
0
ARC
8
DEFAULT_255_2_778
10
1.9433302
20
3.1373247
40
0.1103366
50
172.1478495
51
173.1852015
0
ARC
8
DEFAULT_255_2_778
10
1.9661969
20
3.1348042
40
0.133341
50
173.2757204
51
180.0367844
0
ARC
8
DEFAULT_255_2_778
10
1.948846
20
3.1337706
40
0.1159939
50
179.5317287
51
197.6708597
0
ARC
8
DEFAULT_255_2_778
10
1.9123538
20
3.1216674
40
0.0775511
50
197.3347047
51
249.5877127
0
ARC
8
DEFAULT_255_2_778
10
1.9256107
20
3.1524949
40
0.111079
50
248.7249371
51
259.5116552
0
ARC
8
DEFAULT_255_2_778
10
1.9089542
20
3.1298687
40
0.0866703
50
267.6433506
51
309.797715
0
ARC
8
DEFAULT_255_2_778
10
1.9112211
20
3.1186542
40
0.0767958
50
313.8571801
51
351.3901564
0
ARC
8
DEFAULT_255_2_778
10
1.8629295
20
3.1294304
40
0.126203
50
349.8349313
51
0.2231429
0
ARC
8
DEFAULT_255_2_778
10
1.8381285
20
3.1298415
40
0.1510031
50
0.0304956
51
11.5072314
0
ARC
8
DEFAULT_255_2_778
10
1.8760991
20
3.1370422
40
0.1123604
50
11.7718156
51
12.531588
0
ARC
8
DEFAULT_255_2_778
10
1.8858485
20
3.1392482
40
0.1023647
50
12.5102869
51
12.9980025
0
LINE
8
DEFAULT_255_2_778
10
1.9111903
20
3.4223718
11
1.8346903
21
3.1564718
0
LINE
8
DEFAULT_255_2_778
10
1.9855903
20
3.1622718
11
1.9109903
21
3.4223718
0
LINE
8
DEFAULT_255_2_778
10
1.9109903
20
3.4223718
11
1.9111903
21
3.4223718
0
ARC
8
DEFAULT_255_2_778
10
8.3734827
20
-1.6031279
40
6.2973126
50
78.7047875
51
80.0080648
0
ARC
8
DEFAULT_255_2_778
10
8.1688782
20
-2.861682
40
7.5722968
50
80.1357123
51
85.371886
0
ARC
8
DEFAULT_255_2_778
10
8.0211357
20
-4.5173099
40
9.2344576
50
85.287061
51
87.8756759
0
ARC
8
DEFAULT_255_2_778
10
7.9859026
20
-5.4028552
40
10.1207005
50
87.8621817
51
89.7606368
0
ARC
8
DEFAULT_255_2_778
10
7.9830897
20
-5.6994235
40
10.4172782
50
89.7519805
51
89.9999578
0
ARC
8
DEFAULT_255_2_778
10
7.9832526
20
-5.7826404
40
10.500495
50
90.0008472
51
90.9499507
0
ARC
8
DEFAULT_255_2_778
10
7.9829021
20
-5.7707719
40
10.4886223
50
90.9491111
51
91.6804354
0
ARC
8
DEFAULT_255_2_778
10
7.9772968
20
-5.5830185
40
10.3007853
50
91.6798956
51
92.3623882
0
ARC
8
DEFAULT_255_2_778
10
4.9554351
20
5.4045725
40
2.6887903
50
345.0077172
51
354.9560561
0
ARC
8
DEFAULT_255_2_778
10
2.3010922
20
5.6509362
40
5.3545282
50
354.8272183
51
0.2134975
0
ARC
8
DEFAULT_255_2_778
10
-0.6612739
20
5.6879984
40
8.3168748
50
359.882127
51
0.000095
0
ARC
8
DEFAULT_255_2_778
10
5.7845917
20
5.6966236
40
1.8710289
50
359.7362957
51
14.6789402
0
ARC
8
DEFAULT_255_2_778
10
5.9356392
20
5.725657
40
1.7175847
50
15.0188633
51
45.5565316
0
ARC
8
DEFAULT_255_2_778
10
6.018828
20
7.2986381
40
1.1719378
50
342.7910697
51
344.1746977
0
ARC
8
DEFAULT_255_2_778
10
5.9748681
20
7.3112627
40
1.2176744
50
344.1672667
51
344.6407899
0
ARC
8
DEFAULT_255_2_778
10
5.8770052
20
7.337079
40
1.3188804
50
344.6853872
51
349.0061085
0
ARC
8
DEFAULT_255_2_778
10
5.7444395
20
7.3629827
40
1.4539531
50
349.0003006
51
354.0868721
0
ARC
8
DEFAULT_255_2_778
10
5.6423073
20
7.3736498
40
1.5566408
50
354.0836102
51
359.8351339
0
ARC
8
DEFAULT_255_2_778
10
5.6065586
20
7.3745248
40
1.5923921
50
359.8073502
51
0.0023241
0
ARC
8
DEFAULT_255_2_778
10
5.5435256
20
7.3736443
40
1.6554255
50
0.0327101
51
6.5184867
0
ARC
8
DEFAULT_255_2_778
10
5.429413
20
7.3604555
40
1.7702976
50
6.52331
51
13.1184224
0
ARC
8
DEFAULT_255_2_778
10
5.2748964
20
7.3240476
40
1.9290453
50
13.1299476
51
19.9429416
0
ARC
8
DEFAULT_255_2_778
10
5.146678
20
7.2795654
40
2.0647478
50
19.8897017
51
21.804956
0
ARC
8
DEFAULT_255_2_778
10
7.0436468
20
7.9803298
40
0.069154
50
73.1425979
51
76.022001
0
ARC
8
DEFAULT_255_2_778
10
7.0152763
20
7.8683164
40
0.184704
50
75.8750685
51
79.2688601
0
ARC
8
DEFAULT_255_2_778
10
6.9968281
20
7.774286
40
0.2805257
50
79.1428405
51
81.2109676
0
ARC
8
DEFAULT_255_2_778
10
6.982558
20
7.680004
40
0.3758812
50
81.2572151
51
84.57492
0
ARC
8
DEFAULT_255_2_778
10
6.9708578
20
7.5574804
40
0.4989621
50
84.5675781
51
88.015467
0
ARC
8
DEFAULT_255_2_778
10
6.9667127
20
7.4528086
40
0.6037149
50
87.9663237
51
90.0237628
0
ARC
8
DEFAULT_255_2_778
10
6.9699074
20
7.2531686
40
0.8033622
50
90.2457046
51
97.260319
0
ARC
8
DEFAULT_255_2_778
10
7.0129143
20
6.9052302
40
1.1539467
50
97.1952977
51
103.1991311
0
ARC
8
DEFAULT_255_2_778
10
7.1122271
20
6.4805841
40
1.5900514
50
103.1892974
51
108.8555683
0
ARC
8
DEFAULT_255_2_778
10
7.2890681
20
5.9589177
40
2.1408757
50
108.8223031
51
113.5989588
0
ARC
8
DEFAULT_255_2_778
10
7.5562432
20
5.345214
40
2.8102145
50
113.5815435
51
117.761224
0
ARC
8
DEFAULT_255_2_778
10
7.9306192
20
4.6316041
40
3.6160652
50
117.7436855
51
121.3163518
0
ARC
8
DEFAULT_255_2_778
10
8.3725332
20
3.9005456
40
4.4703073
50
121.2850092
51
123.8435057
0
ARC
8
DEFAULT_255_2_778
10
4.8904658
20
3.5631654
40
4.1700631
50
76.2320373
51
90.1602748
0
ARC
8
DEFAULT_255_2_778
10
4.8788249
20
3.2959775
40
4.4372347
50
90.0003116
51
92.001019
0
ARC
8
DEFAULT_255_2_778
10
4.8589187
20
3.5457348
40
4.1869495
50
91.8481195
51
105.105651
0
ARC
8
DEFAULT_255_2_778
10
1.2016267
20
3.834807
40
4.546625
50
55.6384634
51
58.8403667
0
ARC
8
DEFAULT_255_2_778
10
1.7097715
20
4.6772763
40
3.5627735
50
58.8230017
51
62.6259075
0
ARC
8
DEFAULT_255_2_778
10
2.0880478
20
5.4091763
40
2.7388984
50
62.6131846
51
66.9145906
0
ARC
8
DEFAULT_255_2_778
10
2.3522958
20
6.0315874
40
2.0627169
50
66.8878759
51
71.9849121
0
ARC
8
DEFAULT_255_2_778
10
2.5209642
20
6.5521663
40
1.5154958
50
71.9622796
51
77.7267377
0
ARC
8
DEFAULT_255_2_778
10
2.6130984
20
6.9795039
40
1.07834
50
77.6835598
51
84.3468215
0
ARC
8
DEFAULT_255_2_778
10
2.6449034
20
7.2920495
40
0.764182
50
84.4114938
51
89.8509917
0
ARC
8
DEFAULT_255_2_778
10
2.6462825
20
7.4767673
40
0.579462
50
89.9398565
51
93.2373287
0
ARC
8
DEFAULT_255_2_778
10
2.6389837
20
7.6036387
40
0.4523809
50
93.2218109
51
96.6792979
0
ARC
8
DEFAULT_255_2_778
10
2.6276746
20
7.7027716
40
0.3526055
50
96.7277284
51
98.8062278
0
ARC
8
DEFAULT_255_2_778
10
2.6129402
20
7.7954684
40
0.2587461
50
98.7244062
51
102.0262184
0
ARC
8
DEFAULT_255_2_778
10
2.5881477
20
7.9107644
40
0.1408147
50
101.9345127
51
105.2934772
0
ARC
8
DEFAULT_255_2_778
10
2.562262
20
8.0055422
40
0.0425657
50
105.333768
51
107.163701
0
ARC
8
DEFAULT_255_2_778
10
4.4056042
20
7.3022983
40
1.9994462
50
158.1572836
51
164.3355414
0
ARC
8
DEFAULT_255_2_778
10
4.244419
20
7.3478067
40
1.8319601
50
164.3448491
51
170.4072359
0
ARC
8
DEFAULT_255_2_778
10
4.1237602
20
7.3683426
40
1.7095662
50
170.4119854
51
176.4889139
0
ARC
8
DEFAULT_255_2_778
10
4.0454241
20
7.3737513
40
1.6310461
50
176.5100293
51
179.990285
0
ARC
8
DEFAULT_255_2_778
10
3.9767291
20
7.3733817
40
1.5623512
50
179.9763045
51
185.2432462
0
ARC
8
DEFAULT_255_2_778
10
3.8870561
20
7.3651273
40
1.4722991
50
185.2422652
51
189.9129143
0
ARC
8
DEFAULT_255_2_778
10
3.7765187
20
7.3456938
40
1.3600665
50
189.9081043
51
194.0244575
0
ARC
8
DEFAULT_255_2_778
10
3.6813134
20
7.3225716
40
1.2620959
50
194.0534502
51
195.3420693
0
ARC
8
DEFAULT_255_2_778
10
3.5887993
20
7.2967001
40
1.1660336
50
195.3188792
51
198.0244277
0
ARC
8
DEFAULT_255_2_778
10
3.4447726
20
7.2499179
40
1.0145995
50
198.0288719
51
200.1194774
0
ARC
8
DEFAULT_255_2_778
10
3.2864522
20
7.1918225
40
0.8459568
50
200.1132882
51
202.0372124
0
ARC
8
DEFAULT_255_2_778
10
3.7371664
20
5.7119507
40
1.6959392
50
136.7299202
51
179.9985039
0
ARC
8
DEFAULT_255_2_778
10
3.740808
20
5.7120034
40
1.6995809
50
180.0002849
51
180.8189257
0
ARC
8
DEFAULT_255_2_778
10
5.7586281
20
5.6668657
40
3.7172857
50
179.6786846
51
187.6366807
0
ARC
8
DEFAULT_255_2_778
10
4.3881617
20
5.4806588
40
2.3342305
50
187.5769639
51
199.2544893
0
ARC
8
DEFAULT_255_2_778
10
1.8092217
20
-5.5948769
40
10.3126196
50
87.9145304
51
88.6514994
0
ARC
8
DEFAULT_255_2_778
10
1.8057745
20
-5.7335585
40
10.451344
50
88.6504985
51
89.3049319
0
ARC
8
DEFAULT_255_2_778
10
1.8057661
20
-5.7299898
40
10.4477756
50
89.3046482
51
89.9994418
0
ARC
8
DEFAULT_255_2_778
10
1.8045571
20
-5.4599822
40
10.1777681
50
89.9926209
51
91.8863862
0
ARC
8
DEFAULT_255_2_778
10
1.7753879
20
-4.63766
40
9.3549315
50
91.87362
51
94.4104192
0
ARC
8
DEFAULT_255_2_778
10
1.6470719
20
-3.0909085
40
7.8028978
50
94.3444045
51
99.0886973
0
ARC
8
DEFAULT_255_2_778
10
1.480981
20
-1.9739413
40
6.6737296
50
99.1954476
51
100.0067718
0
ARC
8
DEFAULT_255_2_778
10
1.4172175
20
-1.6152365
40
6.309402
50
100.002565
51
101.2834587
0
ARC
8
DEFAULT_255_2_778
10
1.4170253
20
-1.605452
40
6.2644879
50
99.9959672
51
101.2992745
0
ARC
8
DEFAULT_255_2_778
10
1.6203891
20
-2.8559492
40
7.531321
50
94.6306312
51
99.868287
0
ARC
8
DEFAULT_255_2_778
10
1.7672854
20
-4.5012774
40
9.1831478
50
92.125672
51
94.7154005
0
ARC
8
DEFAULT_255_2_778
10
1.8022908
20
-5.3805333
40
10.0630974
50
90.2396102
51
92.1391567
0
ARC
8
DEFAULT_255_2_778
10
1.8050229
20
-5.6702868
40
10.3528598
50
89.9997795
51
90.2480241
0
ARC
8
DEFAULT_255_2_778
10
1.8049147
20
-5.7548766
40
10.4374497
50
89.1379287
51
89.9991876
0
ARC
8
DEFAULT_255_2_778
10
1.8050539
20
-5.7528552
40
10.4354264
50
88.4694421
51
89.138526
0
ARC
8
DEFAULT_255_2_778
10
1.8088642
20
-5.6144683
40
10.2969871
50
87.8414407
51
88.4700687
0
ARC
8
DEFAULT_255_2_778
10
3.9116773
20
5.3254459
40
1.834107
50
200.7642334
51
206.6068357
0
ARC
8
DEFAULT_255_2_778
10
2.6043117
20
-5.7677279
40
10.2771207
50
91.854099
51
93.2328162
0
ARC
8
DEFAULT_255_2_778
10
2.6123274
20
-5.9299086
40
10.4394952
50
93.2265428
51
95.0301666
0
ARC
8
DEFAULT_255_2_778
10
2.5593005
20
-5.3548548
40
9.8620072
50
95.016213
51
97.5582208
0
ARC
8
DEFAULT_255_2_778
10
2.3607039
20
-3.9169391
40
8.410466
50
97.5055131
51
101.8817412
0
ARC
8
DEFAULT_255_2_778
10
2.0993158
20
-2.6282512
40
7.0955772
50
101.9588011
51
103.7550287
0
ARC
8
DEFAULT_255_2_778
10
1.9354148
20
-1.9596857
40
6.4072146
50
103.7529279
51
105.7354763
0
ARC
8
DEFAULT_255_2_778
10
1.9393797
20
-1.9774204
40
6.3901541
50
103.7317184
51
105.727015
0
ARC
8
DEFAULT_255_2_778
10
2.2529631
20
-3.3207732
40
7.7695612
50
98.626994
51
103.6265661
0
ARC
8
DEFAULT_255_2_778
10
2.5146153
20
-4.9696297
40
9.4390174
50
95.8155869
51
98.6959591
0
ARC
8
DEFAULT_255_2_778
10
2.6009873
20
-5.7843018
40
10.2582486
50
93.8534615
51
95.8344607
0
ARC
8
DEFAULT_255_2_778
10
2.6077296
20
-5.8634023
40
10.3376234
50
92.3576741
51
93.8612828
0
ARC
8
DEFAULT_255_2_778
10
2.5905287
20
-5.4564887
40
9.9303466
50
91.7336635
51
92.3550955
0
ARC
8
DEFAULT_255_2_778
10
3.6565546
20
5.199028
40
1.5490904
50
208.103177
51
234.9548007
0
ARC
8
DEFAULT_255_2_778
10
3.9026201
20
5.5474395
40
1.9756316
50
234.9145493
51
247.0891087
0
ARC
8
DEFAULT_255_2_778
10
4.2064917
20
6.257159
40
2.7476616
50
247.0139038
51
255.473177
0
ARC
8
DEFAULT_255_2_778
10
4.4927585
20
7.3459163
40
3.8734191
50
255.4137359
51
261.6094001
0
ARC
8
DEFAULT_255_2_778
10
4.6661476
20
8.4388815
40
4.9800011
50
261.4707982
51
263.9179154
0
ARC
8
DEFAULT_255_2_778
10
4.5923704
20
2.8115798
40
0.8136778
50
123.9038031
51
124.9759462
0
ARC
8
DEFAULT_255_2_778
10
4.573421
20
2.8366606
40
0.7822652
50
124.891724
51
144.0430498
0
ARC
8
DEFAULT_255_2_778
10
4.630226
20
2.7999448
40
0.8498129
50
144.2881094
51
161.6755823
0
ARC
8
DEFAULT_255_2_778
10
4.7947118
20
2.7407399
40
1.0245816
50
161.4245573
51
167.9514105
0
ARC
8
DEFAULT_255_2_778
10
3.275947
20
4.0367787
40
1.1992159
50
293.818332
51
295.5253089
0
ARC
8
DEFAULT_255_2_778
10
3.2499821
20
4.0953674
40
1.2633003
50
291.8489956
51
293.8225562
0
ARC
8
DEFAULT_255_2_778
10
3.243754
20
4.1106237
40
1.2797785
50
290.5617447
51
291.8536039
0
ARC
8
DEFAULT_255_2_778
10
3.2525988
20
4.0857735
40
1.2534051
50
285.6709953
51
290.5821507
0
ARC
8
DEFAULT_255_2_778
10
3.2877211
20
3.9557467
40
1.1187252
50
277.9461997
51
285.7378418
0
ARC
8
DEFAULT_255_2_778
10
3.3114421
20
3.7878637
40
0.949175
50
270.1043766
51
277.929021
0
ARC
8
DEFAULT_255_2_778
10
3.3110798
20
3.6464051
40
0.8077174
50
258.9524913
51
270.1483568
0
ARC
8
DEFAULT_255_2_778
10
3.2989062
20
3.5756657
40
0.735958
50
253.727033
51
258.8273602
0
ARC
8
DEFAULT_255_2_778
10
3.2914132
20
3.5504551
40
0.709658
50
237.8642936
51
253.7374026
0
ARC
8
DEFAULT_255_2_778
10
3.3263526
20
3.6035447
40
0.7731999
50
225.3318638
51
237.7645062
0
ARC
8
DEFAULT_255_2_778
10
3.4398243
20
3.7183803
40
0.9346403
50
215.6394296
51
225.3336644
0
ARC
8
DEFAULT_255_2_778
10
3.6068322
20
3.8405675
40
1.1415657
50
210.0795667
51
215.7392567
0
ARC
8
DEFAULT_255_2_778
10
2.3390227
20
3.1121659
40
0.3206254
50
29.1644074
51
31.2469522
0
ARC
8
DEFAULT_255_2_778
10
2.0083758
20
2.9130207
40
0.7066118
50
31.1448946
51
34.079596
0
ARC
8
DEFAULT_255_2_778
10
1.8214766
20
2.7871896
40
0.9319218
50
34.0484284
51
38.4264338
0
ARC
8
DEFAULT_255_2_778
10
1.7859145
20
2.76019
40
0.9765625
50
38.3706654
51
45.0580615
0
ARC
8
DEFAULT_255_2_778
10
1.8182225
20
2.7918648
40
0.9313203
50
45.088425
51
46.9217299
0
ARC
8
DEFAULT_255_2_778
10
1.8835597
20
2.8657996
40
0.8326963
50
46.7308892
51
59.0933908
0
ARC
8
DEFAULT_255_2_778
10
1.9608807
20
2.9958667
40
0.6813828
50
59.0542186
51
77.2760245
0
ARC
8
DEFAULT_255_2_778
10
1.9716244
20
3.0325812
40
0.6432079
50
77.4892189
51
85.7402416
0
ARC
8
DEFAULT_255_2_778
10
2.0182644
20
3.5792821
40
0.094737
50
89.3126851
51
89.6080831
0
ARC
8
DEFAULT_255_2_778
10
2.0175693
20
3.4786793
40
0.1953422
50
89.606055
51
90.0239076
0
ARC
8
DEFAULT_255_2_778
10
2.0184968
20
3.244438
40
0.4295847
50
90.134577
51
92.3083275
0
ARC
8
DEFAULT_255_2_778
10
2.0209965
20
3.1589928
40
0.5150618
50
92.203333
51
96.7526741
0
ARC
8
DEFAULT_255_2_778
10
2.0067221
20
3.2782862
40
0.3949175
50
96.7311508
51
101.1340759
0
ARC
8
DEFAULT_255_2_778
10
1.9532412
20
3.5082796
40
0.1591299
50
98.2302954
51
126.4318556
0
ARC
8
DEFAULT_255_2_778
10
1.8878175
20
3.6002834
40
0.0462972
50
128.9083393
51
179.515769
0
ARC
8
DEFAULT_255_2_778
10
1.9166388
20
3.6039498
40
0.0751882
50
182.4965469
51
212.4500849
0
ARC
8
DEFAULT_255_2_778
10
2.0290944
20
3.6693847
40
0.2052589
50
211.0202187
51
223.9668962
0
ARC
8
DEFAULT_255_2_778
10
2.2158843
20
3.8445925
40
0.4613498
50
223.5231197
51
230.6545212
0
ARC
8
DEFAULT_255_2_778
10
2.4831699
20
4.1665288
40
0.8797766
50
230.4854574
51
234.9592121
0
ARC
8
DEFAULT_255_2_778
10
2.6933495
20
4.4589161
40
1.2398506
50
234.764834
51
235.6070598
0
ARC
8
DEFAULT_255_2_778
10
1.8926512
20
3.2332867
40
0.2260235
50
58.6651416
51
63.6419806
0
ARC
8
DEFAULT_255_2_778
10
1.7327362
20
2.9664424
40
0.5371131
50
52.3123522
51
58.8976139
0
ARC
8
DEFAULT_255_2_778
10
1.5735929
20
2.7587822
40
0.79874
50
44.8554212
51
52.3851933
0
ARC
8
DEFAULT_255_2_778
10
1.4076465
20
2.5927988
40
1.0334493
50
37.0765512
51
44.8897101
0
ARC
8
DEFAULT_255_2_778
10
1.2511721
20
2.4720088
40
1.2311131
50
32.3726768
51
37.1712319
0
ARC
8
DEFAULT_255_2_778
10
1.1143625
20
2.3849588
40
1.3932688
50
28.1658722
51
32.3837746
0
ARC
8
DEFAULT_255_2_778
10
0.9585984
20
2.3015624
40
1.5699533
50
24.0351344
51
28.165736
0
ARC
8
DEFAULT_255_2_778
10
0.80125
20
2.2306674
40
1.7425345
50
21.2776604
51
24.0568553
0
ARC
8
DEFAULT_255_2_778
10
2.6464128
20
2.9315416
40
0.2317748
50
197.1978628
51
199.7921959
0
ARC
8
DEFAULT_255_2_778
10
2.9280972
20
3.0317155
40
0.5307403
50
199.6707709
51
203.2872061
0
ARC
8
DEFAULT_255_2_778
10
3.1130915
20
3.1107306
40
0.731902
50
203.2435554
51
207.9253237
0
ARC
8
DEFAULT_255_2_778
10
3.2044793
20
3.1587112
40
0.8351188
50
207.8975302
51
214.1136651
0
ARC
8
DEFAULT_255_2_778
10
3.2298255
20
3.1754354
40
0.8654831
50
214.0892578
51
222.1542754
0
ARC
8
DEFAULT_255_2_778
10
3.2298799
20
3.1754331
40
0.8655219
50
222.151749
51
223.8034286
0
ARC
8
DEFAULT_255_2_778
10
3.2300326
20
3.1756198
40
0.8657615
50
223.8053534
51
234.1108682
0
ARC
8
DEFAULT_255_2_778
10
3.2457324
20
3.1982663
40
0.8933122
50
234.1465623
51
244.7878146
0
ARC
8
DEFAULT_255_2_778
10
3.2822996
20
3.2771694
40
0.9802754
50
244.8186054
51
254.6097201
0
ARC
8
DEFAULT_255_2_778
10
3.3246259
20
3.4322765
40
1.1410535
50
254.6275828
51
263.4641535
0
ARC
8
DEFAULT_255_2_778
10
3.3513747
20
3.6582831
40
1.3686362
50
263.4285804
51
270.1022613
0
ARC
8
DEFAULT_255_2_778
10
3.3529591
20
3.8760421
40
1.5863932
50
270.0309981
51
273.4282027
0
ARC
8
DEFAULT_255_2_778
10
3.3413148
20
4.0693733
40
1.7800749
50
273.4302229
51
276.7604248
0
ARC
8
DEFAULT_255_2_778
10
3.3146277
20
4.2955314
40
2.0078021
50
276.7569604
51
279.76466
0
ARC
8
DEFAULT_255_2_778
10
3.2703126
20
4.5531637
40
2.2692179
50
279.7641114
51
282.6019055
0
ARC
8
DEFAULT_255_2_778
10
3.5119375
20
1.5658426
40
0.2546572
50
350.7239066
51
354.4496765
0
ARC
8
DEFAULT_255_2_778
10
3.2773259
20
1.602572
40
0.4921238
50
344.6137672
51
350.9065221
0
ARC
8
DEFAULT_255_2_778
10
3.2417077
20
1.6107668
40
0.5286421
50
333.5531064
51
344.7816799
0
ARC
8
DEFAULT_255_2_778
10
3.2863814
20
1.5893873
40
0.4791224
50
328.3833652
51
333.4629235
0
ARC
8
DEFAULT_255_2_778
10
3.3350403
20
1.5573719
40
0.420906
50
309.6794726
51
328.6222441
0
ARC
8
DEFAULT_255_2_778
10
3.3470016
20
1.5464184
40
0.4048447
50
290.6923521
51
309.3664193
0
ARC
8
DEFAULT_255_2_778
10
3.3331795
20
1.5787415
40
0.4399693
50
289.9643861
51
290.8888722
0
ARC
8
DEFAULT_255_2_778
10
3.5773123
20
1.0327934
40
0.1623395
50
125.3442986
51
128.6165143
0
ARC
8
DEFAULT_255_2_778
10
3.6229282
20
0.9738045
40
0.236902
50
128.3326402
51
136.4869241
0
ARC
8
DEFAULT_255_2_778
10
3.519724
20
1.0621591
40
0.101463
50
132.5411918
51
173.8499699
0
ARC
8
DEFAULT_255_2_778
10
3.4690395
20
1.0729709
40
0.0501947
50
179.93356
51
190.5681533
0
ARC
8
DEFAULT_255_2_778
10
3.4787582
20
1.0767993
40
0.0604831
50
192.4450871
51
232.5714382
0
ARC
8
DEFAULT_255_2_778
10
3.5356693
20
1.1450195
40
0.1492933
50
231.1392198
51
247.8127624
0
ARC
8
DEFAULT_255_2_778
10
3.5839565
20
1.2502554
40
0.2650186
50
246.7379923
51
250.387425
0
ARC
8
DEFAULT_255_2_778
10
3.5090327
20
1.1783322
40
0.1782731
50
265.4855845
51
266.1472882
0
ARC
8
DEFAULT_255_2_778
10
3.524667
20
1.4053753
40
0.4058537
50
266.0987907
51
266.7672683
0
ARC
8
DEFAULT_255_2_778
10
3.5356273
20
1.5977394
40
0.5985298
50
266.7581625
51
267.4583508
0
ARC
8
DEFAULT_255_2_778
10
3.5428997
20
1.7622676
40
0.7632188
50
267.460664
51
268.358898
0
ARC
8
DEFAULT_255_2_778
10
3.54665
20
1.8901412
40
0.8911473
50
268.3533311
51
269.1537018
0
ARC
8
DEFAULT_255_2_778
10
3.5479239
20
1.9746614
40
0.975677
50
269.152211
51
270.0060643
0
ARC
8
DEFAULT_255_2_778
10
3.5474874
20
2.0825795
40
1.0835952
50
270.0285419
51
273.1455043
0
ARC
8
DEFAULT_255_2_778
10
3.5476223
20
2.0921062
40
1.0931003
50
273.111042
51
277.5295611
0
ARC
8
DEFAULT_255_2_778
10
3.5697814
20
1.9391962
40
0.9386071
50
277.4116825
51
285.5887975
0
ARC
8
DEFAULT_255_2_778
10
3.6065202
20
1.7986141
40
0.793327
50
285.7615145
51
288.1389546
0
ARC
8
DEFAULT_255_2_778
10
3.7020702
20
1.5587473
40
0.5358762
50
286.4145502
51
320.3933476
0
ARC
8
DEFAULT_255_2_778
10
3.7672453
20
1.4865724
40
0.4398748
50
322.224567
51
344.6945501
0
ARC
8
DEFAULT_255_2_778
10
3.6362368
20
1.5222189
40
0.5756462
50
344.7143978
51
359.0810683
0
ARC
8
DEFAULT_255_2_778
10
3.5036745
20
1.5294695
40
0.7083263
50
358.6666131
51
0.0034516
0
ARC
8
DEFAULT_255_2_778
10
4.4418349
20
2.4173273
40
0.2305469
50
183.7559777
51
184.5066352
0
ARC
8
DEFAULT_255_2_778
10
4.7401728
20
2.4373219
40
0.529554
50
182.9046393
51
183.8001602
0
ARC
8
DEFAULT_255_2_778
10
4.8819707
20
2.4449423
40
0.6715559
50
182.6133695
51
182.9409117
0
ARC
8
DEFAULT_255_2_778
10
5.0353444
20
2.4516682
40
0.8250768
50
181.3694308
51
182.5943206
0
ARC
8
DEFAULT_255_2_778
10
5.1689051
20
2.455003
40
0.9586792
50
179.9897975
51
181.3779108
0
ARC
8
DEFAULT_255_2_778
10
5.2221054
20
2.4551293
40
1.0118796
50
176.366532
51
179.9974859
0
ARC
8
DEFAULT_255_2_778
10
5.0598911
20
2.4679926
40
0.8491799
50
168.6883392
51
176.5390794
0
ARC
8
DEFAULT_255_2_778
10
4.8888433
20
2.4991383
40
0.6753525
50
166.9267627
51
168.4330096
0
ARC
8
DEFAULT_255_2_778
10
4.5903441
20
2.5885458
40
0.3648915
50
133.2022838
51
170.0012718
0
ARC
8
DEFAULT_255_2_778
10
4.4804558
20
2.6842588
40
0.2203782
50
125.3024892
51
129.409077
0
ARC
8
DEFAULT_255_2_778
10
3.9070507
20
1.4526566
40
0.446419
50
356.0209754
51
357.6706059
0
ARC
8
DEFAULT_255_2_778
10
3.4118355
20
1.4861177
40
0.9427629
50
353.1195084
51
356.0807302
0
ARC
8
DEFAULT_255_2_778
10
3.2866007
20
1.4996167
40
1.068714
50
347.9612107
51
353.2053504
0
ARC
8
DEFAULT_255_2_778
10
3.4787876
20
1.4570896
40
0.8718853
50
341.1182822
51
348.0602208
0
ARC
8
DEFAULT_255_2_778
10
3.8896394
20
1.2968899
40
0.4317005
50
309.6319032
51
343.5904638
0
ARC
8
DEFAULT_255_2_778
10
4.2903981
20
0.8959966
40
0.1428467
50
151.3835216
51
153.5158596
0
ARC
8
DEFAULT_255_2_778
10
4.4005299
20
0.840573
40
0.2661377
50
153.4094976
51
157.4297213
0
ARC
8
DEFAULT_255_2_778
10
4.4078121
20
0.8372645
40
0.2741322
50
157.3753645
51
159.1221453
0
ARC
8
DEFAULT_255_2_778
10
4.3368326
20
0.8615936
40
0.1991592
50
158.3845627
51
173.8548219
0
ARC
8
DEFAULT_255_2_778
10
4.257928
20
0.8724221
40
0.1195712
50
174.9664547
51
179.917208
0
ARC
8
DEFAULT_255_2_778
10
4.2006109
20
0.8675567
40
0.0624576
50
175.3731922
51
253.447565
0
ARC
8
DEFAULT_255_2_778
10
4.2242207
20
0.9404184
40
0.1390388
50
252.6754389
51
271.281179
0
ARC
8
DEFAULT_255_2_778
10
4.2261253
20
1.0720113
40
0.2705998
50
270.2549708
51
276.75756
0
ARC
8
DEFAULT_255_2_778
10
4.2092495
20
1.2182383
40
0.417797
50
276.6961502
51
281.5685933
0
ARC
8
DEFAULT_255_2_778
10
4.1845094
20
1.3460982
40
0.5480225
50
281.4218489
51
282.8083484
0
ARC
8
DEFAULT_255_2_778
10
4.2686507
20
1.0520866
40
0.2432589
50
278.8321512
51
281.897718
0
ARC
8
DEFAULT_255_2_778
10
4.2121656
20
1.3262315
40
0.5231611
50
281.7611001
51
286.4927216
0
ARC
8
DEFAULT_255_2_778
10
4.1752837
20
1.4537894
40
0.6559419
50
286.4186124
51
293.1434193
0
ARC
8
DEFAULT_255_2_778
10
4.1735981
20
1.4600009
40
0.6623166
50
293.066305
51
303.5020813
0
ARC
8
DEFAULT_255_2_778
10
4.1890748
20
1.4354995
40
0.6333434
50
303.5580378
51
306.4028402
0
ARC
8
DEFAULT_255_2_778
10
4.2073654
20
1.4120998
40
0.6036557
50
306.3236087
51
321.6898666
0
ARC
8
DEFAULT_255_2_778
10
4.1982902
20
1.4172454
40
0.6139687
50
321.8380911
51
337.2148714
0
ARC
8
DEFAULT_255_2_778
10
4.0964523
20
1.4591422
40
0.7240858
50
337.2791259
51
349.9275387
0
ARC
8
DEFAULT_255_2_778
10
3.9154484
20
1.4929982
40
0.9082227
50
349.8216979
51
357.7986547
0
ARC
8
DEFAULT_255_2_778
10
5.8460496
20
1.4901867
40
0.8832497
50
182.1135639
51
192.373226
0
ARC
8
DEFAULT_255_2_778
10
5.6627277
20
1.4498682
40
0.6955464
50
192.3649906
51
205.304567
0
ARC
8
DEFAULT_255_2_778
10
5.5806753
20
1.4120083
40
0.6051852
50
205.3845127
51
220.9164687
0
ARC
8
DEFAULT_255_2_778
10
5.5807039
20
1.4135522
40
0.606219
50
221.0249706
51
233.6647435
0
ARC
8
DEFAULT_255_2_778
10
5.6082477
20
1.4513257
40
0.652968
50
233.6816646
51
245.1126591
0
ARC
8
DEFAULT_255_2_778
10
5.614618
20
1.4628059
40
0.6660636
50
245.0311551
51
252.4265313
0
ARC
8
DEFAULT_255_2_778
10
5.5839762
20
1.3637495
40
0.562379
50
252.3556038
51
257.4446398
0
ARC
8
DEFAULT_255_2_778
10
5.532
20
1.1289296
40
0.3218758
50
257.3890013
51
260.5684773
0
ARC
8
DEFAULT_255_2_778
10
5.4926013
20
0.8936351
40
0.0833064
50
260.7808183
51
261.6480769
0
ARC
8
DEFAULT_255_2_778
10
5.5878905
20
1.2775749
40
0.4785673
50
257.0325065
51
261.5409415
0
ARC
8
DEFAULT_255_2_778
10
5.563782
20
1.113538
40
0.3127687
50
261.4888996
51
267.4207108
0
ARC
8
DEFAULT_255_2_778
10
5.5593271
20
1.0323269
40
0.2314409
50
267.6177132
51
269.9716701
0
ARC
8
DEFAULT_255_2_778
10
5.5631186
20
0.9315653
40
0.1307377
50
268.2879719
51
290.3621675
0
ARC
8
DEFAULT_255_2_778
10
5.5859769
20
0.8670776
40
0.0623342
50
291.28944
51
4.6134501
0
ARC
8
DEFAULT_255_2_778
10
5.5283543
20
0.8719182
40
0.119755
50
0.0828144
51
5.0209117
0
ARC
8
DEFAULT_255_2_778
10
5.4494219
20
0.861104
40
0.1993684
50
6.1316106
51
21.5883095
0
ARC
8
DEFAULT_255_2_778
10
5.3771072
20
0.836289
40
0.2757633
50
20.8542752
51
25.667784
0
ARC
8
DEFAULT_255_2_778
10
5.449962
20
0.8716297
40
0.1947901
50
25.5807067
51
28.0950011
0
ARC
8
DEFAULT_255_2_778
10
5.5784841
20
0.940144
40
0.0491464
50
28.1934002
51
28.9221666
0
ARC
8
DEFAULT_255_2_778
10
5.8972345
20
1.2965624
40
0.4320708
50
196.4115168
51
230.3446733
0
ARC
8
DEFAULT_255_2_778
10
6.3626322
20
1.4725241
40
0.9289714
50
189.2436907
51
198.712775
0
ARC
8
DEFAULT_255_2_778
10
6.50462
20
1.5003882
40
1.0736016
50
185.6234961
51
189.4942154
0
ARC
8
DEFAULT_255_2_778
10
6.2206982
20
1.4735141
40
0.7884136
50
183.1716875
51
185.7017671
0
ARC
8
DEFAULT_255_2_778
10
5.7062429
20
1.4446297
40
0.2731486
50
182.2276931
51
183.0927424
0
ARC
8
DEFAULT_255_2_778
10
5.1961092
20
2.573939
40
0.3640488
50
12.273259
51
49.3423394
0
ARC
8
DEFAULT_255_2_778
10
4.8419662
20
2.46729
40
0.7333396
50
4.7077624
51
14.5341298
0
ARC
8
DEFAULT_255_2_778
10
4.6765728
20
2.4499832
40
0.8996028
50
0.5268261
51
4.9417589
0
ARC
8
DEFAULT_255_2_778
10
4.6863032
20
2.4499879
40
0.8898728
50
0.0022072
51
0.5322832
0
ARC
8
DEFAULT_255_2_778
10
4.7326065
20
2.4498465
40
0.8435693
50
358.5310763
51
0.011933
0
ARC
8
DEFAULT_255_2_778
10
4.8557773
20
2.4465756
40
0.720355
50
357.2264207
51
358.5400109
0
ARC
8
DEFAULT_255_2_778
10
5.0615219
20
2.4364521
40
0.5143614
50
356.0772771
51
357.2437809
0
ARC
8
DEFAULT_255_2_778
10
5.348571
20
2.4166051
40
0.226627
50
355.1963333
51
356.1185507
0
ARC
8
DEFAULT_255_2_778
10
6.1734627
20
1.5241811
40
0.5990775
50
179.5857724
51
193.4091919
0
ARC
8
DEFAULT_255_2_778
10
6.026483
20
1.4889987
40
0.4479459
50
193.3915218
51
214.7094651
0
ARC
8
DEFAULT_255_2_778
10
6.0689305
20
1.5364142
40
0.510054
50
216.3730917
51
251.1189098
0
ARC
8
DEFAULT_255_2_778
10
6.1626578
20
1.7452385
40
0.7382743
50
249.4805875
51
251.8556988
0
ARC
8
DEFAULT_255_2_778
10
6.2065109
20
1.8909321
40
0.8903874
50
252.0936668
51
261.4895297
0
ARC
8
DEFAULT_255_2_778
10
6.236817
20
2.0737005
40
1.0756325
50
261.3337499
51
266.2367636
0
ARC
8
DEFAULT_255_2_778
10
6.2391642
20
2.0986218
40
1.1006544
50
266.1999882
51
269.1239993
0
ARC
8
DEFAULT_255_2_778
10
6.2380579
20
2.0399482
40
1.0419708
50
269.1355033
51
269.9951431
0
ARC
8
DEFAULT_255_2_778
10
6.2381465
20
1.9602428
40
0.9622654
50
269.9894623
51
271.1694018
0
ARC
8
DEFAULT_255_2_778
10
6.2409652
20
1.8246463
40
0.8266395
50
271.1658848
51
272.2133758
0
ARC
8
DEFAULT_255_2_778
10
6.2450614
20
1.7136458
40
0.7155636
50
272.2288917
51
272.5571913
0
ARC
8
DEFAULT_255_2_778
10
6.2512846
20
1.5783696
40
0.5801444
50
272.539274
51
273.377764
0
ARC
8
DEFAULT_255_2_778
10
6.2637369
20
1.3676493
40
0.3690565
50
273.3754025
51
274.0289242
0
ARC
8
DEFAULT_255_2_778
10
6.2797291
20
1.1420851
40
0.142926
50
273.9870221
51
274.563498
0
ARC
8
DEFAULT_255_2_778
10
6.2262273
20
1.1905227
40
0.2016319
50
288.7683263
51
301.9418135
0
ARC
8
DEFAULT_255_2_778
10
6.2910242
20
1.0895751
40
0.0817032
50
300.834735
51
329.0018139
0
ARC
8
DEFAULT_255_2_778
10
6.3168139
20
1.0722537
40
0.0507002
50
330.7714258
51
349.2508732
0
ARC
8
DEFAULT_255_2_778
10
6.3173433
20
1.0719891
40
0.050131
50
349.4350566
51
0.0666329
0
ARC
8
DEFAULT_255_2_778
10
6.2667249
20
1.0611908
40
0.1013327
50
6.1503684
51
47.4591711
0
ARC
8
DEFAULT_255_2_778
10
6.1638221
20
0.9731325
40
0.2363494
50
43.5092625
51
51.5144192
0
ARC
8
DEFAULT_255_2_778
10
6.2061445
20
1.0277177
40
0.1672862
50
51.2264312
51
54.6169698
0
ARC
8
DEFAULT_255_2_778
10
6.4420228
20
1.5487136
40
0.4089565
50
231.7504073
51
250.1265826
0
ARC
8
DEFAULT_255_2_778
10
6.4500193
20
1.5551511
40
0.4189687
50
212.2670208
51
231.4366312
0
ARC
8
DEFAULT_255_2_778
10
6.4839092
20
1.5790016
40
0.4603624
50
211.7350082
51
212.5252229
0
ARC
8
DEFAULT_255_2_778
10
6.5253271
20
1.6023729
40
0.5078846
50
197.9525729
51
211.5197091
0
ARC
8
DEFAULT_255_2_778
10
6.5404675
20
1.6092201
40
0.5244015
50
190.8819654
51
198.154383
0
ARC
8
DEFAULT_255_2_778
10
6.3752167
20
1.5783808
40
0.3563013
50
186.496234
51
191.0286764
0
ARC
8
DEFAULT_255_2_778
10
6.1226909
20
1.5491563
40
0.1020915
50
185.0823958
51
186.2343886
0
ARC
8
DEFAULT_255_2_778
10
4.6995179
20
2.6874678
40
1.3215045
50
359.6724157
51
10.8945296
0
ARC
8
DEFAULT_255_2_778
10
5.0556512
20
2.7570281
40
0.9586435
50
10.834953
51
26.2383961
0
ARC
8
DEFAULT_255_2_778
10
5.2041344
20
2.8280472
40
0.794064
50
26.378661
51
45.6120362
0
ARC
8
DEFAULT_255_2_778
10
5.2040388
20
2.8258851
40
0.7956772
50
45.7160279
51
54.7377046
0
ARC
8
DEFAULT_255_2_778
10
5.1900773
20
2.8069336
40
0.8192118
50
54.7056232
51
55.7781666
0
ARC
8
DEFAULT_255_2_778
10
5.1757493
20
8.3912949
40
4.9299242
50
275.5296484
51
280.1803908
0
ARC
8
DEFAULT_255_2_778
10
5.4466345
20
6.8991023
40
3.4133474
50
280.1320726
51
286.4112743
0
ARC
8
DEFAULT_255_2_778
10
5.7527402
20
5.8703815
40
2.3400561
50
286.3380703
51
295.1828214
0
ARC
8
DEFAULT_255_2_778
10
6.055781
20
5.2326796
40
1.6340212
50
295.0814514
51
308.5426101
0
ARC
8
DEFAULT_255_2_778
10
6.2318541
20
5.0017193
40
1.3436806
50
308.8068081
51
336.6944148
0
ARC
8
DEFAULT_255_2_778
10
7.1921704
20
-5.5519932
40
10.0258429
50
87.1706291
51
88.4354887
0
ARC
8
DEFAULT_255_2_778
10
7.1748181
20
-5.9218061
40
10.3960616
50
85.4632549
51
87.1757186
0
ARC
8
DEFAULT_255_2_778
10
7.2055643
20
-5.5577803
40
10.0307445
50
83.2072599
51
85.4738564
0
ARC
8
DEFAULT_255_2_778
10
7.3448495
20
-4.4278967
40
8.8923189
50
79.7422898
51
83.2373301
0
ARC
8
DEFAULT_255_2_778
10
7.6084251
20
-2.9684307
40
7.4092433
50
76.2962489
51
79.7381681
0
ARC
8
DEFAULT_255_2_778
10
7.8481481
20
-1.9669575
40
6.3794893
50
74.2565203
51
76.2571651
0
ARC
8
DEFAULT_255_2_778
10
7.8492137
20
-1.9663227
40
6.413795
50
74.2646303
51
76.2375959
0
ARC
8
DEFAULT_255_2_778
10
7.5320422
20
-3.3236811
40
7.8076524
50
76.3465321
51
81.4113613
0
ARC
8
DEFAULT_255_2_778
10
7.2666748
20
-5.0019968
40
9.5067845
50
81.3405276
51
84.2461802
0
ARC
8
DEFAULT_255_2_778
10
7.1799476
20
-5.8280377
40
10.3373589
50
84.2269136
51
86.2177069
0
ARC
8
DEFAULT_255_2_778
10
7.1735339
20
-5.9031232
40
10.412704
50
86.2097466
51
87.7139598
0
ARC
8
DEFAULT_255_2_778
10
7.1905277
20
-5.4889758
40
9.9982083
50
87.7165996
51
88.3351792
0
ARC
8
DEFAULT_255_2_778
10
5.82301
20
5.1836864
40
1.7915167
50
337.7389816
51
343.438085
0
ARC
8
DEFAULT_255_2_778
10
7.9701443
20
-5.1755576
40
9.85795
50
91.9207944
51
92.4996842
0
ARC
8
DEFAULT_255_2_778
10
7.9806238
20
-5.4891742
40
10.1717416
50
91.117386
51
91.9205797
0
ARC
8
DEFAULT_255_2_778
10
7.9834584
20
-5.6260488
40
10.3086455
50
90.2896206
51
91.1183023
0
ARC
8
DEFAULT_255_2_778
10
7.9833678
20
-5.6136573
40
10.2962538
50
89.9999951
51
90.289465
0
ARC
8
DEFAULT_255_2_778
10
7.9845437
20
-5.3968262
40
10.0794228
50
88.1096322
51
90.0066793
0
ARC
8
DEFAULT_255_2_778
10
8.012445
20
-4.6141116
40
9.2962141
50
85.5912654
51
88.1223695
0
ARC
8
DEFAULT_255_2_778
10
8.138281
20
-3.0971657
40
7.7740886
50
80.9370291
51
85.6565235
0
ARC
8
DEFAULT_255_2_778
10
8.3026604
20
-1.9891845
40
6.6540578
50
80.0256054
51
80.8319634
0
ARC
8
DEFAULT_255_2_778
10
8.3665071
20
-1.6291418
40
6.2883983
50
78.7120201
51
80.0303375
0
LINE
8
DEFAULT_255_2_778
10
9.6000008
20
4.5376122
11
9.6069008
21
4.5722122
0
LINE
8
DEFAULT_255_2_778
10
0.1827008
20
4.5722122
11
0.1896008
21
4.5376122
0
LINE
8
DEFAULT_255_2_778
10
0.1978008
20
4.2074122
11
0.2073008
21
4.1735122
0
LINE
8
DEFAULT_255_2_778
10
3.7654008
20
2.3386122
11
3.7654008
21
1.5412122
0
LINE
8
DEFAULT_255_2_778
10
4.2120008
20
1.5295122
11
4.2120008
21
2.3992122
0
LINE
8
DEFAULT_255_2_778
10
4.3531008
20
2.8641122
11
4.3531008
21
1.4345122
0
LINE
8
DEFAULT_255_2_778
10
4.8230008
20
1.4581122
11
4.8341008
21
2.9035122
0
LINE
8
DEFAULT_255_2_778
10
4.8341008
20
2.9035122
11
4.9526008
21
2.9035122
0
LINE
8
DEFAULT_255_2_778
10
4.9526008
20
2.9035122
11
4.9634008
21
1.4576122
0
LINE
8
DEFAULT_255_2_778
10
5.4333008
20
1.4340122
11
5.4333008
21
2.8501122
0
LINE
8
DEFAULT_255_2_778
10
5.5744008
20
2.3976122
11
5.5744008
21
1.5285122
0
LINE
8
DEFAULT_255_2_778
10
6.0210008
20
1.5401122
11
6.0210008
21
2.6799122
0
LINE
8
DEFAULT_255_2_778
10
9.5791008
20
4.1732122
11
9.5886008
21
4.2071122
0
ARC
8
DEFAULT_255_2_778
10
5.8186487
20
4.8133662
40
1.1993777
50
27.7859095
51
48.5870386
0
ARC
8
DEFAULT_255_2_778
10
6.1234421
20
4.9780102
40
0.8529839
50
0.2917291
51
27.5458016
0
ARC
8
DEFAULT_255_2_778
10
4.9214112
20
4.9719963
40
2.0550299
50
351.908232
51
0.2887605
0
ARC
8
DEFAULT_255_2_778
10
5.6345016
20
4.8667751
40
1.3342335
50
338.9574456
51
352.0714013
0
ARC
8
DEFAULT_255_2_778
10
6.0174077
20
4.716943
40
0.923066
50
314.5214861
51
339.1035435
0
ARC
8
DEFAULT_255_2_778
10
5.912026
20
4.8657535
40
1.1034439
50
286.1020958
51
313.0047687
0
ARC
8
DEFAULT_255_2_778
10
5.551252
20
5.9990394
40
2.2925581
50
276.4009533
51
286.9094621
0
ARC
8
DEFAULT_255_2_778
10
5.2277855
20
8.7127575
40
5.0254565
50
271.4955621
51
276.6165484
0
ARC
8
DEFAULT_255_2_778
10
4.9335977
20
19.0441011
40
15.3609783
50
269.7639573
51
271.5867387
0
ARC
8
DEFAULT_255_2_778
10
4.8340486
20
11.1625692
40
7.4794039
50
265.8575855
51
270.2778185
0
ARC
8
DEFAULT_255_2_778
10
4.5574531
20
7.3929173
40
3.6996214
50
258.5775755
51
265.9128594
0
ARC
8
DEFAULT_255_2_778
10
4.2092795
20
5.704308
40
1.9755165
50
246.13484
51
258.7766445
0
ARC
8
DEFAULT_255_2_778
10
3.7974819
20
4.8386897
40
1.0176427
50
200.2239069
51
247.6198337
0
ARC
8
DEFAULT_255_2_778
10
4.0696162
20
4.923429
40
1.3023747
50
185.1521668
51
199.5833946
0
ARC
8
DEFAULT_255_2_778
10
4.554346
20
4.9785715
40
1.7901342
50
179.8949641
51
185.5167344
0
ARC
8
DEFAULT_255_2_778
10
3.6773932
20
4.9655233
40
0.9133243
50
139.961413
51
178.97552
0
ARC
8
DEFAULT_255_2_778
10
4.0227818
20
4.7177863
40
1.3375231
50
132.2303676
51
141.3545882
0
ARC
8
DEFAULT_255_2_778
10
3.6449444
20
5.1133923
40
0.7907695
50
97.8947331
51
131.2248369
0
ARC
8
DEFAULT_255_2_778
10
3.8104998
20
4.2160763
40
1.7028079
50
90.4029644
51
99.2655686
0
ARC
8
DEFAULT_255_2_778
10
3.8407219
20
3.2311135
40
2.6880598
50
89.9902882
51
90.8994844
0
ARC
8
DEFAULT_255_2_778
10
3.8275969
20
1.8571978
40
4.0619981
50
86.8990977
51
89.8084394
0
ARC
8
DEFAULT_255_2_778
10
3.4370255
20
-5.5025727
40
11.4321231
50
85.8848138
51
86.9398132
0
ARC
8
DEFAULT_255_2_778
10
-9.4182014
20
-189.8000575
40
196.1773807
50
85.9814871
51
86.0026425
0
ARC
8
DEFAULT_255_2_778
10
5.2992172
20
19.2378704
40
13.3780363
50
265.8439683
51
266.9808346
0
ARC
8
DEFAULT_255_2_778
10
4.8827775
20
11.3642442
40
5.4934051
50
266.9929103
51
269.870016
0
ARC
8
DEFAULT_255_2_778
10
4.8578036
20
11.2563162
40
5.3854776
50
270.1331077
51
273.0804635
0
ARC
8
DEFAULT_255_2_778
10
4.4404408
20
18.9590627
40
13.0995225
50
273.0928282
51
274.2586721
0
ARC
8
DEFAULT_255_2_778
10
6.7673793
20
-12.2328817
40
18.1790971
50
93.4975557
51
94.271965
0
ARC
8
DEFAULT_255_2_778
10
5.9350997
20
1.3969095
40
4.5239187
50
90.7770394
51
93.5072962
0
ARC
8
DEFAULT_255_2_778
10
5.9036751
20
2.9669442
40
2.9536196
50
90.0053105
51
90.5805378
0
ARC
8
DEFAULT_255_2_778
10
5.9189
20
4.0457567
40
1.8748711
50
82.4404179
51
90.4736437
0
ARC
8
DEFAULT_255_2_778
10
6.0489512
20
4.9725459
40
0.9390539
50
64.3632597
51
82.8672228
0
ARC
8
DEFAULT_255_2_778
10
6.1477096
20
5.199278
40
0.6919724
50
47.8566064
51
63.612844
0
ARC
8
DEFAULT_255_2_778
10
3.329611
20
4.9110675
40
0.8406326
50
336.7397469
51
0.4362034
0
ARC
8
DEFAULT_255_2_778
10
3.5935686
20
4.7903736
40
0.5505064
50
307.6205684
51
337.4313607
0
ARC
8
DEFAULT_255_2_778
10
3.7283013
20
4.6203504
40
0.333604
50
270.6385699
51
307.1172289
0
ARC
8
DEFAULT_255_2_778
10
3.7471679
20
4.6603124
40
0.3738521
50
215.0655196
51
267.6777116
0
ARC
8
DEFAULT_255_2_778
10
4.0001071
20
4.8675156
40
0.7003435
50
191.8249723
51
217.0521327
0
ARC
8
DEFAULT_255_2_778
10
4.180889
20
4.9159338
40
0.887271
50
179.9009672
51
192.4929751
0
ARC
8
DEFAULT_255_2_778
10
4.1339611
20
4.9238598
40
0.8403661
50
156.7259344
51
180.4358366
0
ARC
8
DEFAULT_255_2_778
10
3.8704733
20
5.0444205
40
0.5507224
50
127.6091548
51
157.4165816
0
ARC
8
DEFAULT_255_2_778
10
3.7357534
20
5.2145224
40
0.3337659
50
90.6410264
51
127.1086264
0
ARC
8
DEFAULT_255_2_778
10
3.7169038
20
5.1749664
40
0.3736069
50
35.0443602
51
87.681287
0
ARC
8
DEFAULT_255_2_778
10
3.4635471
20
4.967624
40
0.7005108
50
11.8089619
51
37.0300574
0
ARC
8
DEFAULT_255_2_778
10
3.2818246
20
4.9190139
40
0.8883961
50
359.9002596
51
12.4791894
0
ARC
8
DEFAULT_255_2_778
10
3.4876106
20
4.9028005
40
0.5419304
50
331.4792772
51
0.7139636
0
ARC
8
DEFAULT_255_2_778
10
3.702258
20
4.7754248
40
0.2926647
50
286.5239167
51
333.325511
0
ARC
8
DEFAULT_255_2_778
10
3.7373681
20
4.6954151
40
0.2062618
50
270.0085756
51
283.4935432
0
ARC
8
DEFAULT_255_2_778
10
3.7522376
20
4.7502351
40
0.2615031
50
209.0824982
51
266.747085
0
ARC
8
DEFAULT_255_2_778
10
3.9671721
20
4.8973851
40
0.5214223
50
182.124192
51
211.7343339
0
ARC
8
DEFAULT_255_2_778
10
4.0567827
20
4.9095023
40
0.6114836
50
179.9952229
51
182.9476018
0
ARC
8
DEFAULT_255_2_778
10
3.9885211
20
4.9163805
40
0.543265
50
151.5502369
51
180.7200591
0
ARC
8
DEFAULT_255_2_778
10
3.7718319
20
5.0446489
40
0.2917951
50
106.2453602
51
153.4257555
0
ARC
8
DEFAULT_255_2_778
10
3.7374119
20
5.1234225
40
0.2068306
50
90.0035921
51
103.1943176
0
ARC
8
DEFAULT_255_2_778
10
3.72275
20
5.0693221
40
0.2613421
50
29.0240999
51
86.7867288
0
ARC
8
DEFAULT_255_2_778
10
3.5065645
20
4.9218529
40
0.5224812
50
2.1056635
51
31.6635815
0
ARC
8
DEFAULT_255_2_778
10
3.4154715
20
4.9095953
40
0.6140276
50
359.9960822
51
2.9363891
0
ARC
8
DEFAULT_255_2_778
10
5.6815809
20
4.9110638
40
0.8395628
50
336.6491197
51
0.4370165
0
ARC
8
DEFAULT_255_2_778
10
5.9446372
20
4.7903323
40
0.5502383
50
307.5577453
51
337.3340585
0
ARC
8
DEFAULT_255_2_778
10
6.0789802
20
4.6203748
40
0.3336284
50
270.6421402
51
307.0597813
0
ARC
8
DEFAULT_255_2_778
10
6.0977893
20
4.6600759
40
0.3736125
50
215.0469902
51
267.6882871
0
ARC
8
DEFAULT_255_2_778
10
6.35103
20
4.8672917
40
0.7003481
50
191.8061768
51
217.0288983
0
ARC
8
DEFAULT_255_2_778
10
6.5328724
20
4.9159232
40
0.8883546
50
179.9004059
51
192.476793
0
ARC
8
DEFAULT_255_2_778
10
6.4850175
20
4.9238487
40
0.8405224
50
156.7296986
51
180.4350006
0
ARC
8
DEFAULT_255_2_778
10
6.222484
20
5.04378
40
0.5520023
50
127.861174
51
157.3998316
0
ARC
8
DEFAULT_255_2_778
10
6.0865848
20
5.2143518
40
0.333938
50
90.663253
51
127.4144016
0
ARC
8
DEFAULT_255_2_778
10
6.0674304
20
5.174711
40
0.3738691
50
35.0639852
51
87.6563181
0
ARC
8
DEFAULT_255_2_778
10
5.8143537
20
4.9672306
40
0.7006369
50
11.8396702
51
37.0625778
0
ARC
8
DEFAULT_255_2_778
10
5.6344568
20
4.9189924
40
0.8866638
50
359.9014533
51
12.5053868
0
ARC
8
DEFAULT_255_2_778
10
5.8384058
20
4.9028549
40
0.5419304
50
331.4792772
51
0.7139636
0
ARC
8
DEFAULT_255_2_778
10
6.0530532
20
4.7754792
40
0.2926647
50
286.5239167
51
333.325511
0
ARC
8
DEFAULT_255_2_778
10
6.0881633
20
4.6954695
40
0.2062618
50
270.0085756
51
283.4935432
0
ARC
8
DEFAULT_255_2_778
10
6.1030328
20
4.7502895
40
0.2615031
50
209.0824982
51
266.747085
0
ARC
8
DEFAULT_255_2_778
10
6.3179673
20
4.8974395
40
0.5214223
50
182.124192
51
211.7343339
0
ARC
8
DEFAULT_255_2_778
10
6.4075779
20
4.9095567
40
0.6114836
50
179.9952229
51
182.9476018
0
ARC
8
DEFAULT_255_2_778
10
6.3386403
20
4.9163149
40
0.5425875
50
151.497048
51
180.7082819
0
ARC
8
DEFAULT_255_2_778
10
6.1237561
20
5.0437311
40
0.2930972
50
106.6887948
51
153.3405432
0
ARC
8
DEFAULT_255_2_778
10
6.0882292
20
5.1243028
40
0.2060049
50
90.0097342
51
103.657882
0
ARC
8
DEFAULT_255_2_778
10
6.0733366
20
5.06942
40
0.2613104
50
29.1328399
51
86.74053
0
ARC
8
DEFAULT_255_2_778
10
5.8581788
20
4.9218497
40
0.5216515
50
2.1924803
51
31.7868679
0
ARC
8
DEFAULT_255_2_778
10
5.7686372
20
4.909651
40
0.6116571
50
359.9959459
51
3.0134785
0
ARC
8
DEFAULT_255_2_778
10
4.8767685
20
4.3578335
40
0.1094258
50
269.9610816
51
0.0912194
0
ARC
8
DEFAULT_255_2_778
10
4.8766199
20
4.3578335
40
0.1094258
50
179.9087806
51
270.0389184
0
ARC
8
DEFAULT_255_2_778
10
4.8765347
20
4.3581672
40
0.1093406
50
89.9164045
51
180.0835955
0
ARC
8
DEFAULT_255_2_778
10
4.8768537
20
4.3581672
40
0.1093406
50
359.9164045
51
90.0835955
0
ARC
8
DEFAULT_255_2_778
10
4.6545262
20
4.0926952
40
0.0352339
50
184.1172433
51
199.8906129
0
ARC
8
DEFAULT_255_2_778
10
4.654272
20
4.0926675
40
0.0349784
50
180.003933
51
184.10191
0
ARC
8
DEFAULT_255_2_778
10
4.653902
20
4.0927051
40
0.0346083
50
139.2242685
51
180.0662882
0
ARC
8
DEFAULT_255_2_778
10
4.654428
20
4.0925077
40
0.035136
50
90.0050116
51
139.540656
0
ARC
8
DEFAULT_255_2_778
10
4.6544214
20
4.0923528
40
0.0352908
50
81.729803
51
89.9943437
0
ARC
8
DEFAULT_255_2_778
10
4.654382
20
4.0920459
40
0.0356003
50
79.1323004
51
81.7381415
0
ARC
8
DEFAULT_255_2_778
10
4.6543309
20
4.0921587
40
0.0354993
50
19.498576
51
79.016883
0
ARC
8
DEFAULT_255_2_778
10
4.8759095
20
4.1703924
40
0.1994851
50
199.4376005
51
269.9094228
0
ARC
8
DEFAULT_255_2_778
10
4.87517
20
4.1709709
40
0.2000636
50
270.1214859
51
340.4451351
0
ARC
8
DEFAULT_255_2_778
10
5.0972573
20
4.0917345
40
0.0357367
50
90.4165214
51
159.9137795
0
ARC
8
DEFAULT_255_2_778
10
5.0969972
20
4.0933099
40
0.0341604
50
81.8241647
51
89.9995446
0
ARC
8
DEFAULT_255_2_778
10
5.0969458
20
4.0930596
40
0.0344155
50
70.0397487
51
81.7988054
0
ARC
8
DEFAULT_255_2_778
10
5.0967812
20
4.0920441
40
0.0354267
50
0.3520842
51
70.3501023
0
ARC
8
DEFAULT_255_2_778
10
5.0980179
20
4.0922615
40
0.0341892
50
351.0055708
51
0.0005744
0
ARC
8
DEFAULT_255_2_778
10
5.0975346
20
4.0923505
40
0.0346806
50
339.8571565
51
350.9852034
0
ARC
8
DEFAULT_255_2_778
10
4.8758643
20
4.1725053
40
0.2703975
50
269.9427673
51
340.0865125
0
ARC
8
DEFAULT_255_2_778
10
4.8754772
20
4.172296
40
0.2701884
50
199.8823627
51
270.0247979
0
ARC
8
DEFAULT_255_2_778
10
2.1256661
20
3.5931165
40
0.0674222
50
261.9610402
51
348.1336989
0
ARC
8
DEFAULT_255_2_778
10
2.1152707
20
3.6375475
40
0.1111949
50
269.9880409
51
270.4981126
0
ARC
8
DEFAULT_255_2_778
10
2.1053586
20
3.5941213
40
0.0684864
50
193.4980491
51
278.3020394
0
ARC
8
DEFAULT_255_2_778
10
2.0766788
20
3.5792579
40
0.0379316
50
180.0080119
51
181.6952478
0
ARC
8
DEFAULT_255_2_778
10
2.1044558
20
3.5656057
40
0.0671106
50
82.4564192
51
168.2671263
0
ARC
8
DEFAULT_255_2_778
10
2.115233
20
3.5183566
40
0.1137958
50
89.9927407
51
90.9903787
0
ARC
8
DEFAULT_255_2_778
10
2.1251414
20
3.5645888
40
0.0682843
50
13.1401822
51
98.3311012
0
ARC
8
DEFAULT_255_2_778
10
2.1532244
20
3.5792533
40
0.0384229
50
359.9988484
51
1.2808154
0
ARC
8
DEFAULT_255_2_778
10
2.3376391
20
3.4753994
40
0.0671106
50
262.4564192
51
348.2671263
0
ARC
8
DEFAULT_255_2_778
10
2.3268619
20
3.5226485
40
0.1137958
50
269.9927407
51
270.9903787
0
ARC
8
DEFAULT_255_2_778
10
2.3169535
20
3.4764163
40
0.0682843
50
193.1401822
51
278.3311012
0
ARC
8
DEFAULT_255_2_778
10
2.2888705
20
3.4617518
40
0.0384229
50
179.9988484
51
181.2808154
0
ARC
8
DEFAULT_255_2_778
10
2.3164288
20
3.4478886
40
0.0674222
50
81.9610402
51
168.1336989
0
ARC
8
DEFAULT_255_2_778
10
2.3268242
20
3.4034576
40
0.1111949
50
89.9880409
51
90.4981126
0
ARC
8
DEFAULT_255_2_778
10
2.3367363
20
3.4468838
40
0.0684864
50
13.4980491
51
98.3020394
0
ARC
8
DEFAULT_255_2_778
10
2.3654161
20
3.4617473
40
0.0379316
50
0.0080119
51
1.6952478
0
ARC
8
DEFAULT_255_2_778
10
2.4667938
20
3.3233446
40
0.0674215
50
262.6976875
51
348.0222802
0
ARC
8
DEFAULT_255_2_778
10
2.4562391
20
3.3696926
40
0.1132401
50
270.0042117
51
271.0044493
0
ARC
8
DEFAULT_255_2_778
10
2.4463901
20
3.3242444
40
0.0685047
50
193.4404827
51
278.2732223
0
ARC
8
DEFAULT_255_2_778
10
2.4176456
20
3.3093588
40
0.0378983
50
180.0093702
51
181.5684677
0
ARC
8
DEFAULT_255_2_778
10
2.44582
20
3.2953763
40
0.0675346
50
81.9670062
51
168.0563727
0
ARC
8
DEFAULT_255_2_778
10
2.4562242
20
3.2510556
40
0.1111969
50
89.988042
51
90.4981138
0
ARC
8
DEFAULT_255_2_778
10
2.4661048
20
3.2944608
40
0.0685047
50
13.4404827
51
98.2732223
0
ARC
8
DEFAULT_255_2_778
10
2.4948493
20
3.3093464
40
0.0378983
50
0.0093702
51
1.5684677
0
ARC
8
DEFAULT_255_2_778
10
2.5841039
20
3.1468052
40
0.0675013
50
262.023867
51
348.0708714
0
ARC
8
DEFAULT_255_2_778
10
2.5737707
20
3.1911475
40
0.1111949
50
269.9880409
51
270.4981126
0
ARC
8
DEFAULT_255_2_778
10
2.5639518
20
3.1478344
40
0.068585
50
193.4988597
51
278.2113562
0
ARC
8
DEFAULT_255_2_778
10
2.5348873
20
3.1328588
40
0.03764
50
180.0094129
51
181.573983
0
ARC
8
DEFAULT_255_2_778
10
2.5633901
20
3.1189028
40
0.0675977
50
82.0345353
51
168.0905822
0
ARC
8
DEFAULT_255_2_778
10
2.5737242
20
3.0746556
40
0.1111969
50
89.9880421
51
90.4981138
0
ARC
8
DEFAULT_255_2_778
10
2.5836166
20
3.1183282
40
0.0682418
50
12.8805575
51
98.3153016
0
ARC
8
DEFAULT_255_2_778
10
2.6107444
20
3.1328415
40
0.039403
50
0.0160353
51
1.0164944
0
ARC
8
DEFAULT_255_2_778
10
2.7136849
20
2.9816326
40
0.0673092
50
262.6930501
51
348.0994555
0
ARC
8
DEFAULT_255_2_778
10
2.703139
20
3.0281001
40
0.1132476
50
270.0042844
51
271.004419
0
ARC
8
DEFAULT_255_2_778
10
2.6933855
20
2.9828776
40
0.0687219
50
193.8873782
51
278.1664543
0
ARC
8
DEFAULT_255_2_778
10
2.6643554
20
2.9677507
40
0.0377079
50
179.9971711
51
182.0780687
0
ARC
8
DEFAULT_255_2_778
10
2.6923558
20
2.9541057
40
0.0671106
50
82.4564192
51
168.2671263
0
ARC
8
DEFAULT_255_2_778
10
2.703133
20
2.9068566
40
0.1137958
50
89.9927407
51
90.9903787
0
ARC
8
DEFAULT_255_2_778
10
2.7130414
20
2.9530888
40
0.0682843
50
13.1401822
51
98.3311012
0
ARC
8
DEFAULT_255_2_778
10
2.7411244
20
2.9677533
40
0.0384229
50
359.9988484
51
1.2808154
0
ARC
8
DEFAULT_255_2_778
10
2.8903391
20
2.8403994
40
0.0671106
50
262.4564192
51
348.2671263
0
ARC
8
DEFAULT_255_2_778
10
2.8795619
20
2.8876485
40
0.1137958
50
269.9927407
51
270.9903787
0
ARC
8
DEFAULT_255_2_778
10
2.8696535
20
2.8414163
40
0.0682843
50
193.1401822
51
278.3311012
0
ARC
8
DEFAULT_255_2_778
10
2.8415705
20
2.8267518
40
0.0384229
50
179.9988484
51
181.2808154
0
ARC
8
DEFAULT_255_2_778
10
2.8691288
20
2.8128886
40
0.0674222
50
81.9610402
51
168.1336989
0
ARC
8
DEFAULT_255_2_778
10
2.8795242
20
2.7684576
40
0.1111949
50
89.9880409
51
90.4981126
0
ARC
8
DEFAULT_255_2_778
10
2.8894363
20
2.8118838
40
0.0684864
50
13.4980491
51
98.3020394
0
ARC
8
DEFAULT_255_2_778
10
2.9181161
20
2.8267473
40
0.0379316
50
0.0080119
51
1.6952478
0
ARC
8
DEFAULT_255_2_778
10
3.1367725
20
2.7466959
40
0.0673092
50
262.6930501
51
348.0994555
0
ARC
8
DEFAULT_255_2_778
10
3.1262266
20
2.7931634
40
0.1132476
50
270.0042844
51
271.004419
0
ARC
8
DEFAULT_255_2_778
10
3.1163462
20
2.7476846
40
0.0684864
50
193.4980491
51
278.3020394
0
ARC
8
DEFAULT_255_2_778
10
3.0876664
20
2.7328212
40
0.0379316
50
180.0080119
51
181.6952478
0
ARC
8
DEFAULT_255_2_778
10
3.1154434
20
2.719169
40
0.0671106
50
82.4564192
51
168.2671263
0
ARC
8
DEFAULT_255_2_778
10
3.1262206
20
2.6719199
40
0.1137958
50
89.9927407
51
90.9903787
0
ARC
8
DEFAULT_255_2_778
10
3.136129
20
2.7181521
40
0.0682843
50
13.1401822
51
98.3311012
0
ARC
8
DEFAULT_255_2_778
10
3.164212
20
2.7328166
40
0.0384229
50
359.9988484
51
1.2808154
0
ARC
8
DEFAULT_255_2_778
10
3.3825725
20
2.7466959
40
0.0673092
50
262.6930501
51
348.0994555
0
ARC
8
DEFAULT_255_2_778
10
3.3720266
20
2.7931634
40
0.1132476
50
270.0042844
51
271.004419
0
ARC
8
DEFAULT_255_2_778
10
3.3621462
20
2.7476846
40
0.0684864
50
193.4980491
51
278.3020394
0
ARC
8
DEFAULT_255_2_778
10
3.3334664
20
2.7328212
40
0.0379316
50
180.0080119
51
181.6952478
0
ARC
8
DEFAULT_255_2_778
10
3.3612434
20
2.719169
40
0.0671106
50
82.4564192
51
168.2671263
0
ARC
8
DEFAULT_255_2_778
10
3.3720206
20
2.6719199
40
0.1137958
50
89.9927407
51
90.9903787
0
ARC
8
DEFAULT_255_2_778
10
3.381929
20
2.7181521
40
0.0682843
50
13.1401822
51
98.3311012
0
ARC
8
DEFAULT_255_2_778
10
3.410012
20
2.7328166
40
0.0384229
50
359.9988484
51
1.2808154
0
ARC
8
DEFAULT_255_2_778
10
3.6316537
20
2.7877798
40
0.0674222
50
261.9610402
51
348.1336989
0
ARC
8
DEFAULT_255_2_778
10
3.6212582
20
2.8322108
40
0.1111949
50
269.9880409
51
270.4981126
0
ARC
8
DEFAULT_255_2_778
10
3.6113462
20
2.7887846
40
0.0684864
50
193.4980491
51
278.3020394
0
ARC
8
DEFAULT_255_2_778
10
3.5826664
20
2.7739212
40
0.0379316
50
180.0080119
51
181.6952478
0
ARC
8
DEFAULT_255_2_778
10
3.6104434
20
2.760269
40
0.0671106
50
82.4564192
51
168.2671263
0
ARC
8
DEFAULT_255_2_778
10
3.6212206
20
2.7130199
40
0.1137958
50
89.9927407
51
90.9903787
0
ARC
8
DEFAULT_255_2_778
10
3.631129
20
2.7592521
40
0.0682843
50
13.1401822
51
98.3311012
0
ARC
8
DEFAULT_255_2_778
10
3.659212
20
2.7739166
40
0.0384229
50
359.9988484
51
1.2808154
0
ENDSEC
0
EOF