0
SECTION
2
HEADER
9
$MEASUREMENT
70
1
0
ENDSEC
0
SECTION
2
TABLES
0
TABLE
2
LTYPE
0
LTYPE
72
65
70
64
2
CONTINUOUS
3
______
73
0
40
0
0
ENDTAB
0
TABLE
2
LAYER
0
LAYER
2
DEFAULT_255_2_778
70
0
62
255
6
CONTINUOUS
0
ENDTAB
0
ENDSEC
0
SECTION
2
ENTITIES
0
LINE
8
DEFAULT_255_2_778
10
8.598951
20
-0.1370583
11
11.716851
21
9.4612417
0
LINE
8
DEFAULT_255_2_778
10
11.716851
20
9.4612417
11
5.481151
21
9.4612417
0
LINE
8
DEFAULT_255_2_778
10
5.481151
20
9.4612417
11
8.598951
21
-0.1370583
0
LINE
8
DEFAULT_255_2_778
10
8.5989476
20
-0.1370583
11
5.4811476
21
9.4612417
0
LINE
8
DEFAULT_255_2_778
10
5.4811476
20
9.4612417
11
1.1112476
21
9.4612417
0
LINE
8
DEFAULT_255_2_778
10
1.1112476
20
9.4612417
11
8.5989476
21
-0.1370583
0
ARC
8
DEFAULT_255_2_778
10
0.7778744
20
6.3429953
40
0.6454792
50
161.9643066
51
174.2174142
0
ARC
8
DEFAULT_255_2_778
10
0.7756669
20
6.3433231
40
0.6432502
50
174.2266596
51
180.0002708
0
ARC
8
DEFAULT_255_2_778
10
0.7777975
20
6.3433088
40
0.6453807
50
179.9989948
51
234.0065068
0
LINE
8
DEFAULT_255_2_778
10
1.1113116
20
9.4612417
11
0.1641116
21
6.5428417
0
LINE
8
DEFAULT_255_2_778
10
0.3985116
20
5.8211417
11
8.5990116
21
-0.1370583
0
LINE
8
DEFAULT_255_2_778
10
8.5990116
20
-0.1370583
11
1.1113116
21
9.4612417
0
ARC
8
DEFAULT_255_2_778
10
3.2961671
20
15.1419553
40
0.3215723
50
17.4113549
51
47.8762349
0
ARC
8
DEFAULT_255_2_778
10
3.298214
20
15.1380044
40
0.3231565
50
48.6152718
51
90.3672361
0
ARC
8
DEFAULT_255_2_778
10
3.2924489
20
15.1434723
40
0.3177028
50
89.3446123
51
146.944787
0
ARC
8
DEFAULT_255_2_778
10
3.3112265
20
15.1346963
40
0.3382402
50
147.4337524
51
162.1849426
0
LINE
8
DEFAULT_255_2_778
10
1.1112053
20
9.4611793
11
5.4808053
21
9.4611793
0
LINE
8
DEFAULT_255_2_778
10
5.4808053
20
9.4611793
11
3.6030053
21
15.2381793
0
LINE
8
DEFAULT_255_2_778
10
2.9892053
20
15.2381793
11
1.1112053
21
9.4611793
0
LINE
8
DEFAULT_255_2_778
10
8.5989476
20
-0.1370583
11
11.7167476
21
9.4612417
0
LINE
8
DEFAULT_255_2_778
10
11.7167476
20
9.4612417
11
16.0866476
21
9.4612417
0
LINE
8
DEFAULT_255_2_778
10
16.0866476
20
9.4612417
11
8.5989476
21
-0.1370583
0
ARC
8
DEFAULT_255_2_778
10
16.4198555
20
6.3457065
40
0.6456594
50
5.8157123
51
18.0294405
0
ARC
8
DEFAULT_255_2_778
10
16.4220876
20
6.3460413
40
0.6434048
50
359.9996235
51
5.8061892
0
ARC
8
DEFAULT_255_2_778
10
16.4198349
20
6.3460398
40
0.6456575
50
306.0075234
51
359.9997576
0
LINE
8
DEFAULT_255_2_778
10
16.0866115
20
9.4612417
11
17.0338115
21
6.5455417
0
LINE
8
DEFAULT_255_2_778
10
16.7994115
20
5.8237417
11
8.5989115
21
-0.1370583
0
LINE
8
DEFAULT_255_2_778
10
8.5989115
20
-0.1370583
11
16.0866115
21
9.4612417
0
ARC
8
DEFAULT_255_2_778
10
13.9017105
20
15.1444412
40
0.3217094
50
132.1140678
51
162.5704927
0
ARC
8
DEFAULT_255_2_778
10
13.8996573
20
15.140508
40
0.323277
50
89.6340564
51
131.3766276
0
ARC
8
DEFAULT_255_2_778
10
13.9054201
20
15.1460836
40
0.3177164
50
33.0586763
51
90.6669148
0
ARC
8
DEFAULT_255_2_778
10
13.8866639
20
15.1373266
40
0.3382258
50
17.814744
51
32.5687454
0
LINE
8
DEFAULT_255_2_778
10
16.0866721
20
9.4612035
11
11.7167721
21
9.4612035
0
LINE
8
DEFAULT_255_2_778
10
11.7167721
20
9.4612035
11
13.5947721
21
15.2408035
0
LINE
8
DEFAULT_255_2_778
10
14.2086721
20
15.2408035
11
16.0866721
21
9.4612035
0
ENDSEC
0
EOF