0
SECTION
2
HEADER
9
$MEASUREMENT
70
1
0
ENDSEC
0
SECTION
2
TABLES
0
TABLE
2
LTYPE
0
LTYPE
72
65
70
64
2
CONTINUOUS
3
______
73
0
40
0
0
ENDTAB
0
TABLE
2
LAYER
0
LAYER
2
DEFAULT_255_2_778
70
0
62
255
6
CONTINUOUS
0
ENDTAB
0
ENDSEC
0
SECTION
2
ENTITIES
0
ARC
8
DEFAULT_255_2_778
10
10.7385463
20
10.5776675
40
0.55994
50
121.8027538
51
131.6305223
0
ARC
8
DEFAULT_255_2_778
10
10.5753351
20
10.7534876
40
0.3201412
50
130.7016796
51
146.8634974
0
ARC
8
DEFAULT_255_2_778
10
10.3741555
20
10.8821922
40
0.0813546
50
145.3149745
51
175.2376372
0
ARC
8
DEFAULT_255_2_778
10
10.3229362
20
10.8887333
40
0.0298552
50
179.5908446
51
193.937506
0
ARC
8
DEFAULT_255_2_778
10
10.3406569
20
10.9095239
40
0.0544389
50
210.9307722
51
246.8310398
0
ARC
8
DEFAULT_255_2_778
10
10.6162664
20
11.3905655
40
0.6085083
50
240.7825677
51
248.092471
0
ARC
8
DEFAULT_255_2_778
10
11.2450167
20
12.9017614
40
2.2452542
50
247.5947324
51
250.9490735
0
ARC
8
DEFAULT_255_2_778
10
12.146697
20
15.485263
40
4.9815786
50
250.8453597
51
253.2022167
0
ARC
8
DEFAULT_255_2_778
10
12.6818814
20
17.2197067
40
6.7966895
50
253.1086158
51
253.8720849
0
ARC
8
DEFAULT_255_2_778
10
12.8781374
20
17.8988476
40
7.5036185
50
253.8730123
51
254.9530637
0
ARC
8
DEFAULT_255_2_778
10
12.9147572
20
18.0322903
40
7.6419927
50
254.9476573
51
255.1031778
0
ARC
8
DEFAULT_255_2_778
10
9.9144032
20
6.7695405
40
4.0135505
50
73.1350855
51
75.0447268
0
ARC
8
DEFAULT_255_2_778
10
9.3008007
20
4.739963
40
6.133855
50
71.6007535
51
73.1500413
0
ARC
8
DEFAULT_255_2_778
10
8.5290634
20
2.4143453
40
8.5841762
50
70.2993585
51
71.6125254
0
ARC
8
DEFAULT_255_2_778
10
7.8123642
20
0.4056509
40
10.7168989
50
69.2158405
51
70.3121579
0
ARC
8
DEFAULT_255_2_778
10
7.4386922
20
-0.5838063
40
11.774563
50
67.8496587
51
69.2243687
0
ARC
8
DEFAULT_255_2_778
10
7.5458715
20
-0.3189036
40
11.4888001
50
67.7544083
51
67.8466205
0
ARC
8
DEFAULT_255_2_778
10
8.0461924
20
0.890125
40
10.1803511
50
66.2866032
51
67.7846359
0
ARC
8
DEFAULT_255_2_778
10
9.3423718
20
3.8377999
40
6.9602788
50
64.7758499
51
66.297294
0
ARC
8
DEFAULT_255_2_778
10
10.5969317
20
6.495711
40
4.0211628
50
62.8094948
51
64.8077298
0
ARC
8
DEFAULT_255_2_778
10
11.581891
20
8.4063182
40
1.8716175
50
59.6991062
51
62.9031858
0
ARC
8
DEFAULT_255_2_778
10
12.2115977
20
9.4770426
40
0.6294638
50
53.6585734
51
60.0137328
0
ARC
8
DEFAULT_255_2_778
10
12.5216311
20
9.8912584
40
0.11217
50
35.4463291
51
55.8399119
0
ARC
8
DEFAULT_255_2_778
10
12.5987985
20
9.9471098
40
0.016931
50
3.0908785
51
32.9162694
0
ARC
8
DEFAULT_255_2_778
10
12.6070969
20
9.9479507
40
0.0086082
50
313.8441708
51
0.4791052
0
ARC
8
DEFAULT_255_2_778
10
12.6082463
20
9.9484424
40
0.00825
50
271.1488948
51
305.6942345
0
ARC
8
DEFAULT_255_2_778
10
12.6037593
20
9.9831181
40
0.0431754
50
269.5071779
51
276.1859606
0
ARC
8
DEFAULT_255_2_778
10
12.6236847
20
10.3151019
40
0.3757064
50
258.1740764
51
266.9032046
0
ARC
8
DEFAULT_255_2_778
10
13.0160462
20
12.4281378
40
2.5247785
50
256.7700781
51
259.286345
0
ARC
8
DEFAULT_255_2_778
10
13.9269625
20
16.3897912
40
6.5897895
50
255.8773718
51
256.9432837
0
ARC
8
DEFAULT_255_2_778
10
15.3074631
20
21.8732179
40
12.244323
50
254.814267
51
255.8734847
0
ARC
8
DEFAULT_255_2_778
10
16.7128495
20
27.0804615
40
17.6378798
50
253.9870528
51
254.8393413
0
ARC
8
DEFAULT_255_2_778
10
5.6928059
20
-11.2477409
40
22.2431026
50
73.936953
51
74.4866122
0
ARC
8
DEFAULT_255_2_778
10
7.2062916
20
-5.7839215
40
16.5735392
50
74.476151
51
75.3873503
0
ARC
8
DEFAULT_255_2_778
10
8.260215
20
-1.7377022
40
12.392314
50
75.382913
51
76.6217524
0
ARC
8
DEFAULT_255_2_778
10
8.9519567
20
1.1865051
40
9.3874052
50
76.5996065
51
78.7590872
0
ARC
8
DEFAULT_255_2_778
10
9.2966033
20
2.9145727
40
7.625305
50
78.7679121
51
81.6402234
0
ARC
8
DEFAULT_255_2_778
10
9.3313153
20
3.1005273
40
7.4362831
50
81.6965269
51
85.9538457
0
ARC
8
DEFAULT_255_2_778
10
9.2061098
20
1.3825986
40
9.1587652
50
85.9308475
51
87.9849698
0
ARC
8
DEFAULT_255_2_778
10
9.1200671
20
-0.9363544
40
11.4793104
50
87.9627526
51
89.0780936
0
ARC
8
DEFAULT_255_2_778
10
9.0735116
20
-3.8317885
40
14.3751188
50
89.0782407
51
90.0192252
0
ARC
8
DEFAULT_255_2_778
10
9.0708398
20
-7.1995148
40
17.7428444
50
90.0069483
51
90.4979002
0
ARC
8
DEFAULT_255_2_778
10
9.103613
20
-10.9048447
40
21.4483192
50
90.4994311
51
90.9762915
0
ARC
8
DEFAULT_255_2_778
10
9.1829011
20
-15.6351864
40
26.1793253
50
90.9733977
51
91.3133992
0
ARC
8
DEFAULT_255_2_778
10
9.3140163
20
-21.3632924
40
31.9089316
50
91.3130151
51
91.6036049
0
ARC
8
DEFAULT_255_2_778
10
9.8584068
20
-41.2929199
40
51.84599
50
91.5886372
51
91.9189514
0
ARC
8
DEFAULT_255_2_778
10
9.1140471
20
-19.0637603
40
29.6043712
50
91.9197604
51
92.3661627
0
ARC
8
DEFAULT_255_2_778
10
8.606103
20
-6.9223327
40
17.4523258
50
92.3456606
51
93.2166647
0
ARC
8
DEFAULT_255_2_778
10
8.1991308
20
0.2716736
40
10.246818
50
93.2017819
51
94.5899598
0
ARC
8
DEFAULT_255_2_778
10
7.8794559
20
4.2002642
40
6.3052463
50
94.5511844
51
97.1069949
0
ARC
8
DEFAULT_255_2_778
10
7.6835305
20
5.7968736
40
4.6966645
50
97.1450153
51
101.0865178
0
ARC
8
DEFAULT_255_2_778
10
7.8500111
20
4.9791539
40
5.5311399
50
101.1500535
51
103.5281118
0
ARC
8
DEFAULT_255_2_778
10
8.4749674
20
2.3558201
40
8.2278834
50
103.4860552
51
104.5051081
0
ARC
8
DEFAULT_255_2_778
10
8.7522335
20
1.5287211
40
9.0982709
50
104.8909411
51
119.1480823
0
ARC
8
DEFAULT_255_2_778
10
8.1131789
20
2.6664563
40
7.7933519
50
119.1188794
51
125.2767481
0
ARC
8
DEFAULT_255_2_778
10
7.1180329
20
4.0707136
40
6.0722327
50
125.2634082
51
131.3727983
0
ARC
8
DEFAULT_255_2_778
10
6.2288943
20
5.0898337
40
4.7197826
50
131.4500235
51
135.8517792
0
ARC
8
DEFAULT_255_2_778
10
-1.684451
20
12.7594765
40
6.3004037
50
315.1016194
51
315.9290854
0
ARC
8
DEFAULT_255_2_778
10
-2.2438749
20
13.3172128
40
7.0903561
50
313.9141556
51
315.0999407
0
ARC
8
DEFAULT_255_2_778
10
-1.9878019
20
13.0437734
40
6.7157708
50
311.7617582
51
313.958368
0
ARC
8
DEFAULT_255_2_778
10
-0.1761635
20
11.0086727
40
3.991135
50
309.3723518
51
311.8207481
0
ARC
8
DEFAULT_255_2_778
10
1.3693157
20
9.118386
40
1.5494882
50
305.4875062
51
309.5350818
0
ARC
8
DEFAULT_255_2_778
10
1.9256098
20
8.3446677
40
0.5965631
50
302.5019228
51
305.1230251
0
ARC
8
DEFAULT_255_2_778
10
1.9702989
20
8.9871032
40
1.1783078
50
279.426663
51
283.539531
0
ARC
8
DEFAULT_255_2_778
10
2.039145
20
8.5661619
40
0.7517755
50
273.4756017
51
279.5049719
0
ARC
8
DEFAULT_255_2_778
10
2.053539
20
8.3584793
40
0.5436051
50
270.0507378
51
273.2882973
0
ARC
8
DEFAULT_255_2_778
10
2.0497354
20
8.1895314
40
0.3746815
50
255.2263435
51
270.6552654
0
ARC
8
DEFAULT_255_2_778
10
2.0875051
20
8.2772585
40
0.4693532
50
240.4784773
51
253.4986725
0
LINE
8
DEFAULT_255_2_778
10
1.8562312
20
7.8688412
11
1.8555101
21
7.8692182
0
ARC
8
DEFAULT_255_2_778
10
-0.4617972
20
3.4385263
40
5.0000943
50
62.3898697
51
62.4771276
0
ARC
8
DEFAULT_255_2_778
10
1.9272418
20
8.0060797
40
0.1547201
50
200.0079295
51
239.5190739
0
ARC
8
DEFAULT_255_2_778
10
-0.1028577
20
8.4603399
40
1.9517708
50
337.9406003
51
344.9379266
0
ARC
8
DEFAULT_255_2_778
10
0.6823733
20
8.1538684
40
1.1089753
50
335.6451758
51
337.3789313
0
ARC
8
DEFAULT_255_2_778
10
1.8109654
20
7.0735972
40
0.6340794
50
90.596893
51
100.7531735
0
ARC
8
DEFAULT_255_2_778
10
1.8275559
20
6.9444214
40
0.7635733
50
90.9133304
51
91.7408214
0
ARC
8
DEFAULT_255_2_778
10
1.8279031
20
6.9244052
40
0.7835924
50
89.9964908
51
90.9153791
0
ARC
8
DEFAULT_255_2_778
10
1.826909
20
6.845762
40
0.8622362
50
74.3877372
51
89.9307577
0
ARC
8
DEFAULT_255_2_778
10
1.921147
20
7.1876394
40
0.5076121
50
66.7824264
51
74.2469866
0
ARC
8
DEFAULT_255_2_778
10
15.9291632
20
25.6765906
40
22.7000702
50
233.5213973
51
234.5811049
0
ARC
8
DEFAULT_255_2_778
10
11.768105
20
19.8158712
40
15.5124146
50
234.5604929
51
236.196125
0
ARC
8
DEFAULT_255_2_778
10
8.9445986
20
15.5943444
40
10.4336877
50
236.1825592
51
238.3956808
0
ARC
8
DEFAULT_255_2_778
10
7.1435434
20
12.6591704
40
6.9899948
50
238.3609086
51
241.6424889
0
ARC
8
DEFAULT_255_2_778
10
6.0418769
20
10.610896
40
4.6642521
50
241.6006638
51
246.3848486
0
ARC
8
DEFAULT_255_2_778
10
5.4549995
20
9.2608514
40
3.1921679
50
246.3294618
51
253.5612311
0
ARC
8
DEFAULT_255_2_778
10
5.2321979
20
8.5010943
40
2.4004172
50
253.5299635
51
266.8791475
0
ARC
8
DEFAULT_255_2_778
10
5.2292118
20
8.5133773
40
2.4125222
50
266.9658425
51
269.2862676
0
ARC
8
DEFAULT_255_2_778
10
5.2963532
20
12.018751
40
5.9185069
50
269.0590491
51
269.4785536
0
ARC
8
DEFAULT_255_2_778
10
5.2845664
20
10.7186911
40
4.6183935
50
269.4779919
51
269.9896143
0
ARC
8
DEFAULT_255_2_778
10
5.2932626
20
8.7750209
40
2.6747401
50
269.7957863
51
273.0027605
0
ARC
8
DEFAULT_255_2_778
10
5.3718461
20
7.3639385
40
1.2614868
50
272.7957653
51
280.4528298
0
ARC
8
DEFAULT_255_2_778
10
5.4327224
20
7.0071158
40
0.8995544
50
280.7630775
51
289.3489786
0
ARC
8
DEFAULT_255_2_778
10
5.3417137
20
7.2483593
40
1.1573405
50
289.6430129
51
297.2057277
0
ARC
8
DEFAULT_255_2_778
10
4.8900545
20
8.1449201
40
2.1612235
50
296.9882487
51
299.8721339
0
ARC
8
DEFAULT_255_2_778
10
4.265476
20
9.2480723
40
3.4289004
50
299.7410253
51
300.4047348
0
ARC
8
DEFAULT_255_2_778
10
4.7896323
20
8.3430642
40
2.3830857
50
300.5480092
51
305.4365863
0
ARC
8
DEFAULT_255_2_778
10
5.077276
20
7.9489683
40
1.8952259
50
305.259352
51
310.1151277
0
ARC
8
DEFAULT_255_2_778
10
5.7524118
20
7.1532977
40
0.8517364
50
309.8702647
51
316.709345
0
ARC
8
DEFAULT_255_2_778
10
6.0868808
20
6.8321232
40
0.3880777
50
317.3637944
51
320.0906333
0
ARC
8
DEFAULT_255_2_778
10
5.825733
20
7.0278767
40
0.7141962
50
321.485966
51
324.1545013
0
ARC
8
DEFAULT_255_2_778
10
6.6345273
20
6.4902605
40
0.2590194
50
134.3701805
51
152.5548774
0
ARC
8
DEFAULT_255_2_778
10
6.5006603
20
6.630952
40
0.0648917
50
95.0153422
51
136.7471258
0
ARC
8
DEFAULT_255_2_778
10
6.4951685
20
6.663465
40
0.0321307
50
63.1913113
51
90.3231165
0
ARC
8
DEFAULT_255_2_778
10
6.8809362
20
5.2357683
40
1.5029541
50
99.0168908
51
104.3018971
0
ARC
8
DEFAULT_255_2_778
10
6.9444738
20
4.8388985
40
1.9048775
50
94.6696119
51
99.0335172
0
ARC
8
DEFAULT_255_2_778
10
6.9850967
20
4.3492461
40
2.3962118
50
91.0734557
51
94.6845682
0
ARC
8
DEFAULT_255_2_778
10
6.995217
20
3.9618986
40
2.7836823
50
89.9925382
51
91.132359
0
ARC
8
DEFAULT_255_2_778
10
6.9860332
20
3.253636
40
3.4919578
50
84.9675187
51
89.8433655
0
ARC
8
DEFAULT_255_2_778
10
6.8645998
20
1.8254807
40
4.9252618
50
81.5094326
51
85.0176943
0
ARC
8
DEFAULT_255_2_778
10
6.602183
20
0.0567931
40
6.7133101
50
78.6080826
51
81.5230872
0
ARC
8
DEFAULT_255_2_778
10
6.146865
20
-2.2112112
40
9.0265668
50
76.1671127
51
78.6184052
0
ARC
8
DEFAULT_255_2_778
10
5.5226177
20
-4.7675722
40
11.658039
50
74.4912266
51
76.1919813
0
ARC
8
DEFAULT_255_2_778
10
4.7105733
20
-7.6913257
40
14.6924665
50
72.8368523
51
74.4884699
0
ARC
8
DEFAULT_255_2_778
10
3.6818498
20
-11.0358003
40
18.1915762
50
71.6479823
51
72.8495141
0
ARC
8
DEFAULT_255_2_778
10
2.5171767
20
-14.5492941
40
21.8930762
50
70.5818139
51
71.6500781
0
ARC
8
DEFAULT_255_2_778
10
9.7283891
20
4.3203222
40
1.7793959
50
79.9827301
51
87.8301748
0
ARC
8
DEFAULT_255_2_778
10
9.5065129
20
3.0111072
40
3.1072604
50
75.3231015
51
80.1530658
0
ARC
8
DEFAULT_255_2_778
10
9.0167359
20
1.1302464
40
5.0508432
50
71.5889007
51
75.3543446
0
ARC
8
DEFAULT_255_2_778
10
8.1782277
20
-1.4135108
40
7.7292302
50
69.1216389
51
71.6468179
0
ARC
8
DEFAULT_255_2_778
10
6.9827232
20
-4.55708
40
11.0924503
50
67.1560688
51
69.1387606
0
ARC
8
DEFAULT_255_2_778
10
11.4043013
20
5.9289039
40
0.2876549
50
246.382798
51
255.8256474
0
ARC
8
DEFAULT_255_2_778
10
11.3595905
20
5.7534962
40
0.1066397
50
256.0388984
51
269.07958
0
ARC
8
DEFAULT_255_2_778
10
11.3569483
20
5.6989227
40
0.0520608
50
271.0226649
51
2.0465461
0
ARC
8
DEFAULT_255_2_778
10
11.0329129
20
5.7626855
40
0.3811238
50
350.6523847
51
1.1511488
0
ARC
8
DEFAULT_255_2_778
10
11.988458
20
5.7655097
40
0.5745185
50
165.4903814
51
179.5180518
0
ARC
8
DEFAULT_255_2_778
10
12.2519484
20
5.6991147
40
0.8462416
50
155.2089081
51
165.6080683
0
ARC
8
DEFAULT_255_2_778
10
12.6701748
20
5.4959058
40
1.3111647
50
138.7448644
51
154.8106014
0
ARC
8
DEFAULT_255_2_778
10
12.7708778
20
5.4326711
40
1.4286935
50
121.2151482
51
139.5014903
0
ARC
8
DEFAULT_255_2_778
10
12.5535447
20
5.7694954
40
1.0280607
50
115.950577
51
120.5848686
0
ARC
8
DEFAULT_255_2_778
10
12.4722016
20
5.9388463
40
0.8401903
50
109.2312372
51
116.0164368
0
ARC
8
DEFAULT_255_2_778
10
12.4262873
20
6.0661025
40
0.7049134
50
106.0784014
51
109.1144954
0
ARC
8
DEFAULT_255_2_778
10
13.9425434
20
3.5824626
40
3.5965096
50
97.2541787
51
118.4162378
0
ARC
8
DEFAULT_255_2_778
10
14.3113353
20
1.6327154
40
5.5785015
50
97.573596
51
98.4831031
0
ARC
8
DEFAULT_255_2_778
10
14.4986014
20
0.0346598
40
7.1873414
50
92.4410353
51
97.3743766
0
ARC
8
DEFAULT_255_2_778
10
14.6734068
20
-3.3295411
40
10.5559812
50
91.4322585
51
92.6112589
0
ARC
8
DEFAULT_255_2_778
10
14.8009965
20
5.786291
40
1.4740413
50
90.0196516
51
94.109608
0
ARC
8
DEFAULT_255_2_778
10
14.8000577
20
5.9018433
40
1.3584891
50
49.7768644
51
89.9817248
0
ARC
8
DEFAULT_255_2_778
10
14.4601781
20
5.457619
40
1.9173479
50
40.0693088
51
50.5943337
0
ARC
8
DEFAULT_255_2_778
10
19.2010858
20
9.4436856
40
4.2765955
50
220.0507512
51
223.570004
0
ARC
8
DEFAULT_255_2_778
10
17.55263
20
7.8679782
40
1.9962017
50
223.4130157
51
227.5768535
0
ARC
8
DEFAULT_255_2_778
10
16.4868594
20
6.6907156
40
0.408265
50
226.5314686
51
237.2266297
0
ARC
8
DEFAULT_255_2_778
10
16.2866858
20
6.3782094
40
0.0371563
50
235.9074459
51
262.8480343
0
ARC
8
DEFAULT_255_2_778
10
16.2789274
20
6.3817554
40
0.0405344
50
274.4320834
51
341.296722
0
ARC
8
DEFAULT_255_2_778
10
16.1497772
20
6.4453278
40
0.1842118
50
335.4388006
51
351.307109
0
ARC
8
DEFAULT_255_2_778
10
15.8074883
20
6.5053168
40
0.5316892
50
350.4916536
51
357.9281588
0
ARC
8
DEFAULT_255_2_778
10
15.3515633
20
6.5289596
40
0.9881967
50
357.5139167
51
0.0774309
0
ARC
8
DEFAULT_255_2_778
10
14.6006092
20
6.522174
40
1.7391688
50
0.2675442
51
4.3239364
0
ARC
8
DEFAULT_255_2_778
10
13.0180781
20
6.40661
40
3.325911
50
4.2536433
51
7.08256
0
ARC
8
DEFAULT_255_2_778
10
10.847503
20
6.1421103
40
5.5125385
50
7.0290405
51
8.9495068
0
ARC
8
DEFAULT_255_2_778
10
8.1282148
20
5.7154665
40
8.2650923
50
8.9385984
51
10.5637978
0
ARC
8
DEFAULT_255_2_778
10
4.8974804
20
5.1157847
40
11.5510104
50
10.5500416
51
11.8659919
0
ARC
8
DEFAULT_255_2_778
10
24.3190355
20
9.2113069
40
8.2976769
50
190.7437234
51
191.9659807
0
ARC
8
DEFAULT_255_2_778
10
21.3406115
20
8.6502964
40
5.2668822
50
188.345567
51
190.7877885
0
ARC
8
DEFAULT_255_2_778
10
19.8988884
20
8.4376063
40
3.8095558
50
184.7885638
51
188.327795
0
ARC
8
DEFAULT_255_2_778
10
19.8390083
20
8.4268253
40
3.7489892
50
180.7269165
51
184.7007683
0
ARC
8
DEFAULT_255_2_778
10
20.5690763
20
8.4413865
40
4.4791862
50
179.9933602
51
180.7946847
0
ARC
8
DEFAULT_255_2_778
10
21.5189257
20
8.4380622
40
5.4290368
50
178.3359462
51
179.9594379
0
ARC
8
DEFAULT_255_2_778
10
23.5824742
20
8.3797266
40
7.4934093
50
177.2910423
51
178.3482772
0
ARC
8
DEFAULT_255_2_778
10
26.9112759
20
8.2225741
40
10.8259184
50
176.4991432
51
177.2929
0
ARC
8
DEFAULT_255_2_778
10
6.5672483
20
9.4665624
40
9.556107
50
356.5028008
51
357.571755
0
ARC
8
DEFAULT_255_2_778
10
8.9893063
20
9.3637214
40
7.1318667
50
357.5728024
51
358.6414222
0
ARC
8
DEFAULT_255_2_778
10
11.022596
20
9.316467
40
5.0980282
50
358.6305547
51
359.9558166
0
ARC
8
DEFAULT_255_2_778
10
13.0609279
20
9.3193939
40
3.0597024
50
359.8715728
51
2.3870896
0
ARC
8
DEFAULT_255_2_778
10
14.7553297
20
9.3937164
40
1.3636803
50
2.2322498
51
6.5805184
0
ARC
8
DEFAULT_255_2_778
10
15.7027993
20
9.5074063
40
0.4094473
50
5.9701939
51
15.6480206
0
ARC
8
DEFAULT_255_2_778
10
16.0410114
20
9.6069418
40
0.0571102
50
11.0064044
51
48.088834
0
ARC
8
DEFAULT_255_2_778
10
16.0571822
20
9.6109585
40
0.0443172
50
60.2697947
51
83.6184175
0
ARC
8
DEFAULT_255_2_778
10
16.0335103
20
9.4610724
40
0.1960259
50
81.6113247
51
89.8312498
0
ARC
8
DEFAULT_255_2_778
10
16.0285703
20
9.2912977
40
0.3658412
50
89.1358826
51
90.0104117
0
ARC
8
DEFAULT_255_2_778
10
16.0428529
20
8.7666833
40
0.8905711
50
90.9231991
51
97.1256918
0
ARC
8
DEFAULT_255_2_778
10
16.2571375
20
6.9244356
40
2.7452171
50
96.7939493
51
100.0535945
0
ARC
8
DEFAULT_255_2_778
10
16.7103388
20
4.3257838
40
5.3830865
50
99.9748053
51
102.6470116
0
ARC
8
DEFAULT_255_2_778
10
16.9472891
20
3.2278831
40
6.5062346
50
102.5661931
51
103.3676213
0
ARC
8
DEFAULT_255_2_778
10
10.3450803
20
31.0279492
40
22.0670544
50
282.8173362
51
283.3572606
0
ARC
8
DEFAULT_255_2_778
10
11.8194818
20
24.5270908
40
15.4010966
50
281.9299334
51
282.834117
0
ARC
8
DEFAULT_255_2_778
10
12.9831243
20
19.0077447
40
9.7604197
50
280.6956487
51
281.944166
0
ARC
8
DEFAULT_255_2_778
10
13.7258433
20
15.0603223
40
5.743734
50
278.9049533
51
280.7235228
0
ARC
8
DEFAULT_255_2_778
10
14.132678
20
12.4493896
40
3.1012968
50
276.304498
51
278.9461621
0
ARC
8
DEFAULT_255_2_778
10
14.3090385
20
10.8212516
40
1.4636428
50
271.8890378
51
276.4413413
0
ARC
8
DEFAULT_255_2_778
10
14.3346708
20
10.1908915
40
0.8327945
50
270.030956
51
271.5560979
0
ARC
8
DEFAULT_255_2_778
10
14.3312473
20
9.8504078
40
0.4923258
50
263.4916784
51
270.4507924
0
ARC
8
DEFAULT_255_2_778
10
14.2938365
20
9.5419593
40
0.1816382
50
249.6055458
51
264.1881142
0
ARC
8
DEFAULT_255_2_778
10
14.2440166
20
9.4165156
40
0.0467918
50
204.7197331
51
253.2597099
0
ARC
8
DEFAULT_255_2_778
10
14.2324036
20
9.4081069
40
0.0328447
50
179.589512
51
199.8611221
0
ARC
8
DEFAULT_255_2_778
10
14.2373134
20
9.4006082
40
0.0385376
50
133.7588634
51
168.4227693
0
ARC
8
DEFAULT_255_2_778
10
13.9340105
20
10.250988
40
0.8678228
50
274.19626
51
288.5894914
0
ARC
8
DEFAULT_255_2_778
10
13.9100835
20
10.4852183
40
1.1031964
50
269.9511154
51
274.5454552
0
ARC
8
DEFAULT_255_2_778
10
13.9133132
20
10.7159814
40
1.3339658
50
261.3668849
51
269.8208517
0
ARC
8
DEFAULT_255_2_778
10
13.9785627
20
11.1052803
40
1.7286589
50
242.5356946
51
261.1655714
0
ARC
8
DEFAULT_255_2_778
10
13.7976215
20
10.7697239
40
1.3474833
50
232.3637226
51
242.7819534
0
ARC
8
DEFAULT_255_2_778
10
13.5417981
20
10.4298365
40
0.9221211
50
226.6546771
51
232.0553001
0
ARC
8
DEFAULT_255_2_778
10
13.2995826
20
10.170281
40
0.567113
50
206.2216436
51
226.4515219
0
ARC
8
DEFAULT_255_2_778
10
13.665511
20
10.3068293
40
0.9565206
50
182.6794986
51
203.8736604
0
ARC
8
DEFAULT_255_2_778
10
19.7561922
20
10.8960961
40
7.07462
50
184.5736344
51
185.1413869
0
ARC
8
DEFAULT_255_2_778
10
11.3229248
20
10.2712599
40
1.3825087
50
2.5166017
51
15.0696145
0
ARC
8
DEFAULT_255_2_778
10
12.1138344
20
10.4623082
40
0.5695198
50
17.1981043
51
25.5501146
0
ARC
8
DEFAULT_255_2_778
10
12.3937353
20
10.7016099
40
0.2340102
50
350.1804726
51
1.5506257
0
ARC
8
DEFAULT_255_2_778
10
12.6045185
20
10.661243
40
0.0198041
50
276.0697583
51
1.3236433
0
ARC
8
DEFAULT_255_2_778
10
12.6154552
20
10.7058496
40
0.0649048
50
231.7628742
51
262.169662
0
ARC
8
DEFAULT_255_2_778
10
12.85347
20
11.0649973
40
0.4955724
50
229.9733926
51
235.8513393
0
ARC
8
DEFAULT_255_2_778
10
13.7219889
20
12.1282643
40
1.868441
50
229.2667538
51
230.5489306
0
ARC
8
DEFAULT_255_2_778
10
12.2784135
20
10.440411
40
0.3526078
50
50.4873347
51
59.7580408
0
ARC
8
DEFAULT_255_2_778
10
11.9539081
20
9.8963635
40
0.9860722
50
59.3901624
51
64.7936994
0
ARC
8
DEFAULT_255_2_778
10
11.69251
20
9.3603931
40
1.5823529
50
64.4949932
51
66.0190378
0
ARC
8
DEFAULT_255_2_778
10
11.460965
20
8.8273299
40
2.1635159
50
66.1540017
51
71.1370179
0
ARC
8
DEFAULT_255_2_778
10
11.4348522
20
8.7606704
40
2.2350401
50
71.0560378
51
72.7382044
0
ARC
8
DEFAULT_255_2_778
10
11.5043488
20
8.9861148
40
1.9991279
50
72.7229683
51
74.8367838
0
ARC
8
DEFAULT_255_2_778
10
12.3671626
20
12.1894061
40
1.3183354
50
223.5125651
51
255.0588242
0
ARC
8
DEFAULT_255_2_778
10
12.6476002
20
12.4974845
40
1.7340969
50
224.1028569
51
224.5150892
0
LINE
8
DEFAULT_255_2_778
10
11.1287598
20
11.5689422
11
10.8721598
21
11.3657422
0
LINE
8
DEFAULT_255_2_778
10
10.8721598
20
11.3657422
11
10.4434598
21
11.0535422
0
LINE
8
DEFAULT_255_2_778
10
2.1212598
20
7.6541422
11
2.4334598
21
7.4239422
0
LINE
8
DEFAULT_255_2_778
10
12.2310598
20
6.7434422
11
12.2310598
21
6.7456422
0
LINE
8
DEFAULT_255_2_778
10
14.4095598
20
7.2231422
11
14.3783598
21
7.2342422
0
LINE
8
DEFAULT_255_2_778
10
14.3783598
20
7.2342422
11
14.6953598
21
7.2565422
0
LINE
8
DEFAULT_255_2_778
10
11.4023598
20
11.2906422
11
11.1287598
21
11.5689422
0
ARC
8
DEFAULT_255_2_778
10
8.303205
20
9.5242335
40
0.9480446
50
183.708468
51
190.0268312
0
ARC
8
DEFAULT_255_2_778
10
8.0291579
20
9.5048816
40
0.6733216
50
180.0866908
51
183.5735066
0
ARC
8
DEFAULT_255_2_778
10
7.6977515
20
9.5109072
40
0.3419871
50
167.4938794
51
181.1802857
0
ARC
8
DEFAULT_255_2_778
10
7.4220466
20
9.5777101
40
0.0586182
50
126.3035009
51
172.893061
0
ARC
8
DEFAULT_255_2_778
10
7.396013
20
9.6073435
40
0.0196266
50
89.919948
51
116.2224442
0
ARC
8
DEFAULT_255_2_778
10
7.387062
20
9.5734242
40
0.0542934
50
39.2526884
51
80.4813245
0
ARC
8
DEFAULT_255_2_778
10
7.182833
20
9.3694494
40
0.3427102
50
32.9439577
51
44.0609177
0
ARC
8
DEFAULT_255_2_778
10
6.5964319
20
8.9764468
40
1.0485984
50
27.9353464
51
33.5402689
0
ARC
8
DEFAULT_255_2_778
10
5.712
20
8.4994141
40
2.0534637
50
24.6092678
51
28.1338201
0
ARC
8
DEFAULT_255_2_778
10
4.9448088
20
8.1447023
40
2.8986835
50
21.4746334
51
24.6688249
0
ARC
8
DEFAULT_255_2_778
10
4.799106
20
8.084111
40
3.0564548
50
18.3451309
51
21.5317097
0
ARC
8
DEFAULT_255_2_778
10
5.2924899
20
8.24631
40
2.5370955
50
15.2248314
51
18.375213
0
ARC
8
DEFAULT_255_2_778
10
8.6097305
20
9.1723729
40
0.9071874
50
196.6415228
51
218.3762681
0
ARC
8
DEFAULT_255_2_778
10
7.3647666
20
8.1288715
40
0.7180538
50
36.2275822
51
41.9814049
0
ARC
8
DEFAULT_255_2_778
10
7.8369543
20
8.4685683
40
0.1364854
50
12.0457056
51
38.3416998
0
ARC
8
DEFAULT_255_2_778
10
7.8980217
20
8.4856946
40
0.073298
50
0.5018086
51
8.913547
0
ARC
8
DEFAULT_255_2_778
10
7.9003545
20
8.4857529
40
0.0709647
50
0.0000024
51
0.4712407
0
ARC
8
DEFAULT_255_2_778
10
7.8616546
20
8.4921805
40
0.1098528
50
322.2189141
51
356.645626
0
ARC
8
DEFAULT_255_2_778
10
7.5136735
20
8.7277234
40
0.5298764
50
318.0958914
51
325.1425431
0
ARC
8
DEFAULT_255_2_778
10
6.6484539
20
9.4750292
40
1.6730833
50
317.9101719
51
318.8382001
0
ARC
8
DEFAULT_255_2_778
10
8.1839001
20
8.1081435
40
0.3828677
50
140.1319423
51
158.8825979
0
ARC
8
DEFAULT_255_2_778
10
8.5253524
20
7.9607227
40
0.7546417
50
157.7814666
51
170.919156
0
ARC
8
DEFAULT_255_2_778
10
8.419556
20
7.9743418
40
0.64803
50
170.6318741
51
179.6173164
0
ARC
8
DEFAULT_255_2_778
10
6.3620945
20
7.9873966
40
1.4094729
50
354.6487181
51
359.6452601
0
ARC
8
DEFAULT_255_2_778
10
5.6425478
20
8.0520557
40
2.1319154
50
350.6546022
51
354.722057
0
ARC
8
DEFAULT_255_2_778
10
5.3552649
20
8.0943528
40
2.4222589
50
344.9244852
51
350.7708603
0
ARC
8
DEFAULT_255_2_778
10
6.18842
20
7.8680282
40
1.5589135
50
340.2346562
51
344.9920572
0
ARC
8
DEFAULT_255_2_778
10
6.8232925
20
7.6426758
40
0.885241
50
336.8474818
51
340.0651941
0
ARC
8
DEFAULT_255_2_778
10
7.2074723
20
7.4755947
40
0.4663167
50
330.2277106
51
337.1635982
0
ARC
8
DEFAULT_255_2_778
10
7.4678169
20
7.3245487
40
0.1653438
50
317.1634744
51
330.8631091
0
ARC
8
DEFAULT_255_2_778
10
7.5603998
20
7.2353424
40
0.0368835
50
276.1332157
51
320.9982311
0
ARC
8
DEFAULT_255_2_778
10
7.5716541
20
7.2151179
40
0.0180006
50
189.4326477
51
246.0273101
0
ARC
8
DEFAULT_255_2_778
10
7.7877394
20
7.3000925
40
0.249826
50
192.0258803
51
200.6062372
0
ARC
8
DEFAULT_255_2_778
10
8.5188935
20
7.4671473
40
0.9998015
50
189.1070286
51
192.6591383
0
ARC
8
DEFAULT_255_2_778
10
10.0345368
20
7.7163976
40
2.535798
50
187.2554766
51
189.2474232
0
ARC
8
DEFAULT_255_2_778
10
13.4075454
20
8.1575204
40
5.9375208
50
187.3598913
51
187.3674207
0
ARC
8
DEFAULT_255_2_778
10
12.6647363
20
8.0532173
40
5.187477
50
185.7459457
51
187.2683394
0
ARC
8
DEFAULT_255_2_778
10
15.842682
20
8.3795984
40
8.3821346
50
184.8828417
51
185.7908736
0
ARC
8
DEFAULT_255_2_778
10
19.2333874
20
8.6676644
40
11.7850543
50
183.7703491
51
184.8751049
0
ARC
8
DEFAULT_255_2_778
10
22.0561038
20
8.8571623
40
14.6141226
50
182.7929178
51
183.7839651
0
ARC
8
DEFAULT_255_2_778
10
8.61315
20
7.6245377
40
0.2364276
50
186.5059228
51
194.2925755
0
ARC
8
DEFAULT_255_2_778
10
10.0698675
20
7.8208117
40
1.7062659
50
185.3341603
51
187.5118609
0
ARC
8
DEFAULT_255_2_778
10
13.0890353
20
8.1165945
40
4.7398764
50
184.6905237
51
185.5013058
0
ARC
8
DEFAULT_255_2_778
10
18.0383853
20
8.5214178
40
9.7057547
50
183.936096
51
184.6830915
0
ARC
8
DEFAULT_255_2_778
10
25.519849
20
9.0417055
40
17.2052866
50
183.4449243
51
183.9544259
0
ARC
8
DEFAULT_255_2_778
10
32.0188719
20
9.437639
40
23.7163577
50
183.1427916
51
183.4562738
0
ARC
8
DEFAULT_255_2_778
10
37.3240699
20
9.7282275
40
29.029508
50
182.7222967
51
183.1414028
0
ARC
8
DEFAULT_255_2_778
10
40.1700375
20
9.8657302
40
31.8787945
50
182.3185398
51
182.7262109
0
ARC
8
DEFAULT_255_2_778
10
54.0832138
20
10.4642549
40
45.8048077
50
182.1877187
51
182.3625399
0
ARC
8
DEFAULT_255_2_778
10
35.7467223
20
9.7656642
40
27.4550134
50
181.9107579
51
182.1916603
0
ARC
8
DEFAULT_255_2_778
10
25.7615605
20
9.4314916
40
17.4642615
50
181.6120635
51
181.9073025
0
ARC
8
DEFAULT_255_2_778
10
19.2578313
20
9.2514281
40
10.9580412
50
181.0449685
51
181.6276001
0
ARC
8
DEFAULT_255_2_778
10
14.5740121
20
9.1671161
40
6.2734635
50
180.197025
51
181.0552101
0
ARC
8
DEFAULT_255_2_778
10
12.851999
20
9.1578369
40
4.5514299
50
180.0019533
51
180.1547579
0
ARC
8
DEFAULT_255_2_778
10
11.1808528
20
9.1640038
40
2.8802905
50
178.1599831
51
180.1257617
0
ARC
8
DEFAULT_255_2_778
10
9.4371804
20
9.2232489
40
1.1356194
50
174.3437936
51
178.3228111
0
ARC
8
DEFAULT_255_2_778
10
8.6435978
20
9.3053605
40
0.3378257
50
165.3399002
51
174.9368968
0
ARC
8
DEFAULT_255_2_778
10
8.3735179
20
9.3803243
40
0.0577173
50
132.4277712
51
169.4833436
0
ARC
8
DEFAULT_255_2_778
10
8.3459576
20
9.4071467
40
0.0194553
50
89.6583656
51
125.7955246
0
ARC
8
DEFAULT_255_2_778
10
8.343817
20
9.3888413
40
0.0378277
50
55.7982699
51
86.5799841
0
ARC
8
DEFAULT_255_2_778
10
8.3068052
20
9.3260436
40
0.1106692
50
49.7980933
51
58.2260686
0
ARC
8
DEFAULT_255_2_778
10
8.2556449
20
9.2685124
40
0.1876433
50
36.8595608
51
49.2058602
0
ARC
8
DEFAULT_255_2_778
10
8.1476763
20
9.1819549
40
0.3259829
50
34.8704363
51
37.6487147
0
ARC
8
DEFAULT_255_2_778
10
7.8937939
20
9.0183486
40
0.6279123
50
22.2872184
51
33.8739648
0
ARC
8
DEFAULT_255_2_778
10
7.6606506
20
8.9124225
40
0.8838631
50
15.6503425
51
22.9091058
0
ARC
8
DEFAULT_255_2_778
10
7.7815344
20
8.9464158
40
0.7582906
50
11.8221393
51
15.6410721
0
ARC
8
DEFAULT_255_2_778
10
9.645829
20
9.3430869
40
1.1477441
50
192.1371896
51
198.1488637
0
ARC
8
DEFAULT_255_2_778
10
10.082543
20
9.4781139
40
1.6048096
50
197.8731946
51
199.5591926
0
ARC
8
DEFAULT_255_2_778
10
10.0333627
20
9.4562297
40
1.5511463
50
199.4056486
51
206.1804194
0
ARC
8
DEFAULT_255_2_778
10
9.6202272
20
9.2605606
40
1.0940861
50
206.5302352
51
206.6693307
0
ARC
8
DEFAULT_255_2_778
10
9.3834063
20
9.1386865
40
0.8277622
50
206.488449
51
210.7346509
0
ARC
8
DEFAULT_255_2_778
10
9.1451309
20
8.9993878
40
0.5517675
50
210.9465284
51
212.2606359
0
ARC
8
DEFAULT_255_2_778
10
8.2170844
20
8.4025028
40
0.5516952
50
21.7973572
51
33.2346599
0
ARC
8
DEFAULT_255_2_778
10
8.492895
20
8.5129931
40
0.2545765
50
0.6242026
51
21.7579394
0
ARC
8
DEFAULT_255_2_778
10
8.527408
20
8.5157665
40
0.2200482
50
359.5364898
51
359.999998
0
ARC
8
DEFAULT_255_2_778
10
8.4685272
20
8.5216519
40
0.2790273
50
335.3444485
51
358.4257417
0
ARC
8
DEFAULT_255_2_778
10
8.2657743
20
8.601072
40
0.4965816
50
334.0109232
51
336.7754659
0
ARC
8
DEFAULT_255_2_778
10
9.1446022
20
8.1783346
40
0.4786478
50
154.6229792
51
160.6472834
0
ARC
8
DEFAULT_255_2_778
10
9.7587619
20
7.957288
40
1.1313676
50
160.3923051
51
163.7028239
0
ARC
8
DEFAULT_255_2_778
10
10.7485896
20
7.6687743
40
2.162386
50
163.7251836
51
167.1221342
0
ARC
8
DEFAULT_255_2_778
10
11.4926587
20
7.4931595
40
2.9268848
50
167.0171233
51
169.8043338
0
ARC
8
DEFAULT_255_2_778
10
11.1740975
20
7.548048
40
2.6036392
50
169.7522483
51
172.3650505
0
ARC
8
DEFAULT_255_2_778
10
6.9124169
20
8.1114004
40
1.6951261
50
347.2666081
51
352.6304859
0
ARC
8
DEFAULT_255_2_778
10
7.556696
20
7.9638859
40
1.0341795
50
340.8795608
51
347.370651
0
ARC
8
DEFAULT_255_2_778
10
8.0844894
20
7.7775957
40
0.4744934
50
330.7891747
51
341.2577014
0
ARC
8
DEFAULT_255_2_778
10
8.3243187
20
7.6456037
40
0.2007562
50
321.2422759
51
330.2651639
0
ARC
8
DEFAULT_255_2_778
10
8.4109254
20
7.5744465
40
0.0886829
50
303.2719101
51
322.0628947
0
ARC
8
DEFAULT_255_2_778
10
8.4390162
20
7.5314212
40
0.0372996
50
271.5437692
51
303.4535331
0
ARC
8
DEFAULT_255_2_778
10
8.4424799
20
7.532995
40
0.0389374
50
214.1157027
51
266.3794166
0
ARC
8
DEFAULT_255_2_778
10
8.5156133
20
7.5920103
40
0.1328164
50
201.0342633
51
217.5002788
0
ARC
8
DEFAULT_255_2_778
10
8.6473002
20
7.6485258
40
0.2760677
50
197.3130892
51
202.1724535
0
ARC
8
DEFAULT_255_2_778
10
9.2673792
20
9.3947339
40
0.0215939
50
90.9851574
51
142.5313565
0
ARC
8
DEFAULT_255_2_778
10
9.256372
20
9.3571171
40
0.0601552
50
34.7947282
51
79.816147
0
ARC
8
DEFAULT_255_2_778
10
9.0108402
20
9.1422417
40
0.3861169
50
28.2820064
51
40.1961248
0
ARC
8
DEFAULT_255_2_778
10
8.3503322
20
8.7717678
40
1.1433896
50
22.9126517
51
28.9481247
0
ARC
8
DEFAULT_255_2_778
10
7.5900885
20
8.439288
40
1.9731199
50
20.6618927
51
23.2106787
0
ARC
8
DEFAULT_255_2_778
10
7.0267517
20
8.2257784
40
2.57556
50
18.548909
51
20.6841752
0
ARC
8
DEFAULT_255_2_778
10
6.5491617
20
8.0648518
40
3.0795334
50
16.6200245
51
18.5607929
0
ARC
8
DEFAULT_255_2_778
10
11.2188504
20
9.4601294
40
1.7941505
50
196.6630399
51
202.4139715
0
ARC
8
DEFAULT_255_2_778
10
10.9192367
20
9.3401528
40
1.471429
50
202.5435893
51
202.9714565
0
ARC
8
DEFAULT_255_2_778
10
10.470566
20
9.1426121
40
0.9812668
50
202.5760494
51
208.7255672
0
ARC
8
DEFAULT_255_2_778
10
9.8441968
20
8.7945293
40
0.2647234
50
207.815947
51
220.6334434
0
ARC
8
DEFAULT_255_2_778
10
9.6875532
20
8.6622252
40
0.0597108
50
222.1733292
51
234.572347
0
ARC
8
DEFAULT_255_2_778
10
9.5976666
20
8.5468252
40
0.0866607
50
357.9732884
51
50.3706082
0
ARC
8
DEFAULT_255_2_778
10
9.5161631
20
8.5352552
40
0.168325
50
359.9783885
51
2.8963
0
ARC
8
DEFAULT_255_2_778
10
9.4365801
20
8.540723
40
0.2479696
50
335.1291846
51
358.7218371
0
ARC
8
DEFAULT_255_2_778
10
9.3820155
20
8.561074
40
0.3060657
50
335.6889927
51
335.9687789
0
ARC
8
DEFAULT_255_2_778
10
10.4458484
20
8.0936793
40
0.855937
50
156.4936776
51
161.0108666
0
ARC
8
DEFAULT_255_2_778
10
12.2824998
20
7.4482967
40
2.8026672
50
160.7525585
51
163.1563744
0
ARC
8
DEFAULT_255_2_778
10
13.8482671
20
6.9634525
40
4.4417625
50
163.0229149
51
163.8199109
0
ARC
8
DEFAULT_255_2_778
10
14.4441367
20
6.7904592
40
5.0622359
50
163.8188046
51
165.2202532
0
ARC
8
DEFAULT_255_2_778
10
13.9391411
20
6.922199
40
4.5403417
50
165.2020144
51
166.4357605
0
ARC
8
DEFAULT_255_2_778
10
6.246913
20
8.7681549
40
3.3702872
50
344.6832513
51
346.5995124
0
ARC
8
DEFAULT_255_2_778
10
7.6833905
20
8.3732421
40
1.8805154
50
341.961085
51
344.7269086
0
ARC
8
DEFAULT_255_2_778
10
8.6049029
20
8.0708746
40
0.9106692
50
337.4223837
51
342.0961623
0
ARC
8
DEFAULT_255_2_778
10
9.12357
20
7.8526993
40
0.3479954
50
328.7844113
51
337.8043765
0
ARC
8
DEFAULT_255_2_778
10
9.3433402
20
7.7161839
40
0.0893381
50
306.4186351
51
330.6145545
0
ARC
8
DEFAULT_255_2_778
10
9.3816033
20
7.6657236
40
0.02603
50
271.6195428
51
304.5846775
0
ARC
8
DEFAULT_255_2_778
10
9.3896961
20
7.6800695
40
0.0410305
50
198.8686251
51
259.670463
0
ARC
8
DEFAULT_255_2_778
10
9.6079758
20
7.7963742
40
0.2879107
50
193.9427238
51
206.7468289
0
ARC
8
DEFAULT_255_2_778
10
10.2676616
20
7.9741896
40
0.9711008
50
189.1927502
51
194.7465787
0
ARC
8
DEFAULT_255_2_778
10
11.5943397
20
8.1973009
40
2.316398
50
186.3491328
51
189.3980634
0
ARC
8
DEFAULT_255_2_778
10
13.7188961
20
8.4399959
40
4.4547668
50
184.5812215
51
186.4296334
0
ARC
8
DEFAULT_255_2_778
10
16.9066578
20
8.6978303
40
7.6529381
50
183.2028672
51
184.5991677
0
ARC
8
DEFAULT_255_2_778
10
21.5538146
20
8.9615436
40
12.3075706
50
182.2023041
51
183.2198959
0
ARC
8
DEFAULT_255_2_778
10
24.7978877
20
9.0955055
40
15.5543981
50
182.2082433
51
182.2361919
0
ARC
8
DEFAULT_255_2_778
10
4.9712716
20
8.0375023
40
5.2240202
50
0.753153
51
2.1725093
0
ARC
8
DEFAULT_255_2_778
10
2.3854031
20
7.94027
40
7.811716
50
2.1661746
51
3.9609764
0
ARC
8
DEFAULT_255_2_778
10
3.4482488
20
8.0254251
40
6.7455368
50
3.8630128
51
6.1578059
0
ARC
8
DEFAULT_255_2_778
10
6.7943202
20
8.3869527
40
3.3799916
50
6.1490258
51
8.5813812
0
ARC
8
DEFAULT_255_2_778
10
8.0388768
20
8.5679742
40
2.1223676
50
8.7625368
51
8.8738663
0
ARC
8
DEFAULT_255_2_778
10
12.2345813
20
9.2257099
40
2.1245794
50
184.1412294
51
188.9449146
0
ARC
8
DEFAULT_255_2_778
10
11.5746137
20
9.1791268
40
1.4629715
50
180.2001522
51
184.1881572
0
ARC
8
DEFAULT_255_2_778
10
10.7969698
20
9.1796775
40
0.6853422
50
174.0835939
51
180.4732985
0
ARC
8
DEFAULT_255_2_778
10
10.2827872
20
9.2365795
40
0.1680715
50
160.0986065
51
175.3103592
0
ARC
8
DEFAULT_255_2_778
10
10.1480963
20
9.2858778
40
0.0246482
50
127.3564486
51
161.2727846
0
ARC
8
DEFAULT_255_2_778
10
10.1618788
20
9.2587803
40
0.0548254
50
90.0943974
51
121.6130165
0
ARC
8
DEFAULT_255_2_778
10
10.1582287
20
9.2333048
40
0.0803796
50
52.7593909
51
87.4617356
0
ARC
8
DEFAULT_255_2_778
10
10.1070455
20
9.1555077
40
0.1734038
50
44.2779769
51
54.8523648
0
ARC
8
DEFAULT_255_2_778
10
9.9524311
20
9.0138735
40
0.3830381
50
28.2739806
51
43.2999634
0
ARC
8
DEFAULT_255_2_778
10
9.5589007
20
8.7942421
40
0.8336839
50
18.5428072
51
28.7562415
0
ARC
8
DEFAULT_255_2_778
10
9.230135
20
8.6765813
40
1.1828206
50
13.149784
51
18.881925
0
ARC
8
DEFAULT_255_2_778
10
10.9358051
20
9.082321
40
0.5704731
50
193.859376
51
204.4168427
0
ARC
8
DEFAULT_255_2_778
10
11.0935269
20
9.1475899
40
0.7410914
50
203.9710187
51
204.5468975
0
ARC
8
DEFAULT_255_2_778
10
11.106342
20
9.1495739
40
0.7535808
50
204.2793321
51
222.3526611
0
ARC
8
DEFAULT_255_2_778
10
10.8732924
20
8.950671
40
0.4474668
50
223.6347481
51
224.7221595
0
ARC
8
DEFAULT_255_2_778
10
10.8079199
20
8.8842354
40
0.3542712
50
224.5274904
51
230.8063387
0
ARC
8
DEFAULT_255_2_778
10
10.8317002
20
8.0339308
40
0.425609
50
127.0374005
51
157.9743144
0
ARC
8
DEFAULT_255_2_778
10
10.6995206
20
8.0818393
40
0.2851564
50
156.9377919
51
177.2428251
0
ARC
8
DEFAULT_255_2_778
10
10.6020186
20
8.0910664
40
0.1873781
50
178.6269826
51
179.9988782
0
ARC
8
DEFAULT_255_2_778
10
9.5361607
20
8.0845151
40
0.8785042
50
345.4494888
51
0.4275143
0
ARC
8
DEFAULT_255_2_778
10
10.0148014
20
7.9536639
40
0.3823946
50
325.9449829
51
346.4090467
0
ARC
8
DEFAULT_255_2_778
10
10.2549769
20
7.7848805
40
0.0890527
50
275.7121893
51
329.3837285
0
ARC
8
DEFAULT_255_2_778
10
10.2793127
20
7.7343171
40
0.0410727
50
187.8168065
51
247.8703823
0
ARC
8
DEFAULT_255_2_778
10
10.7202278
20
7.8923088
40
0.5086277
50
188.108286
51
198.7600869
0
ARC
8
DEFAULT_255_2_778
10
11.872939
20
8.07741
40
1.6760503
50
183.0874459
51
188.8148172
0
ARC
8
DEFAULT_255_2_778
10
12.7114091
20
8.1347748
40
2.5164223
50
180.6330922
51
183.3634381
0
ARC
8
DEFAULT_255_2_778
10
5.0626601
20
8.2567621
40
5.9937204
50
0.2094251
51
1.9761451
0
ARC
8
DEFAULT_255_2_778
10
3.8186485
20
8.219977
40
7.2382634
50
1.9275861
51
2.4457033
0
ARC
8
DEFAULT_255_2_778
10
4.2761878
20
8.2451392
40
6.7800694
50
2.3982545
51
4.6975114
0
ARC
8
DEFAULT_255_2_778
10
7.3871249
20
8.5026338
40
3.658495
50
4.6684008
51
6.906633
0
ARC
8
DEFAULT_255_2_778
10
9.3983674
20
8.7453535
40
1.6326599
50
6.938114
51
9.3274714
0
ARC
8
DEFAULT_255_2_778
10
12.5811206
20
9.2731771
40
1.5935672
50
187.4703213
51
189.5070225
0
ARC
8
DEFAULT_255_2_778
10
12.0109927
20
9.1991685
40
1.0186564
50
184.6193884
51
187.5121314
0
ARC
8
DEFAULT_255_2_778
10
11.5823574
20
9.1651946
40
0.5886777
50
180.5638531
51
184.6833483
0
ARC
8
DEFAULT_255_2_778
10
11.4106426
20
9.1618857
40
0.4169417
50
179.9967262
51
180.3413867
0
ARC
8
DEFAULT_255_2_778
10
11.2581154
20
9.1646667
40
0.2644291
50
172.09685
51
180.5974267
0
ARC
8
DEFAULT_255_2_778
10
11.0815271
20
9.1909378
40
0.0859235
50
153.6071782
51
173.2577267
0
ARC
8
DEFAULT_255_2_778
10
11.0250554
20
9.220339
40
0.0223026
50
91.7408788
51
156.7783016
0
ARC
8
DEFAULT_255_2_778
10
11.0154179
20
9.1818487
40
0.0614395
50
41.7732542
51
81.6143886
0
ARC
8
DEFAULT_255_2_778
10
10.8159626
20
8.9665554
40
0.3546981
50
35.2515428
51
46.250509
0
ARC
8
DEFAULT_255_2_778
10
10.252744
20
8.5542938
40
1.0526448
50
30.7468683
51
35.8825294
0
ARC
8
DEFAULT_255_2_778
10
9.2136562
20
7.9296359
40
2.2650334
50
27.6641894
51
30.8891021
0
ARC
8
DEFAULT_255_2_778
10
7.6407034
20
7.0999546
40
4.0433867
50
25.5105441
51
27.7284006
0
ARC
8
DEFAULT_255_2_778
10
6.5033803
20
6.5484979
40
5.3073334
50
25.3279621
51
25.5955478
0
ARC
8
DEFAULT_255_2_778
10
6.3369119
20
6.4490221
40
5.5003874
50
24.1482472
51
25.5227394
0
ARC
8
DEFAULT_255_2_778
10
9.5930954
20
7.905148
40
1.9334556
50
21.1497403
51
24.2490324
0
ARC
8
DEFAULT_255_2_778
10
10.7799456
20
8.3592267
40
0.6627332
50
13.5409969
51
21.5587677
0
ARC
8
DEFAULT_255_2_778
10
11.1764957
20
8.4548876
40
0.254808
50
0.8088733
51
13.5065643
0
ARC
8
DEFAULT_255_2_778
10
11.2848378
20
8.4572299
40
0.1464458
50
321.2385009
51
0.4909593
0
ARC
8
DEFAULT_255_2_778
10
11.1540609
20
8.5505901
40
0.3070054
50
317.370721
51
322.9330341
0
ARC
8
DEFAULT_255_2_778
10
11.8785569
20
7.9597805
40
0.6286675
50
142.4792007
51
170.8205478
0
ARC
8
DEFAULT_255_2_778
10
10.9111142
20
8.103962
40
0.3495925
50
322.5667811
51
352.7873866
0
ARC
8
DEFAULT_255_2_778
10
11.0963064
20
7.9650132
40
0.1181015
50
298.2417133
51
321.4836187
0
ARC
8
DEFAULT_255_2_778
10
11.1241124
20
7.9179897
40
0.0635578
50
288.367786
51
296.21764
0
ARC
8
DEFAULT_255_2_778
10
11.1293938
20
7.9012019
40
0.0459618
50
270.7308418
51
288.7140625
0
ARC
8
DEFAULT_255_2_778
10
11.1377706
20
7.9074533
40
0.0527873
50
188.5339239
51
261.5131454
0
ARC
8
DEFAULT_255_2_778
10
11.4764528
20
8.0291002
40
0.4117723
50
185.7029594
51
198.3273944
0
ARC
8
DEFAULT_255_2_778
10
12.5978858
20
8.166625
40
1.54153
50
182.0404768
51
186.6472948
0
ARC
8
DEFAULT_255_2_778
10
15.3113667
20
8.276645
40
4.2572285
50
179.9404463
51
182.2199519
0
ARC
8
DEFAULT_255_2_778
10
41.9480955
20
8.5804154
40
30.1051577
50
179.731479
51
180.0238761
0
ARC
8
DEFAULT_255_2_778
10
24.1500831
20
8.6647727
40
12.3069454
50
179.2125928
51
179.7358781
0
ARC
8
DEFAULT_255_2_778
10
16.9270904
20
8.7697935
40
5.0831947
50
177.9403939
51
179.2773991
0
ARC
8
DEFAULT_255_2_778
10
13.4973874
20
8.8992422
40
1.6510664
50
174.6146882
51
178.1522321
0
ARC
8
DEFAULT_255_2_778
10
12.2294156
20
9.0243414
40
0.3769912
50
164.964435
51
175.4572985
0
ARC
8
DEFAULT_255_2_778
10
11.9045251
20
9.1186034
40
0.0393537
50
110.2538611
51
174.8441468
0
ARC
8
DEFAULT_255_2_778
10
11.8939533
20
9.1350909
40
0.0206595
50
89.9125481
51
98.4943588
0
ARC
8
DEFAULT_255_2_778
10
11.889739
20
9.1092955
40
0.0466485
50
51.2504093
51
84.777795
0
ARC
8
DEFAULT_255_2_778
10
11.7778328
20
8.950794
40
0.2406024
50
44.9797477
51
54.0936139
0
ARC
8
DEFAULT_255_2_778
10
11.5115944
20
8.6697843
40
0.6276506
50
44.9702874
51
45.9457508
0
ARC
8
DEFAULT_255_2_778
10
11.6776432
20
8.8517806
40
0.3817218
50
23.0825213
51
43.258274
0
ARC
8
DEFAULT_255_2_778
10
11.2419042
20
8.6560769
40
0.8593521
50
11.4199443
51
23.6960354
0
ARC
8
DEFAULT_255_2_778
10
10.7062039
20
8.541946
40
1.4070564
50
359.8314581
51
11.6562645
0
ARC
8
DEFAULT_255_2_778
10
10.6283736
20
8.5378078
40
1.4848804
50
359.4918422
51
359.9999671
0
ARC
8
DEFAULT_255_2_778
10
10.8149922
20
8.5291632
40
1.2982115
50
347.6224715
51
359.8003072
0
ARC
8
DEFAULT_255_2_778
10
11.1930843
20
8.4522664
40
0.9124438
50
341.8523259
51
347.2497591
0
ARC
8
DEFAULT_255_2_778
10
10.1581431
20
8.7905993
40
2.0012838
50
339.1495215
51
341.8765776
0
ARC
8
DEFAULT_255_2_778
10
11.0888037
20
8.4344094
40
1.0047923
50
335.0157025
51
339.2415276
0
ARC
8
DEFAULT_255_2_778
10
11.622053
20
8.1835236
40
0.4154817
50
327.4698487
51
335.3163855
0
ARC
8
DEFAULT_255_2_778
10
11.869571
20
8.0224298
40
0.1202009
50
309.4452302
51
328.76572
0
ARC
8
DEFAULT_255_2_778
10
11.9258683
20
7.9537639
40
0.0314075
50
272.86287
51
309.7217583
0
ARC
8
DEFAULT_255_2_778
10
11.9344772
20
7.9617702
40
0.039999
50
195.8264672
51
259.8625741
0
ARC
8
DEFAULT_255_2_778
10
12.1571523
20
8.0676527
40
0.2860832
50
190.8322955
51
204.0944519
0
ARC
8
DEFAULT_255_2_778
10
12.8147355
20
8.2086667
40
0.9585667
50
186.2024763
51
191.7240428
0
ARC
8
DEFAULT_255_2_778
10
14.1210561
20
8.3576998
40
2.2733532
50
183.1763412
51
186.3794746
0
ARC
8
DEFAULT_255_2_778
10
16.2761035
20
8.4837679
40
4.4320798
50
181.297957
51
183.2599164
0
ARC
8
DEFAULT_255_2_778
10
19.3844957
20
8.5580642
40
7.5413585
50
179.9475324
51
181.327336
0
ARC
8
DEFAULT_255_2_778
10
14.3175248
20
10.6638788
40
2.8111269
50
230.846633
51
232.0831895
0
ARC
8
DEFAULT_255_2_778
10
12.7743933
20
8.7756818
40
0.3726039
50
224.7415769
51
231.5278928
0
ARC
8
DEFAULT_255_2_778
10
12.5307808
20
8.5388692
40
0.0330364
50
192.1611046
51
230.4323724
0
ARC
8
DEFAULT_255_2_778
10
12.5103825
20
8.5293999
40
0.0121585
50
86.5887106
51
168.087205
0
ARC
8
DEFAULT_255_2_778
10
12.5346804
20
8.4073547
40
0.1362374
50
89.0097011
51
99.9645706
0
ARC
8
DEFAULT_255_2_778
10
12.5392377
20
8.2158906
40
0.3276886
50
89.9921377
51
90.3851378
0
ARC
8
DEFAULT_255_2_778
10
12.5347232
20
7.858382
40
0.6852123
50
86.5620369
51
89.6187428
0
ARC
8
DEFAULT_255_2_778
10
12.4449124
20
6.2368529
40
2.3092214
50
85.7611255
51
86.7503679
0
ARC
8
DEFAULT_255_2_778
10
11.8926347
20
-1.2984061
40
9.8646916
50
85.5143847
51
85.7971389
0
ARC
8
DEFAULT_255_2_778
10
12.6252184
20
8.0217327
40
0.5158079
50
69.4739447
51
85.6724339
0
ARC
8
DEFAULT_255_2_778
10
12.7743147
20
8.3984622
40
0.110974
50
36.2936177
51
73.3681571
0
ARC
8
DEFAULT_255_2_778
10
12.8405952
20
8.4519559
40
0.0261777
50
4.2905175
51
27.7641199
0
ARC
8
DEFAULT_255_2_778
10
12.8445427
20
8.4525141
40
0.0222009
50
359.9932123
51
3.6162452
0
ARC
8
DEFAULT_255_2_778
10
12.8444629
20
8.4525243
40
0.0222808
50
345.564956
51
359.9669308
0
ARC
8
DEFAULT_255_2_778
10
12.7504944
20
8.4619665
40
0.1165152
50
316.1977743
51
352.6050331
0
ARC
8
DEFAULT_255_2_778
10
12.778159
20
8.4429874
40
0.08359
50
267.8335251
51
312.4589433
0
ARC
8
DEFAULT_255_2_778
10
12.7819829
20
8.5533788
40
0.1940474
50
244.7772314
51
267.9374392
0
ARC
8
DEFAULT_255_2_778
10
12.8919145
20
8.8045823
40
0.4682084
50
233.8108206
51
245.7069443
0
ARC
8
DEFAULT_255_2_778
10
13.0398584
20
9.0207132
40
0.7300416
50
231.9442607
51
234.4554813
0
LINE
8
DEFAULT_255_2_778
10
7.4590404
20
8.14217
11
7.3696404
21
9.35917
0
LINE
8
DEFAULT_255_2_778
10
7.4593404
20
8.14507
11
7.4590404
21
8.14217
0
LINE
8
DEFAULT_255_2_778
10
8.3837404
20
7.56637
11
8.3840404
21
7.56617
0
LINE
8
DEFAULT_255_2_778
10
9.2555404
20
8.49617
11
9.2502404
21
9.40787
0
LINE
8
DEFAULT_255_2_778
10
9.2550404
20
8.49617
11
9.2555404
21
8.49617
0
LINE
8
DEFAULT_255_2_778
10
10.5840404
20
8.60967
11
10.7359404
21
8.48737
0
LINE
8
DEFAULT_255_2_778
10
10.7359404
20
8.48737
11
10.5753404
21
8.37367
0
LINE
8
DEFAULT_255_2_778
10
10.1951404
20
8.10697
11
10.1948404
21
8.10617
0
LINE
8
DEFAULT_255_2_778
10
11.0541404
20
8.28107
11
11.0563404
21
8.27867
0
LINE
8
DEFAULT_255_2_778
10
11.8431404
20
8.56497
11
11.8429404
21
8.56787
0
LINE
8
DEFAULT_255_2_778
10
12.5898404
20
8.44587
11
12.5900404
21
8.44617
0
ARC
8
DEFAULT_255_2_778
10
11.1064302
20
11.3363481
40
0.6416293
50
91.4107104
51
109.3817759
0
ARC
8
DEFAULT_255_2_778
10
11.463354
20
10.2522725
40
1.7828668
50
108.6404774
51
115.494973
0
ARC
8
DEFAULT_255_2_778
10
12.182347
20
8.669329
40
3.5212945
50
114.9682715
51
115.8982879
0
ARC
8
DEFAULT_255_2_778
10
9.2956281
20
14.6466816
40
3.1166351
50
293.9031241
51
295.6418417
0
ARC
8
DEFAULT_255_2_778
10
7.7820651
20
18.0533663
40
6.8444185
50
292.618195
51
293.9314858
0
ARC
8
DEFAULT_255_2_778
10
6.0563866
20
22.1827524
40
11.3198827
50
291.4467747
51
292.6426881
0
ARC
8
DEFAULT_255_2_778
10
5.6059307
20
23.3144987
40
12.5379687
50
290.9018425
51
291.4717127
0
ARC
8
DEFAULT_255_2_778
10
6.2737715
20
21.550138
40
10.6514525
50
289.6614562
51
290.931833
0
ARC
8
DEFAULT_255_2_778
10
7.1126297
20
19.2209133
40
8.1757869
50
289.3927607
51
289.6176209
0
ARC
8
DEFAULT_255_2_778
10
12.0565063
20
5.1986631
40
6.6924843
50
109.4561871
51
111.0745692
0
ARC
8
DEFAULT_255_2_778
10
12.5149949
20
3.9939671
40
7.9814684
50
111.0360483
51
111.5036227
0
ARC
8
DEFAULT_255_2_778
10
12.6415706
20
3.672749
40
8.3267254
50
111.5037576
51
112.7328769
0
ARC
8
DEFAULT_255_2_778
10
12.0825627
20
4.9915176
40
6.8943855
50
112.6833175
51
114.5355389
0
ARC
8
DEFAULT_255_2_778
10
10.8478932
20
7.6929272
40
3.924197
50
114.515058
51
116.508385
0
ARC
8
DEFAULT_255_2_778
10
9.909979
20
9.570635
40
1.8252769
50
116.4696043
51
119.1340761
0
ARC
8
DEFAULT_255_2_778
10
8.3472327
20
12.3308076
40
1.3466847
50
295.765077
51
300.0372867
0
ARC
8
DEFAULT_255_2_778
10
8.4409573
20
12.1430207
40
1.1368298
50
295.466854
51
295.6250033
0
ARC
8
DEFAULT_255_2_778
10
8.4860221
20
12.0503851
40
1.0338181
50
278.8172681
51
295.4195388
0
ARC
8
DEFAULT_255_2_778
10
8.3075507
20
13.1142672
40
2.112526
50
273.8769755
51
279.1776274
0
ARC
8
DEFAULT_255_2_778
10
8.1056141
20
15.890278
40
4.8958574
50
271.6553791
51
274.0381986
0
ARC
8
DEFAULT_255_2_778
10
7.9266565
20
21.3416945
40
10.3501907
50
270.9686721
51
271.7738626
0
ARC
8
DEFAULT_255_2_778
10
8.2628844
20
1.8019697
40
9.1924276
50
91.0051149
51
95.0962811
0
ARC
8
DEFAULT_255_2_778
10
8.2872568
20
1.4913157
40
9.5040192
50
95.0762712
51
95.6443689
0
ARC
8
DEFAULT_255_2_778
10
8.3469943
20
1.0201218
40
9.9788126
50
95.7196102
51
112.1263986
0
ARC
8
DEFAULT_255_2_778
10
7.9493738
20
1.9960493
40
8.9249928
50
112.1215607
51
119.8936065
0
ARC
8
DEFAULT_255_2_778
10
7.2971104
20
3.1337764
40
7.6135556
50
119.9052827
51
126.7246348
0
ARC
8
DEFAULT_255_2_778
10
5.5352171
20
5.5075916
40
4.6573452
50
126.8141904
51
129.6682279
0
ARC
8
DEFAULT_255_2_778
10
5.3618281
20
5.7162835
40
4.3860225
50
129.6649596
51
132.2479079
0
ARC
8
DEFAULT_255_2_778
10
5.2242428
20
5.8695413
40
4.1800707
50
132.2642848
51
132.6413589
0
ARC
8
DEFAULT_255_2_778
10
4.9275364
20
6.1835562
40
3.7480917
50
132.5566138
51
137.3715394
0
ARC
8
DEFAULT_255_2_778
10
4.2357015
20
6.8177801
40
2.8095444
50
137.3327463
51
142.6059333
0
ARC
8
DEFAULT_255_2_778
10
3.4915355
20
7.3839231
40
1.8745077
50
142.5405424
51
148.9437249
0
ARC
8
DEFAULT_255_2_778
10
2.8252194
20
7.7820239
40
1.0983319
50
148.8027985
51
157.6390586
0
ARC
8
DEFAULT_255_2_778
10
2.318934
20
7.9866701
40
0.5522707
50
157.2911625
51
171.5426196
0
ARC
8
DEFAULT_255_2_778
10
2.0924853
20
8.0249766
40
0.3226832
50
172.3568171
51
179.8166906
0
ARC
8
DEFAULT_255_2_778
10
1.9845163
20
8.0229547
40
0.2147343
50
179.1850188
51
199.1278516
0
ARC
8
DEFAULT_255_2_778
10
1.9307655
20
8.0059219
40
0.1583771
50
199.6779242
51
239.0585127
0
ARC
8
DEFAULT_255_2_778
10
-14.3837298
20
-22.5396434
40
34.4712026
50
61.8913998
51
61.9061845
0
ARC
8
DEFAULT_255_2_778
10
2.0622717
20
8.2158464
40
0.4056228
50
239.6274078
51
257.8447195
0
ARC
8
DEFAULT_255_2_778
10
2.0517149
20
8.2134742
40
0.4012012
50
259.2473572
51
270.3915237
0
ARC
8
DEFAULT_255_2_778
10
2.0517852
20
8.4316339
40
0.6193574
50
270.2471086
51
277.0382825
0
ARC
8
DEFAULT_255_2_778
10
2.0097609
20
8.7786822
40
0.9689401
50
276.9899689
51
282.0511458
0
ARC
8
DEFAULT_255_2_778
10
1.9402064
20
9.1226635
40
1.3198681
50
281.886343
51
283.4290459
0
ARC
8
DEFAULT_255_2_778
10
1.7093194
20
8.661138
40
0.9823023
50
303.1680724
51
308.5893028
0
ARC
8
DEFAULT_255_2_778
10
0.4301134
20
10.2887596
40
3.0524338
50
308.3015919
51
311.1414322
0
ARC
8
DEFAULT_255_2_778
10
-1.4973514
20
12.506903
40
5.9910134
50
311.0667338
51
313.3271158
0
ARC
8
DEFAULT_255_2_778
10
-2.3098698
20
13.3805152
40
7.1840458
50
313.260321
51
313.9358471
0
ARC
8
DEFAULT_255_2_778
10
-2.2064638
20
13.2745698
40
7.0360043
50
313.9280788
51
315.1367009
0
ARC
8
DEFAULT_255_2_778
10
-1.6445792
20
12.7149892
40
6.243007
50
315.139113
51
315.9546994
0
ARC
8
DEFAULT_255_2_778
10
6.4365606
20
4.8735308
40
5.017264
50
128.9701213
51
135.7475576
0
ARC
8
DEFAULT_255_2_778
10
7.5212966
20
3.5382568
40
6.7376126
50
122.8991236
51
129.0005669
0
ARC
8
DEFAULT_255_2_778
10
8.4265037
20
2.1439654
40
8.3999732
50
116.5095958
51
122.9176205
0
ARC
8
DEFAULT_255_2_778
10
8.7464228
20
1.5401268
40
9.0831345
50
104.8746569
51
116.6153216
0
ARC
8
DEFAULT_255_2_778
10
8.3899482
20
2.8309218
40
7.7440967
50
103.5190634
51
104.7771784
0
ARC
8
DEFAULT_255_2_778
10
7.8134596
20
5.2343715
40
5.2724764
50
101.294039
51
103.5335864
0
ARC
8
DEFAULT_255_2_778
10
7.6813526
20
5.8658059
40
4.6274011
50
96.4103694
51
101.2211592
0
ARC
8
DEFAULT_255_2_778
10
7.9048196
20
3.913523
40
6.5924289
50
94.3382724
51
96.4460014
0
ARC
8
DEFAULT_255_2_778
10
8.1738695
20
0.4414726
40
10.074885
50
93.1958931
51
94.3703268
0
ARC
8
DEFAULT_255_2_778
10
8.5256203
20
-5.8802935
40
16.4064295
50
92.2632827
51
93.1915825
0
ARC
8
DEFAULT_255_2_778
10
9.0135336
20
-17.9939737
40
28.5299298
50
91.7706063
51
92.2816497
0
ARC
8
DEFAULT_255_2_778
10
9.7094583
20
-40.3752361
40
50.9220088
50
91.449285
51
91.7751704
0
ARC
8
DEFAULT_255_2_778
10
9.3082253
20
-21.0650142
40
31.6079366
50
91.2949205
51
91.6075184
0
ARC
8
DEFAULT_255_2_778
10
9.1877699
20
-15.7839071
40
26.3254563
50
91.0216445
51
91.2925735
0
ARC
8
DEFAULT_255_2_778
10
9.1108847
20
-11.37136
40
21.9122399
50
90.5570458
51
91.0263594
0
ARC
8
DEFAULT_255_2_778
10
9.0721122
20
-7.37296
40
17.9136517
50
90.0088284
51
90.5573732
0
ARC
8
DEFAULT_255_2_778
10
9.075962
20
-3.5037173
40
14.0444104
50
88.890828
51
90.0269662
0
ARC
8
DEFAULT_255_2_778
10
9.1403819
20
-0.2149287
40
10.7549911
50
87.3898149
51
88.8947974
0
ARC
8
DEFAULT_255_2_778
10
9.2445505
20
2.0271401
40
8.5105048
50
85.0525814
51
87.4029799
0
ARC
8
DEFAULT_255_2_778
10
9.3450624
20
3.2055948
40
7.3277727
50
81.6724352
51
85.0408979
0
ARC
8
DEFAULT_255_2_778
10
9.2677239
20
2.735388
40
7.8042274
50
78.0311637
51
81.6106039
0
ARC
8
DEFAULT_255_2_778
10
8.7764526
20
0.3966791
40
10.1939746
50
76.129952
51
78.0559466
0
ARC
8
DEFAULT_255_2_778
10
7.8592125
20
-3.3302684
40
14.032133
50
74.8708074
51
76.1419188
0
ARC
8
DEFAULT_255_2_778
10
6.297369
20
-9.1198588
40
20.0286908
50
74.0368966
51
74.880398
0
ARC
8
DEFAULT_255_2_778
10
4.9550318
20
-13.8520844
40
24.9476066
50
73.96079
51
74.0618684
0
ARC
8
DEFAULT_255_2_778
10
16.6951778
20
27.0076342
40
17.5653052
50
253.9810318
51
254.8856883
0
ARC
8
DEFAULT_255_2_778
10
15.2079863
20
21.482059
40
11.8430956
50
254.8613829
51
255.9380576
0
ARC
8
DEFAULT_255_2_778
10
13.7203288
20
15.5289167
40
5.7068912
50
255.9043076
51
257.35304
0
ARC
8
DEFAULT_255_2_778
10
12.8554196
20
11.6427372
40
1.7256475
50
257.1230314
51
260.3805829
0
ARC
8
DEFAULT_255_2_778
10
12.6136242
20
10.1992262
40
0.2620434
50
259.7641375
51
267.8659802
0
ARC
8
DEFAULT_255_2_778
10
12.604766
20
9.9686037
40
0.031252
50
268.3506829
51
281.9259325
0
ARC
8
DEFAULT_255_2_778
10
12.6102243
20
9.9431978
40
0.0052673
50
280.9423842
51
310.3389389
0
ARC
8
DEFAULT_255_2_778
10
12.6076761
20
9.9454208
40
0.0086259
50
313.6845867
51
0.4726453
0
ARC
8
DEFAULT_255_2_778
10
12.5792228
20
9.9372506
40
0.0379836
50
12.5312248
51
54.2912747
0
ARC
8
DEFAULT_255_2_778
10
12.3835829
20
9.721826
40
0.328768
50
48.5090122
51
58.2538804
0
ARC
8
DEFAULT_255_2_778
10
11.9095082
20
8.9822425
40
1.2072195
50
57.5889008
51
61.7535627
0
ARC
8
DEFAULT_255_2_778
10
11.0810018
20
7.4556822
40
2.9441095
50
61.6099263
51
64.0516683
0
ARC
8
DEFAULT_255_2_778
10
9.8930575
20
5.0253477
40
5.649239
50
64.0033088
51
65.7391984
0
ARC
8
DEFAULT_255_2_778
10
8.6988628
20
2.390912
40
8.5416992
50
65.6971829
51
66.8173447
0
ARC
8
DEFAULT_255_2_778
10
7.8548413
20
0.4252522
40
10.6809017
50
66.8062846
51
67.7693052
0
ARC
8
DEFAULT_255_2_778
10
7.4373119
20
-0.5926993
40
11.7811537
50
67.7626658
51
68.8563048
0
ARC
8
DEFAULT_255_2_778
10
7.4900796
20
-0.4553728
40
11.6340385
50
68.8547316
51
69.2275796
0
ARC
8
DEFAULT_255_2_778
10
7.9399611
20
0.7448877
40
10.3522467
50
69.1996679
51
70.7749259
0
ARC
8
DEFAULT_255_2_778
10
8.8551234
20
3.3694199
40
7.5727339
50
70.7743218
51
72.2496654
0
ARC
8
DEFAULT_255_2_778
10
9.5766124
20
5.6237347
40
5.2057776
50
72.2482251
51
73.827299
0
ARC
8
DEFAULT_255_2_778
10
10.0076778
20
7.10389
40
3.6641315
50
73.8544093
51
75.0856355
0
ARC
8
DEFAULT_255_2_778
10
12.7893509
20
17.5919307
40
7.1865259
50
254.0004326
51
255.1765017
0
ARC
8
DEFAULT_255_2_778
10
12.6897757
20
17.2422427
40
6.8229375
50
253.8237399
51
253.9948357
0
ARC
8
DEFAULT_255_2_778
10
12.3720192
20
16.1735797
40
5.7080637
50
251.5449866
51
253.8985607
0
ARC
8
DEFAULT_255_2_778
10
11.5094471
20
13.6004579
40
2.9942176
50
248.7199436
51
251.6151155
0
ARC
8
DEFAULT_255_2_778
10
10.7774371
20
11.7354742
40
0.9907407
50
243.5361899
51
249.0233873
0
ARC
8
DEFAULT_255_2_778
10
10.386173
20
10.9648815
40
0.1267198
50
224.9918921
51
246.6415823
0
ARC
8
DEFAULT_255_2_778
10
10.3072073
20
10.8835214
40
0.0134616
50
199.7032027
51
217.6979098
0
ARC
8
DEFAULT_255_2_778
10
10.3220352
20
10.8877891
40
0.0288768
50
179.4190689
51
197.7555321
0
ARC
8
DEFAULT_255_2_778
10
10.3882852
20
10.8768439
40
0.0957868
50
139.5206925
51
173.2623855
0
ARC
8
DEFAULT_255_2_778
10
10.5993678
20
10.7241487
40
0.3560833
50
130.8172093
51
142.8828269
0
ARC
8
DEFAULT_255_2_778
10
10.7515991
20
10.554863
40
0.583722
50
121.7964796
51
131.2643331
0
ARC
8
DEFAULT_255_2_778
10
9.2687823
20
12.9134951
40
2.2023097
50
302.2520666
51
304.7839633
0
ARC
8
DEFAULT_255_2_778
10
7.2568122
20
15.8278404
40
5.7436925
50
304.6828367
51
306.386935
0
ARC
8
DEFAULT_255_2_778
10
6.246224
20
17.2150224
40
7.459937
50
306.3149503
51
306.7909942
0
ARC
8
DEFAULT_255_2_778
10
6.2538247
20
17.2052883
40
7.4475898
50
306.7890165
51
307.1975548
0
ARC
8
DEFAULT_255_2_778
10
7.0309825
20
16.1882911
40
6.1676538
50
307.1584589
51
308.5260785
0
ARC
8
DEFAULT_255_2_778
10
12.4104551
20
12.2403963
40
1.387699
50
223.504804
51
242.750809
0
ARC
8
DEFAULT_255_2_778
10
12.3699788
20
12.1889244
40
1.323465
50
243.2883952
51
255.0624273
0
ARC
8
DEFAULT_255_2_778
10
11.5009983
20
8.9682796
40
2.0123615
50
72.6602508
51
74.7936206
0
ARC
8
DEFAULT_255_2_778
10
11.4267748
20
8.7280502
40
2.263795
50
67.048629
51
72.679156
0
ARC
8
DEFAULT_255_2_778
10
11.5864758
20
9.1134354
40
1.8466458
50
66.0382754
51
66.9486469
0
ARC
8
DEFAULT_255_2_778
10
11.8172237
20
9.6192438
40
1.290728
50
61.4403201
51
66.2797281
0
ARC
8
DEFAULT_255_2_778
10
12.1919492
20
10.3021232
40
0.5118021
50
53.8934803
51
61.7383259
0
ARC
8
DEFAULT_255_2_778
10
12.361213
20
10.5393071
40
0.2204512
50
49.5173411
51
53.109165
0
ARC
8
DEFAULT_255_2_778
10
13.3640134
20
11.6956744
40
1.3101755
50
228.9926357
51
231.9653274
0
ARC
8
DEFAULT_255_2_778
10
12.6871923
20
10.8233632
40
0.206141
50
230.7494439
51
243.1329602
0
ARC
8
DEFAULT_255_2_778
10
12.610217
20
10.6717605
40
0.0361162
50
243.3770667
51
267.1011842
0
ARC
8
DEFAULT_255_2_778
10
12.6048355
20
10.6574658
40
0.0220635
50
279.272419
51
6.7731012
0
ARC
8
DEFAULT_255_2_778
10
12.3410216
20
10.6984134
40
0.2882849
50
352.3562869
51
1.285904
0
ARC
8
DEFAULT_255_2_778
10
12.4474664
20
10.6964389
40
0.1819635
50
2.659752
51
31.111122
0
ARC
8
DEFAULT_255_2_778
10
12.1880159
20
10.55238
40
0.4786516
50
29.827874
51
43.1349687
0
ARC
8
DEFAULT_255_2_778
10
11.8392148
20
10.2344382
40
0.9505924
50
42.7452576
51
51.0475039
0
ARC
8
DEFAULT_255_2_778
10
11.4890991
20
9.8062801
40
1.5036693
50
50.9293469
51
57.7765571
0
ARC
8
DEFAULT_255_2_778
10
11.2494391
20
9.4306673
40
1.9492221
50
57.704212
51
64.7999348
0
ARC
8
DEFAULT_255_2_778
10
11.2031091
20
9.338108
40
2.0527002
50
64.7298554
51
65.7364646
0
ARC
8
DEFAULT_255_2_778
10
12.4139923
20
12.0127577
40
0.8832908
50
238.7366041
51
245.4241512
0
ARC
8
DEFAULT_255_2_778
10
12.5313687
20
12.214907
40
1.1170105
50
238.1756118
51
238.9714193
0
ARC
8
DEFAULT_255_2_778
10
12.6332867
20
12.373184
40
1.3052406
50
227.5152627
51
238.038029
0
ARC
8
DEFAULT_255_2_778
10
12.3420074
20
12.0575758
40
0.8757662
50
220.8027082
51
227.6229627
0
ARC
8
DEFAULT_255_2_778
10
12.0733081
20
11.822854
40
0.5189943
50
216.0564967
51
220.5716742
0
ARC
8
DEFAULT_255_2_778
10
8.4132942
20
9.2829672
40
3.9361228
50
34.5878524
51
37.1584922
0
ARC
8
DEFAULT_255_2_778
10
10.0993299
20
10.5655026
40
1.8177311
50
37.0407049
51
42.0559064
0
ARC
8
DEFAULT_255_2_778
10
10.8063531
20
11.2079141
40
0.8624562
50
41.8312431
51
51.4913903
0
ARC
8
DEFAULT_255_2_778
10
10.9916799
20
11.431746
40
0.5719419
50
52.0580017
51
55.0402176
0
ARC
8
DEFAULT_255_2_778
10
11.0919466
20
11.5915393
40
0.3836445
50
53.6380524
51
90.1064416
0
ARC
8
DEFAULT_255_2_778
10
16.3601539
20
10.1498607
40
0.2609517
50
91.8051294
51
102.8495488
0
ARC
8
DEFAULT_255_2_778
10
16.4994792
20
9.4851879
40
0.9400404
50
102.1192535
51
106.8337328
0
ARC
8
DEFAULT_255_2_778
10
16.846048
20
8.3106604
40
2.1646196
50
106.61087
51
108.905676
0
ARC
8
DEFAULT_255_2_778
10
17.4908434
20
6.427139
40
4.1554522
50
108.9019369
51
110.7937629
0
ARC
8
DEFAULT_255_2_778
10
18.6037509
20
3.4856529
40
7.3004317
50
110.7637411
51
112.125748
0
ARC
8
DEFAULT_255_2_778
10
20.0941314
20
-0.1869875
40
11.2639549
50
112.1123323
51
113.2248361
0
ARC
8
DEFAULT_255_2_778
10
21.9295201
20
-4.4588837
40
15.9134435
50
113.2323115
51
114.6483493
0
ARC
8
DEFAULT_255_2_778
10
21.0419745
20
-2.5391002
40
13.7984344
50
114.6232911
51
114.6364441
0
ARC
8
DEFAULT_255_2_778
10
22.5498551
20
-5.8299982
40
17.4183395
50
114.6324287
51
115.4197814
0
ARC
8
DEFAULT_255_2_778
10
21.6456417
20
-3.936647
40
15.3201586
50
115.4049767
51
116.4563086
0
ARC
8
DEFAULT_255_2_778
10
19.8103701
20
-0.2514187
40
11.2032269
50
116.4499353
51
117.5245688
0
ARC
8
DEFAULT_255_2_778
10
18.0544777
20
3.1170286
40
7.4045962
50
117.5207704
51
118.7009377
0
ARC
8
DEFAULT_255_2_778
10
16.5810632
20
5.802472
40
4.3415023
50
118.6648208
51
120.4245321
0
ARC
8
DEFAULT_255_2_778
10
15.4548943
20
7.7156804
40
2.1214544
50
120.3641047
51
123.0514145
0
ARC
8
DEFAULT_255_2_778
10
14.738775
20
8.8108079
40
0.812979
50
122.8424611
51
127.8782637
0
ARC
8
DEFAULT_255_2_778
10
14.3578502
20
9.2948581
40
0.1970581
50
126.8691398
51
139.8133769
0
ARC
8
DEFAULT_255_2_778
10
14.2280588
20
9.4028729
40
0.0282317
50
137.307947
51
173.0625278
0
ARC
8
DEFAULT_255_2_778
10
14.2386776
20
9.4081892
40
0.0386907
50
182.824107
51
253.0463882
0
ARC
8
DEFAULT_255_2_778
10
14.2895463
20
9.5202723
40
0.1615278
50
247.3706342
51
263.3206575
0
ARC
8
DEFAULT_255_2_778
10
14.3288515
20
9.8001668
40
0.4441416
50
262.4842909
51
269.7068011
0
ARC
8
DEFAULT_255_2_778
10
14.3358261
20
10.0615202
40
0.70555
50
269.2490218
51
270.0055392
0
ARC
8
DEFAULT_255_2_778
10
14.3266201
20
10.5546485
40
1.1987142
50
270.4432879
51
275.6690774
0
ARC
8
DEFAULT_255_2_778
10
14.1970736
20
11.946584
40
2.5966528
50
275.4796188
51
278.3005565
0
ARC
8
DEFAULT_255_2_778
10
13.8745667
20
14.178115
40
4.8513671
50
278.2647917
51
280.2795294
0
ARC
8
DEFAULT_255_2_778
10
13.3388557
20
17.1754566
40
7.8961997
50
280.2231823
51
281.3139186
0
ARC
8
DEFAULT_255_2_778
10
12.5172264
20
21.2720639
40
12.0743888
50
281.3232779
51
282.4002294
0
ARC
8
DEFAULT_255_2_778
10
11.1536995
20
27.4915918
40
18.4416272
50
282.3882403
51
283.1689336
0
ARC
8
DEFAULT_255_2_778
10
9.9419839
20
32.7109827
40
23.79982
50
283.1466735
51
283.3655822
0
ARC
8
DEFAULT_255_2_778
10
16.7400177
20
4.1355654
40
5.5730933
50
100.6208974
51
103.4510629
0
ARC
8
DEFAULT_255_2_778
10
16.3736336
20
6.1128343
40
3.5621729
50
97.8031517
51
100.6904278
0
ARC
8
DEFAULT_255_2_778
10
16.0899594
20
8.2163727
40
1.4396053
50
93.4585236
51
97.9842459
0
ARC
8
DEFAULT_255_2_778
10
16.0326843
20
9.099877
40
0.5542685
50
90.1598676
51
93.0582104
0
ARC
8
DEFAULT_255_2_778
10
16.0334969
20
9.4145231
40
0.239632
50
83.6577484
51
90.5640788
0
ARC
8
DEFAULT_255_2_778
10
16.0548792
20
9.5938055
40
0.0591025
50
67.0706959
51
85.0602351
0
ARC
8
DEFAULT_255_2_778
10
16.069324
20
9.6306671
40
0.0195545
50
58.1808554
51
63.9700956
0
ARC
8
DEFAULT_255_2_778
10
16.0415963
20
9.6045928
40
0.0571778
50
10.9414608
51
48.2984146
0
ARC
8
DEFAULT_255_2_778
10
15.7183592
20
9.5082387
40
0.3942322
50
6.4136242
51
15.779635
0
ARC
8
DEFAULT_255_2_778
10
14.8253708
20
9.3963223
40
1.2941842
50
2.3765064
51
6.9211815
0
ARC
8
DEFAULT_255_2_778
10
13.1289695
20
9.317709
40
2.9923974
50
359.8573025
51
2.5335673
0
ARC
8
DEFAULT_255_2_778
10
11.2563446
20
9.3127415
40
4.8650136
50
358.8726882
51
359.9707315
0
ARC
8
DEFAULT_255_2_778
10
9.3301367
20
9.3522641
40
6.7916267
50
357.5716878
51
358.8590323
0
ARC
8
DEFAULT_255_2_778
10
6.8196289
20
9.4572824
40
9.3043298
50
356.4897272
51
357.5805838
0
ARC
8
DEFAULT_255_2_778
10
6.2091294
20
9.4904017
40
9.9157127
50
356.4798598
51
356.5147024
0
ARC
8
DEFAULT_255_2_778
10
27.5878659
20
8.1870726
40
11.5027177
50
176.5384939
51
177.1422075
0
ARC
8
DEFAULT_255_2_778
10
23.9351978
20
8.3660606
40
7.845669
50
177.1177688
51
178.3356274
0
ARC
8
DEFAULT_255_2_778
10
21.5427706
20
8.4355495
40
5.4522327
50
178.3353366
51
179.9585623
0
ARC
8
DEFAULT_255_2_778
10
20.1661465
20
8.4350378
40
4.0756098
50
179.9373715
51
182.7574049
0
ARC
8
DEFAULT_255_2_778
10
19.6915942
20
8.4150022
40
3.6006441
50
182.8022309
51
184.6571089
0
ARC
8
DEFAULT_255_2_778
10
20.0115163
20
8.4471835
40
3.9221275
50
184.7462174
51
189.12489
0
ARC
8
DEFAULT_255_2_778
10
21.9487175
20
8.7526201
40
5.8832544
50
189.0699276
51
191.0796847
0
ARC
8
DEFAULT_255_2_778
10
24.8865121
20
9.3202745
40
8.8753827
50
191.0313068
51
191.9082502
0
ARC
8
DEFAULT_255_2_778
10
4.5475625
20
5.0480463
40
11.9074229
50
10.6788435
51
11.8285895
0
ARC
8
DEFAULT_255_2_778
10
7.6662332
20
5.6336305
40
8.7342528
50
9.1803441
51
10.6949726
0
ARC
8
DEFAULT_255_2_778
10
10.4474639
20
6.0818088
40
5.9171433
50
7.3661582
51
9.1928063
0
ARC
8
DEFAULT_255_2_778
10
12.6951471
20
6.3696806
40
3.651103
50
4.819473
51
7.4081998
0
ARC
8
DEFAULT_255_2_778
10
14.390826
20
6.5098196
40
1.9496474
50
1.0026779
51
4.9023908
0
ARC
8
DEFAULT_255_2_778
10
15.081682
20
6.5273872
40
1.2586017
50
0.0074898
51
0.7534126
0
ARC
8
DEFAULT_255_2_778
10
15.5250785
20
6.522765
40
0.8152192
50
354.7078078
51
0.336425
0
ARC
8
DEFAULT_255_2_778
10
16.0099639
20
6.4755431
40
0.3280532
50
344.6584515
51
355.1090412
0
ARC
8
DEFAULT_255_2_778
10
16.2354789
20
6.4106328
40
0.0934468
50
319.6332942
51
346.4565875
0
ARC
8
DEFAULT_255_2_778
10
16.2824412
20
6.3718219
40
0.0325396
50
270.3393054
51
318.1438251
0
ARC
8
DEFAULT_255_2_778
10
16.3049981
20
6.4251263
40
0.0887088
50
226.6641822
51
255.3976688
0
ARC
8
DEFAULT_255_2_778
10
16.8260031
20
7.0918332
40
0.9344965
50
225.2306586
51
231.4885868
0
ARC
8
DEFAULT_255_2_778
10
18.2531282
20
8.5579459
40
2.9804816
50
222.0638125
51
225.6022978
0
ARC
8
DEFAULT_255_2_778
10
19.395093
20
9.6055357
40
4.5301339
50
220.0634098
51
222.2239502
0
ARC
8
DEFAULT_255_2_778
10
14.5104174
20
5.5101628
40
1.844218
50
39.764353
51
52.9922804
0
ARC
8
DEFAULT_255_2_778
10
14.8059188
20
5.9161415
40
1.3421791
50
52.6339584
51
90.1595545
0
ARC
8
DEFAULT_255_2_778
10
14.8027215
20
5.768648
40
1.4896674
50
90.0207824
51
94.1108041
0
ARC
8
DEFAULT_255_2_778
10
13.2672245
20
2.4890012
40
4.845897
50
70.3635107
51
70.9382188
0
ARC
8
DEFAULT_255_2_778
10
13.5798034
20
3.3649952
40
3.915805
50
69.6782377
51
70.3638229
0
ARC
8
DEFAULT_255_2_778
10
14.1079184
20
4.7616721
40
2.4226727
50
65.3980078
51
69.919208
0
ARC
8
DEFAULT_255_2_778
10
14.5923044
20
5.7950696
40
1.28147
50
45.8371104
51
65.8539765
0
ARC
8
DEFAULT_255_2_778
10
14.2037463
20
5.3939169
40
1.8399506
50
40.4170727
51
45.8603579
0
ARC
8
DEFAULT_255_2_778
10
13.3203517
20
4.6377345
40
3.0027886
50
37.1687392
51
40.4737372
0
ARC
8
DEFAULT_255_2_778
10
11.689897
20
3.395014
40
5.0528424
50
35.37443
51
37.2278301
0
ARC
8
DEFAULT_255_2_778
10
9.0188262
20
1.4927349
40
8.3320605
50
34.3545552
51
35.4071826
0
ARC
8
DEFAULT_255_2_778
10
4.3375582
20
-1.7093998
40
14.0037387
50
33.6645315
51
34.3621702
0
ARC
8
DEFAULT_255_2_778
10
24.3072572
20
11.600484
40
9.9950525
50
213.7103494
51
213.8043264
0
ARC
8
DEFAULT_255_2_778
10
23.9136931
20
11.3308905
40
9.5180341
50
213.7739026
51
215.6926814
0
ARC
8
DEFAULT_255_2_778
10
20.4803922
20
8.8613109
40
5.2888065
50
215.6648116
51
217.403845
0
ARC
8
DEFAULT_255_2_778
10
17.6495778
20
6.6878884
40
1.7198956
50
217.1709541
51
220.6963351
0
ARC
8
DEFAULT_255_2_778
10
16.5188776
20
5.7087295
40
0.2242235
50
219.3925522
51
230.5926213
0
ARC
8
DEFAULT_255_2_778
10
16.6050836
20
5.8351298
40
0.3768597
50
232.6661435
51
243.1242626
0
ARC
8
DEFAULT_255_2_778
10
16.4917532
20
5.6078921
40
0.1229453
50
242.3623341
51
268.2760888
0
ARC
8
DEFAULT_255_2_778
10
16.4879848
20
5.5732822
40
0.0882796
50
270.0452643
51
288.4139918
0
ARC
8
DEFAULT_255_2_778
10
16.4599485
20
5.6385943
40
0.1592158
50
290.5628519
51
314.5462925
0
ARC
8
DEFAULT_255_2_778
10
16.1902253
20
5.9329761
40
0.5584063
50
313.0812241
51
320.4610591
0
ARC
8
DEFAULT_255_2_778
10
15.7330446
20
6.3279606
40
1.1625079
50
319.7923953
51
320.3892973
0
ARC
8
DEFAULT_255_2_778
10
16.4611284
20
5.7041483
40
0.2045305
50
324.982381
51
349.7572035
0
ARC
8
DEFAULT_255_2_778
10
15.8196469
20
5.8510806
40
0.8624565
50
347.7290728
51
355.800248
0
ARC
8
DEFAULT_255_2_778
10
14.1223486
20
5.9943594
40
2.5657574
50
355.3850156
51
358.9626438
0
ARC
8
DEFAULT_255_2_778
10
11.2893887
20
6.0647935
40
5.3995619
50
358.7596102
51
0.0547865
0
ARC
8
DEFAULT_255_2_778
10
9.3976744
20
6.069792
40
7.2912736
50
0.0012934
51
0.1130856
0
ARC
8
DEFAULT_255_2_778
10
11.5669483
20
6.2426991
40
5.1244379
50
358.2273655
51
359.6285221
0
ARC
8
DEFAULT_255_2_778
10
10.476883
20
6.2530366
40
6.2145481
50
359.5983749
51
0.0090186
0
ARC
8
DEFAULT_255_2_778
10
8.628018
20
6.2447852
40
8.0634182
50
0.0655818
51
1.6864012
0
ARC
8
DEFAULT_255_2_778
10
4.9836031
20
6.142547
40
11.7092645
50
1.6616536
51
2.7128613
0
ARC
8
DEFAULT_255_2_778
10
0.5860773
20
5.9355943
40
16.1116571
50
2.7078219
51
3.554853
0
ARC
8
DEFAULT_255_2_778
10
125.5165312
20
11.7402731
40
108.9606884
50
182.2967114
51
182.3938897
0
ARC
8
DEFAULT_255_2_778
10
87.7478779
20
10.2249172
40
71.1616476
50
182.1768829
51
182.2962437
0
ARC
8
DEFAULT_255_2_778
10
63.6340413
20
9.3114777
40
47.030517
50
181.9645904
51
182.1807508
0
ARC
8
DEFAULT_255_2_778
10
47.1679164
20
8.7482718
40
30.5547631
50
181.6433546
51
181.9676179
0
ARC
8
DEFAULT_255_2_778
10
36.8389048
20
8.45356
40
20.221548
50
181.1538213
51
181.6479587
0
ARC
8
DEFAULT_255_2_778
10
30.2174644
20
8.3224596
40
13.5988106
50
180.3432379
51
181.1633417
0
ARC
8
DEFAULT_255_2_778
10
27.5249554
20
8.3019621
40
10.9062281
50
180.002395
51
180.3202938
0
ARC
8
DEFAULT_255_2_778
10
26.2180574
20
8.3033759
40
9.5993303
50
179.1406913
51
180.0111599
0
ARC
8
DEFAULT_255_2_778
10
25.5681815
20
8.31192
40
8.9493997
50
178.2323672
51
179.1329883
0
ARC
8
DEFAULT_255_2_778
10
27.2584953
20
8.2515217
40
10.6407753
50
176.7224938
51
178.1880526
0
ARC
8
DEFAULT_255_2_778
10
35.1649815
20
7.8081028
40
18.5596827
50
176.1603767
51
176.7513171
0
ARC
8
DEFAULT_255_2_778
10
52.4406171
20
6.6577393
40
35.8735753
50
175.9198109
51
176.1748516
0
ARC
8
DEFAULT_255_2_778
10
78.3130503
20
4.8260853
40
61.8107619
50
175.8798461
51
175.9326755
0
ARC
8
DEFAULT_255_2_778
10
3.4872556
20
10.2205553
40
13.2092351
50
355.8606616
51
356.4753779
0
ARC
8
DEFAULT_255_2_778
10
6.9827739
20
10.0046174
40
9.7070534
50
356.479119
51
357.1116959
0
ARC
8
DEFAULT_255_2_778
10
9.4339326
20
9.8818842
40
7.2528242
50
357.1043154
51
357.9865464
0
ARC
8
DEFAULT_255_2_778
10
11.4781107
20
9.8112675
40
5.2074271
50
357.9728217
51
359.2582122
0
ARC
8
DEFAULT_255_2_778
10
12.6591045
20
9.7938661
40
4.0263076
50
359.288244
51
359.9899203
0
ARC
8
DEFAULT_255_2_778
10
14.0636342
20
9.8030925
40
2.6217966
50
359.7828905
51
3.7713766
0
ARC
8
DEFAULT_255_2_778
10
15.4363109
20
9.8979971
40
1.2458578
50
3.5685328
51
10.8842648
0
ARC
8
DEFAULT_255_2_778
10
16.1306771
20
10.0361497
40
0.5379154
50
10.3992863
51
25.1031426
0
ARC
8
DEFAULT_255_2_778
10
16.3921936
20
10.1607406
40
0.2482498
50
24.670481
51
91.0176224
0
ARC
8
DEFAULT_255_2_778
10
16.3524015
20
9.8565907
40
0.5534927
50
86.3347447
51
90.0794622
0
ARC
8
DEFAULT_255_2_778
10
4.7446635
20
8.5771768
40
0.4677709
50
87.7370352
51
90.0022816
0
ARC
8
DEFAULT_255_2_778
10
4.7451786
20
8.5561016
40
0.4888464
50
90.0625583
51
99.9508982
0
ARC
8
DEFAULT_255_2_778
10
4.7696638
20
8.4579144
40
0.5898311
50
100.6454226
51
130.4888669
0
ARC
8
DEFAULT_255_2_778
10
4.8731105
20
8.3275254
40
0.7561879
50
130.0352298
51
147.0534646
0
ARC
8
DEFAULT_255_2_778
10
4.6418657
20
8.4711307
40
0.4840602
50
146.4316229
51
156.0187754
0
ARC
8
DEFAULT_255_2_778
10
4.5375709
20
8.5196477
40
0.3690542
50
156.3199187
51
160.8983333
0
ARC
8
DEFAULT_255_2_778
10
4.475362
20
8.5394899
40
0.3037815
50
160.5950608
51
179.8513103
0
ARC
8
DEFAULT_255_2_778
10
4.5423323
20
8.5473003
40
0.3708173
50
181.0850511
51
205.1457814
0
ARC
8
DEFAULT_255_2_778
10
4.9187493
20
8.714144
40
0.7825076
50
204.4929064
51
215.0412214
0
ARC
8
DEFAULT_255_2_778
10
5.6142248
20
9.1913019
40
1.6259113
50
214.7363931
51
220.0942192
0
ARC
8
DEFAULT_255_2_778
10
6.3645286
20
9.8071961
40
2.596576
50
219.8276658
51
221.0996608
0
ARC
8
DEFAULT_255_2_778
10
4.6285383
20
8.3026423
40
0.2994324
50
222.5170787
51
269.0494055
0
ARC
8
DEFAULT_255_2_778
10
4.6455615
20
8.4210002
40
0.4183274
50
266.9866618
51
270.0145164
0
ARC
8
DEFAULT_255_2_778
10
4.6424245
20
8.5029612
40
0.5002988
50
270.3713957
51
285.134208
0
ARC
8
DEFAULT_255_2_778
10
4.6213272
20
8.5928893
40
0.5926242
50
284.8332437
51
289.2319201
0
ARC
8
DEFAULT_255_2_778
10
4.5872457
20
8.6802586
40
0.6863523
50
289.5158124
51
307.4849394
0
ARC
8
DEFAULT_255_2_778
10
4.5531547
20
8.72888
40
0.7456844
50
307.2899992
51
318.6852495
0
ARC
8
DEFAULT_255_2_778
10
3.8544739
20
9.3564532
40
1.6848104
50
318.3417425
51
321.7975903
0
ARC
8
DEFAULT_255_2_778
10
4.7065919
20
8.6898978
40
0.6029728
50
321.4949151
51
330.1333765
0
ARC
8
DEFAULT_255_2_778
10
4.9909179
20
8.5269564
40
0.2752673
50
330.073272
51
345.5400919
0
ARC
8
DEFAULT_255_2_778
10
5.0568795
20
8.5076837
40
0.2065942
50
346.1478743
51
0.0202113
0
ARC
8
DEFAULT_255_2_778
10
4.9744421
20
8.5011557
40
0.289107
50
1.3082912
51
22.1146705
0
ARC
8
DEFAULT_255_2_778
10
4.5290364
20
8.331885
40
0.7655461
50
21.3018273
51
28.8903815
0
ARC
8
DEFAULT_255_2_778
10
3.4102773
20
7.7290779
40
2.0363479
50
28.5322842
51
31.2973904
0
ARC
8
DEFAULT_255_2_778
10
1.668986
20
6.6860012
40
4.0661303
50
31.1103244
51
31.6345302
0
ARC
8
DEFAULT_255_2_778
10
4.7451515
20
8.5977705
40
0.4445563
50
29.7969578
51
87.7462406
0
ARC
8
DEFAULT_255_2_778
10
4.5655922
20
8.6039364
40
0.089063
50
89.7398253
51
99.0819502
0
ARC
8
DEFAULT_255_2_778
10
4.5595388
20
8.5086147
40
0.184497
50
68.0291231
51
87.9941111
0
ARC
8
DEFAULT_255_2_778
10
4.5035569
20
8.3501247
40
0.3524986
50
61.2329728
51
69.228858
0
ARC
8
DEFAULT_255_2_778
10
4.4986471
20
8.3230904
40
0.3786594
50
31.1336305
51
62.5504661
0
ARC
8
DEFAULT_255_2_778
10
4.6636095
20
8.4361693
40
0.1793607
50
24.6200985
51
27.4575084
0
ARC
8
DEFAULT_255_2_778
10
4.6869908
20
8.4466551
40
0.1537368
50
18.5575684
51
24.697652
0
ARC
8
DEFAULT_255_2_778
10
4.7623103
20
8.4714076
40
0.0744576
50
4.3972071
51
18.9465261
0
ARC
8
DEFAULT_255_2_778
10
4.7783638
20
8.4731503
40
0.05832
50
0.0238948
51
3.8993354
0
ARC
8
DEFAULT_255_2_778
10
4.7774618
20
8.4771509
40
0.0593554
50
279.7796138
51
356.1588427
0
ARC
8
DEFAULT_255_2_778
10
4.731998
20
8.6054311
40
0.1948578
50
269.1008209
51
286.5623364
0
ARC
8
DEFAULT_255_2_778
10
4.7301076
20
8.7134727
40
0.3028776
50
259.1283052
51
269.7791522
0
ARC
8
DEFAULT_255_2_778
10
4.7100265
20
8.6576614
40
0.2444535
50
225.2956162
51
261.2837474
0
ARC
8
DEFAULT_255_2_778
10
4.6244737
20
8.5621352
40
0.116552
50
201.0968418
51
222.1520309
0
ARC
8
DEFAULT_255_2_778
10
4.735228
20
8.6034158
40
0.2347454
50
191.7617846
51
200.7668787
0
ARC
8
DEFAULT_255_2_778
10
4.7352605
20
8.6040507
40
0.2349074
50
180.1819822
51
191.9117979
0
ARC
8
DEFAULT_255_2_778
10
4.6253144
20
8.6097454
40
0.125126
50
149.9264734
51
182.9505508
0
ARC
8
DEFAULT_255_2_778
10
4.5579754
20
8.6441096
40
0.0497931
50
135.5436928
51
145.3117484
0
ARC
8
DEFAULT_255_2_778
10
4.5556991
20
8.6444511
40
0.0479481
50
107.6269412
51
133.9297312
0
ARC
8
DEFAULT_255_2_778
10
4.56112
20
8.6305592
40
0.0628366
50
101.2753504
51
108.5019688
0
ARC
8
DEFAULT_255_2_778
10
1.8216923
20
7.0673741
40
0.6377082
50
91.0115808
51
101.7219577
0
ARC
8
DEFAULT_255_2_778
10
1.7301318
20
7.645151
40
0.0601529
50
129.1748052
51
138.2791504
0
ARC
8
DEFAULT_255_2_778
10
2.1004444
20
7.3032985
40
0.5641237
50
137.3941081
51
137.6416117
0
ARC
8
DEFAULT_255_2_778
10
1.620914
20
7.7394618
40
0.0840985
50
313.6225913
51
318.1802738
0
ARC
8
DEFAULT_255_2_778
10
1.7390684
20
7.5234322
40
0.1663968
50
111.1857099
51
185.2057879
0
ARC
8
DEFAULT_255_2_778
10
1.9029482
20
7.5041787
40
0.3296165
50
179.2775884
51
179.9992155
0
ARC
8
DEFAULT_255_2_778
10
1.9691536
20
7.5055451
40
0.3958241
50
180.197136
51
186.9450711
0
ARC
8
DEFAULT_255_2_778
10
1.9416974
20
7.4393846
40
0.3659213
50
177.1336579
51
179.9998537
0
ARC
8
DEFAULT_255_2_778
10
1.9409234
20
7.4393535
40
0.3651473
50
179.9949808
51
222.6450285
0
ARC
8
DEFAULT_255_2_778
10
2.2869294
20
7.7512214
40
0.8309484
50
222.2999809
51
228.350408
0
ARC
8
DEFAULT_255_2_778
10
2.8360297
20
8.3633592
40
1.653273
50
228.2294562
51
232.2092914
0
ARC
8
DEFAULT_255_2_778
10
3.6048213
20
9.3495737
40
2.9037344
50
232.1459613
51
234.929624
0
ARC
8
DEFAULT_255_2_778
10
4.5966495
20
10.7585898
40
4.6268265
50
234.9028367
51
237.0616154
0
ARC
8
DEFAULT_255_2_778
10
5.8096342
20
12.6280633
40
6.8553374
50
237.0490546
51
238.8754307
0
ARC
8
DEFAULT_255_2_778
10
7.1606723
20
14.8627892
40
9.4667168
50
238.8668411
51
240.5194968
0
ARC
8
DEFAULT_255_2_778
10
8.0562732
20
16.4346568
40
11.2758155
50
240.4885909
51
241.1495635
0
ARC
8
DEFAULT_255_2_778
10
8.6626378
20
17.539013
40
12.5356878
50
241.1576777
51
242.4308841
0
ARC
8
DEFAULT_255_2_778
10
9.0110693
20
18.2024236
40
13.2850309
50
242.4229931
51
243.8077546
0
ARC
8
DEFAULT_255_2_778
10
8.5548069
20
17.2632673
40
12.2409229
50
243.7838064
51
245.7248036
0
ARC
8
DEFAULT_255_2_778
10
7.4560399
20
14.8255414
40
9.5670126
50
245.7213193
51
247.4765089
0
ARC
8
DEFAULT_255_2_778
10
6.4919359
20
12.5025827
40
7.0519316
50
247.482415
51
249.1346065
0
ARC
8
DEFAULT_255_2_778
10
5.7272046
20
10.489787
40
4.8987589
50
249.1074162
51
251.3335714
0
ARC
8
DEFAULT_255_2_778
10
5.1401992
20
8.7461499
40
3.0589655
50
251.2972866
51
254.2857513
0
ARC
8
DEFAULT_255_2_778
10
4.7791062
20
7.4556813
40
1.7189318
50
254.2219746
51
258.4509424
0
ARC
8
DEFAULT_255_2_778
10
4.6684074
20
6.9390018
40
1.190561
50
258.6922791
51
259.0586392
0
ARC
8
DEFAULT_255_2_778
10
5.4205563
20
10.6769854
40
5.0034404
50
258.7266519
51
260.6847314
0
ARC
8
DEFAULT_255_2_778
10
5.0589745
20
8.4495314
40
2.746835
50
260.6067748
51
264.5630941
0
ARC
8
DEFAULT_255_2_778
10
4.9723492
20
7.5597846
40
1.8528843
50
264.6228514
51
269.9166539
0
ARC
8
DEFAULT_255_2_778
10
4.969679
20
7.4137977
40
1.7068954
50
269.9991555
51
271.1875139
0
ARC
8
DEFAULT_255_2_778
10
4.9578282
20
7.6516483
40
1.9449529
50
271.3913366
51
278.7868534
0
ARC
8
DEFAULT_255_2_778
10
4.7479727
20
9.0689758
40
3.3777155
50
278.6322002
51
281.5380477
0
ARC
8
DEFAULT_255_2_778
10
4.3834051
20
10.9124815
40
5.2569008
50
281.4123261
51
282.0953716
0
ARC
8
DEFAULT_255_2_778
10
5.1871454
20
7.1409641
40
1.4007021
50
282.2747324
51
288.5215562
0
ARC
8
DEFAULT_255_2_778
10
5.0878401
20
7.4476008
40
1.7230047
50
288.4136485
51
291.5958869
0
ARC
8
DEFAULT_255_2_778
10
4.9513359
20
7.7771239
40
2.0796452
50
291.7512317
51
307.8437975
0
ARC
8
DEFAULT_255_2_778
10
5.3647363
20
7.2429919
40
1.4042234
50
307.8943601
51
316.2049948
0
ARC
8
DEFAULT_255_2_778
10
5.7278007
20
6.8913956
40
0.8988267
50
316.3656162
51
322.9524665
0
ARC
8
DEFAULT_255_2_778
10
5.977551
20
6.7039257
40
0.5865462
50
322.8701648
51
331.5242154
0
ARC
8
DEFAULT_255_2_778
10
6.1172403
20
6.6255927
40
0.4264145
50
331.827099
51
335.4588598
0
ARC
8
DEFAULT_255_2_778
10
6.0589112
20
6.6540214
40
0.4912848
50
335.2683175
51
345.5007613
0
ARC
8
DEFAULT_255_2_778
10
6.2086674
20
6.6162744
40
0.3368488
50
345.339317
51
357.1644402
0
ARC
8
DEFAULT_255_2_778
10
6.3015393
20
6.6095229
40
0.243766
50
357.6695154
51
359.9783839
0
ARC
8
DEFAULT_255_2_778
10
6.3954785
20
6.6132473
40
0.1498753
50
358.5408752
51
19.110988
0
ARC
8
DEFAULT_255_2_778
10
6.497039
20
6.6525084
40
0.0412381
50
13.7590712
51
81.8612907
0
ARC
8
DEFAULT_255_2_778
10
6.5010366
20
6.6602761
40
0.0331062
50
86.8131087
51
90.0124729
0
ARC
8
DEFAULT_255_2_778
10
6.5047555
20
6.6371599
40
0.0563459
50
93.7917442
51
131.629381
0
ARC
8
DEFAULT_255_2_778
10
6.5754977
20
6.5471813
40
0.1707352
50
129.3142679
51
144.2846016
0
ARC
8
DEFAULT_255_2_778
10
6.726859
20
6.4332399
40
0.3601678
50
143.6238596
51
151.1035987
0
ARC
8
DEFAULT_255_2_778
10
6.1737969
20
6.754999
40
0.2798909
50
314.2893947
51
328.1455623
0
ARC
8
DEFAULT_255_2_778
10
5.6165272
20
7.3004401
40
1.059615
50
308.8560209
51
315.2645702
0
ARC
8
DEFAULT_255_2_778
10
5.0228633
20
8.0198266
40
1.9922935
50
305.4693461
51
309.171867
0
ARC
8
DEFAULT_255_2_778
10
4.8315159
20
8.2815229
40
2.3164621
50
300.5093198
51
305.5678997
0
ARC
8
DEFAULT_255_2_778
10
4.6981662
20
8.4997195
40
2.5721506
50
297.8344114
51
300.6009439
0
ARC
8
DEFAULT_255_2_778
10
5.2937997
20
7.3646151
40
1.2902694
50
291.6679355
51
297.9801247
0
ARC
8
DEFAULT_255_2_778
10
5.4177068
20
7.0657372
40
0.9667723
50
289.3796754
51
291.3835813
0
ARC
8
DEFAULT_255_2_778
10
5.4222208
20
7.0655904
40
0.9651451
50
274.9401534
51
289.1297748
0
ARC
8
DEFAULT_255_2_778
10
5.3258275
20
8.0417795
40
1.9460456
50
270.7252775
51
275.2925943
0
ARC
8
DEFAULT_255_2_778
10
5.290501
20
9.5994869
40
3.5041099
50
269.9715777
51
270.9804522
0
ARC
8
DEFAULT_255_2_778
10
5.2895667
20
10.7872554
40
4.6918782
50
269.4960748
51
269.9901819
0
ARC
8
DEFAULT_255_2_778
10
5.3008634
20
12.0743161
40
5.9789883
50
269.0893075
51
269.4962996
0
ARC
8
DEFAULT_255_2_778
10
5.2455965
20
8.5370118
40
2.4412528
50
266.3938809
51
269.0667362
0
ARC
8
DEFAULT_255_2_778
10
5.248595
20
8.5250363
40
2.4294925
50
253.4734227
51
266.3055424
0
ARC
8
DEFAULT_255_2_778
10
5.4693651
20
9.2733278
40
3.2096709
50
246.3534059
51
253.495013
0
ARC
8
DEFAULT_255_2_778
10
6.0453938
20
10.6005195
40
4.6564715
50
241.7317867
51
246.4108097
0
ARC
8
DEFAULT_255_2_778
10
7.1217683
20
12.6113006
40
6.9372193
50
238.4899374
51
241.7672922
0
ARC
8
DEFAULT_255_2_778
10
8.929263
20
15.5701605
40
10.4044762
50
236.2509223
51
238.5200402
0
ARC
8
DEFAULT_255_2_778
10
11.6854666
20
19.7070668
40
15.3754543
50
234.7440075
51
236.2753767
0
ARC
8
DEFAULT_255_2_778
10
15.8621866
20
25.6208614
40
22.6154786
50
233.5949622
51
234.7515884
0
ARC
8
DEFAULT_255_2_778
10
1.8843922
20
7.062396
40
0.6353199
50
67.4594558
51
80.522071
0
ARC
8
DEFAULT_255_2_778
10
1.8326179
20
6.8226011
40
0.8804431
50
79.7684012
51
89.8663992
0
ARC
8
DEFAULT_255_2_778
10
1.8346965
20
6.9035719
40
0.7994699
50
90.0018337
51
90.4567257
0
ARC
8
DEFAULT_255_2_778
10
1.8344196
20
6.9318423
40
0.7711983
50
90.4528944
51
91.7451267
0
ARC
8
DEFAULT_255_2_778
10
12.3867356
20
6.3400806
40
0.4251599
50
89.0568481
51
90.0010221
0
ARC
8
DEFAULT_255_2_778
10
12.3909305
20
6.2477815
40
0.517476
50
90.4653074
51
104.5999658
0
ARC
8
DEFAULT_255_2_778
10
12.4487158
20
6.0192206
40
0.7532242
50
104.4711373
51
114.6024966
0
ARC
8
DEFAULT_255_2_778
10
12.51381
20
5.8665309
40
0.919163
50
114.3292811
51
115.9408002
0
ARC
8
DEFAULT_255_2_778
10
12.655539
20
5.6034465
40
1.2178019
50
116.5225677
51
130.6184764
0
ARC
8
DEFAULT_255_2_778
10
12.7977471
20
5.4136766
40
1.4545129
50
130.003987
51
151.6277905
0
ARC
8
DEFAULT_255_2_778
10
12.4556778
20
5.6147339
40
1.0580888
50
152.4051758
51
155.828568
0
ARC
8
DEFAULT_255_2_778
10
12.2661993
20
5.6962959
40
0.8518318
50
155.6150506
51
165.182002
0
ARC
8
DEFAULT_255_2_778
10
12.0200491
20
5.7602874
40
0.5975029
50
165.0775315
51
177.8958761
0
ARC
8
DEFAULT_255_2_778
10
11.9113082
20
5.7677255
40
0.4885744
50
178.2993641
51
179.9932631
0
ARC
8
DEFAULT_255_2_778
10
11.075991
20
5.7585167
40
0.3468667
50
348.9333048
51
1.5307802
0
ARC
8
DEFAULT_255_2_778
10
11.3669242
20
5.6938838
40
0.0495215
50
269.5916911
51
357.7448392
0
ARC
8
DEFAULT_255_2_778
10
11.3711404
20
5.7773073
40
0.1330221
50
250.8410255
51
268.0315997
0
ARC
8
DEFAULT_255_2_778
10
11.4378424
20
5.9936743
40
0.3593851
50
247.0717703
51
252.116888
0
ARC
8
DEFAULT_255_2_778
10
6.8875903
20
-4.8206698
40
11.3732552
50
67.1839874
51
68.8674645
0
ARC
8
DEFAULT_255_2_778
10
7.9624459
20
-2.0350368
40
8.3874451
50
68.8556867
51
70.9424948
0
ARC
8
DEFAULT_255_2_778
10
8.7723612
20
0.3186942
40
5.8982688
50
70.9132736
51
73.7594727
0
ARC
8
DEFAULT_255_2_778
10
9.3098041
20
2.1678984
40
3.9725484
50
73.7425889
51
77.2317874
0
ARC
8
DEFAULT_255_2_778
10
9.6245724
20
3.5724675
40
2.5331476
50
77.1540812
51
82.2936114
0
ARC
8
DEFAULT_255_2_778
10
9.7618488
20
4.6072804
40
1.4892751
50
82.1886451
51
89.6274449
0
ARC
8
DEFAULT_255_2_778
10
9.7678701
20
5.1856251
40
0.9109063
50
89.7696339
51
96.7786158
0
ARC
8
DEFAULT_255_2_778
10
9.7295458
20
5.4989518
40
0.5952472
50
96.6753011
51
106.6671454
0
ARC
8
DEFAULT_255_2_778
10
9.6670485
20
5.7029026
40
0.3819426
50
106.4606894
51
122.5597187
0
ARC
8
DEFAULT_255_2_778
10
9.5901014
20
5.8275595
40
0.2354772
50
123.1033664
51
123.2956735
0
ARC
8
DEFAULT_255_2_778
10
9.7120033
20
5.6361941
40
0.4623598
50
122.9040381
51
138.9951241
0
ARC
8
DEFAULT_255_2_778
10
9.6322879
20
5.7051585
40
0.3569533
50
138.9535744
51
154.9594384
0
ARC
8
DEFAULT_255_2_778
10
9.5415661
20
5.7470634
40
0.257022
50
154.8629774
51
172.9544482
0
ARC
8
DEFAULT_255_2_778
10
9.4874629
20
5.7555425
40
0.2022953
50
173.4582841
51
179.9388638
0
ARC
8
DEFAULT_255_2_778
10
9.4367068
20
5.751468
40
0.1515998
50
178.3782802
51
249.9901644
0
ARC
8
DEFAULT_255_2_778
10
9.4681069
20
5.8138141
40
0.2210778
50
247.8720543
51
254.2059541
0
ARC
8
DEFAULT_255_2_778
10
9.57092
20
6.2224779
40
0.6424144
50
255.302919
51
260.0911024
0
ARC
8
DEFAULT_255_2_778
10
10.131702
20
9.2329988
40
3.7046859
50
259.5596925
51
261.1077221
0
ARC
8
DEFAULT_255_2_778
10
11.1676791
20
15.7697065
40
10.3229737
50
261.035017
51
261.8949527
0
ARC
8
DEFAULT_255_2_778
10
12.4803974
20
24.9444902
40
19.5911917
50
261.8772084
51
262.5780207
0
ARC
8
DEFAULT_255_2_778
10
13.1175396
20
29.7613766
40
24.4500262
50
262.555576
51
262.7609492
0
ARC
8
DEFAULT_255_2_778
10
13.2657244
20
30.9270825
40
25.6251129
50
262.7606948
51
263.2349562
0
ARC
8
DEFAULT_255_2_778
10
8.9480949
20
-5.4960127
40
11.0529979
50
81.8666775
51
83.2505304
0
ARC
8
DEFAULT_255_2_778
10
9.1504311
20
-4.084398
40
9.626956
50
80.9886977
51
81.8701887
0
ARC
8
DEFAULT_255_2_778
10
9.5483065
20
-1.5937678
40
7.1047482
50
79.7973344
51
81.0117538
0
ARC
8
DEFAULT_255_2_778
10
10.1092774
20
1.5013534
40
3.9592058
50
77.9988979
51
79.8531954
0
ARC
8
DEFAULT_255_2_778
10
10.6222674
20
3.8958411
40
1.5103917
50
74.8232823
51
78.1464946
0
ARC
8
DEFAULT_255_2_778
10
10.9408448
20
5.0523527
40
0.3108486
50
66.4949221
51
75.6887046
0
ARC
8
DEFAULT_255_2_778
10
11.0340153
20
5.2731006
40
0.0713056
50
60.8629767
51
64.4042526
0
ARC
8
DEFAULT_255_2_778
10
11.3148908
20
5.8238976
40
0.5470281
50
243.2569912
51
270.4984672
0
ARC
8
DEFAULT_255_2_778
10
11.3309505
20
5.9943001
40
0.7174989
50
269.0975475
51
270.0012968
0
ARC
8
DEFAULT_255_2_778
10
11.330973
20
5.9973236
40
0.7205225
50
269.9995
51
271.2052171
0
ARC
8
DEFAULT_255_2_778
10
11.3310343
20
5.9958477
40
0.7190456
50
271.2028135
51
271.8648838
0
ARC
8
DEFAULT_255_2_778
10
11.3594375
20
5.4176154
40
0.1405216
50
267.9593979
51
270.120832
0
ARC
8
DEFAULT_255_2_778
10
11.3588819
20
5.6951475
40
0.4180543
50
270.1167691
51
270.8431829
0
ARC
8
DEFAULT_255_2_778
10
11.3711859
20
4.8591296
40
0.4180542
50
90.1167691
51
90.8431829
0
ARC
8
DEFAULT_255_2_778
10
11.3811752
20
5.7817349
40
0.5046685
50
268.7690752
51
289.7754621
0
ARC
8
DEFAULT_255_2_778
10
11.4562373
20
5.5526925
40
0.2638268
50
291.2649222
51
302.4594503
0
ARC
8
DEFAULT_255_2_778
10
11.5879817
20
5.3518849
40
0.0239247
50
294.3178743
51
313.4548158
0
ARC
8
DEFAULT_255_2_778
10
11.6055618
20
5.332942
40
0.0019362
50
122.0647322
51
125.532043
0
ARC
8
DEFAULT_255_2_778
10
9.5413589
20
9.3200096
40
4.4877965
50
297.3696906
51
297.5123562
0
ARC
8
DEFAULT_255_2_778
10
11.4795347
20
5.6132978
40
0.3050253
50
296.2515049
51
305.7935851
0
ARC
8
DEFAULT_255_2_778
10
11.4812477
20
5.5824928
40
0.2795315
50
309.2037368
51
346.0899763
0
ARC
8
DEFAULT_255_2_778
10
11.0144779
20
5.7212485
40
0.7662992
50
344.4092051
51
357.2988953
0
ARC
8
DEFAULT_255_2_778
10
10.2379294
20
5.7799471
40
1.5449083
50
356.4815471
51
0.1274238
0
ARC
8
DEFAULT_255_2_778
10
12.8602585
20
5.7940162
40
1.0774771
50
171.3330737
51
180.5654413
0
ARC
8
DEFAULT_255_2_778
10
12.412476
20
5.8624715
40
0.6244922
50
143.7481429
51
171.3511703
0
ARC
8
DEFAULT_255_2_778
10
12.6891393
20
5.6627138
40
0.9657276
50
135.0611428
51
143.8971278
0
ARC
8
DEFAULT_255_2_778
10
13.2011187
20
5.157838
40
1.684763
50
130.2450378
51
135.2058715
0
ARC
8
DEFAULT_255_2_778
10
14.0599644
20
4.149266
40
3.0094609
50
127.3518151
51
130.3202623
0
ARC
8
DEFAULT_255_2_778
10
15.226982
20
2.6342242
40
4.9218514
50
126.2212794
51
127.4508145
0
ARC
8
DEFAULT_255_2_778
10
10.569049
20
8.9438861
40
2.9209559
50
306.7966548
51
308.6170087
0
ARC
8
DEFAULT_255_2_778
10
11.9545048
20
7.2164643
40
0.706595
50
308.2600963
51
313.6147246
0
ARC
8
DEFAULT_255_2_778
10
12.3712603
20
6.7859937
40
0.1075628
50
311.0635856
51
332.7540553
0
ARC
8
DEFAULT_255_2_778
10
12.4480657
20
6.7447916
40
0.020469
50
336.8677838
51
358.5544218
0
ARC
8
DEFAULT_255_2_778
10
12.4483979
20
6.7404271
40
0.0204947
50
10.8221339
51
90.9411149
0
ARC
8
DEFAULT_255_2_778
10
12.4041559
20
6.5426934
40
0.2225986
50
78.6244033
51
89.7296279
0
ARC
8
DEFAULT_255_2_778
10
12.3867861
20
6.1395476
40
0.6260128
50
88.3138483
51
89.0986478
0
LINE
8
DEFAULT_255_2_778
10
10.8726339
20
11.3631829
11
11.1293339
21
11.5663829
0
LINE
8
DEFAULT_255_2_778
10
11.1293339
20
11.5663829
11
11.4039339
21
11.2850829
0
LINE
8
DEFAULT_255_2_778
10
11.0912339
20
11.9751829
11
11.0906339
21
11.9777829
0
LINE
8
DEFAULT_255_2_778
10
14.6959339
20
7.2544829
11
14.3789339
21
7.2321829
0
LINE
8
DEFAULT_255_2_778
10
14.3789339
20
7.2321829
11
14.8498339
21
7.0691829
0
LINE
8
DEFAULT_255_2_778
10
16.6667339
20
6.9345829
11
16.6509339
21
7.1890829
0
LINE
8
DEFAULT_255_2_778
10
16.3516339
20
10.4100829
11
16.3519339
21
10.4106829
0
LINE
8
DEFAULT_255_2_778
10
4.7626339
20
9.0419829
11
4.7631339
21
9.0445829
0
LINE
8
DEFAULT_255_2_778
10
4.5488339
20
8.6921829
11
4.5515339
21
8.6918829
0
LINE
8
DEFAULT_255_2_778
10
2.4401339
20
7.4189829
11
2.1279339
21
7.6491829
0
LINE
8
DEFAULT_255_2_778
10
1.8109339
20
7.7026829
11
1.8104339
21
7.7049829
0
LINE
8
DEFAULT_255_2_778
10
12.3966339
20
6.7654829
11
12.3937339
21
6.7651829
0
ARC
8
DEFAULT_255_2_778
10
4.4707316
20
9.6962335
40
3.1570874
50
280.3806745
51
284.7306135
0
ARC
8
DEFAULT_255_2_778
10
4.9464942
20
7.9098155
40
1.3084241
50
284.4729375
51
293.4057754
0
ARC
8
DEFAULT_255_2_778
10
5.2575837
20
7.211356
40
0.5439197
50
292.5593468
51
315.3430214
0
ARC
8
DEFAULT_255_2_778
10
5.3021408
20
7.1370077
40
0.4604739
50
318.0277345
51
352.941515
0
ARC
8
DEFAULT_255_2_778
10
4.5419451
20
7.267328
40
1.2314463
50
351.270114
51
0.7022265
0
ARC
8
DEFAULT_255_2_778
10
7.778154
20
7.2900246
40
2.0048695
50
176.5131607
51
180.217315
0
ARC
8
DEFAULT_255_2_778
10
6.6204648
20
7.3641003
40
0.8448256
50
169.9225403
51
176.7524781
0
ARC
8
DEFAULT_255_2_778
10
6.0560936
20
7.4684703
40
0.2709285
50
155.409821
51
170.7698522
0
ARC
8
DEFAULT_255_2_778
10
5.8621469
20
7.5636975
40
0.0552591
50
94.6785837
51
161.5230824
0
ARC
8
DEFAULT_255_2_778
10
5.8521557
20
7.5380842
40
0.0808744
50
52.0515235
51
86.1119302
0
ARC
8
DEFAULT_255_2_778
10
5.7376562
20
7.3731234
40
0.2815893
50
42.1299667
51
54.3214237
0
ARC
8
DEFAULT_255_2_778
10
5.418622
20
7.0758655
40
0.7176267
50
36.549513
51
42.6442363
0
ARC
8
DEFAULT_255_2_778
10
4.9944676
20
6.7526088
40
1.250893
50
34.9792524
51
36.8744757
0
ARC
8
DEFAULT_255_2_778
10
5.5016647
20
7.104328
40
0.6336878
50
15.2634123
51
35.2126457
0
ARC
8
DEFAULT_255_2_778
10
5.5125234
20
7.108605
40
0.6220876
50
0.9216278
51
15.146678
0
ARC
8
DEFAULT_255_2_778
10
5.5018936
20
7.1080947
40
0.6327243
50
359.998955
51
0.9523442
0
ARC
8
DEFAULT_255_2_778
10
5.4423349
20
7.1159293
40
0.6923276
50
317.875401
51
359.3506595
0
ARC
8
DEFAULT_255_2_778
10
5.3565515
20
7.1863913
40
0.8032317
50
293.8818446
51
318.2518921
0
ARC
8
DEFAULT_255_2_778
10
5.3255514
20
7.2458055
40
0.8701201
50
292.5689298
51
294.1644632
0
ARC
8
DEFAULT_255_2_778
10
5.1119849
20
7.7372812
40
1.4059498
50
287.0390103
51
292.9188121
0
ARC
8
DEFAULT_255_2_778
10
5.2510211
20
7.2868709
40
0.9345699
50
278.9278669
51
286.9805991
0
ARC
8
DEFAULT_255_2_778
10
5.2701196
20
7.1797527
40
0.8257884
50
269.9519846
51
278.7722134
0
ARC
8
DEFAULT_255_2_778
10
5.2758918
20
7.3951978
40
1.0412533
50
259.6217211
51
269.6442967
0
ARC
8
DEFAULT_255_2_778
10
5.4026131
20
8.119771
40
1.7768105
50
254.9944379
51
259.811366
0
ARC
8
DEFAULT_255_2_778
10
5.6814638
20
9.1887959
40
2.8815901
50
253.1294989
51
255.1424132
0
ARC
8
DEFAULT_255_2_778
10
13.7108052
20
8.136365
40
0.9650821
50
349.8215185
51
357.8392121
0
ARC
8
DEFAULT_255_2_778
10
13.7108355
20
8.1363587
40
0.9650514
50
357.8395202
51
0.0000566
0
ARC
8
DEFAULT_255_2_778
10
13.7103173
20
8.1363311
40
0.9655696
50
0.0016942
51
23.3363531
0
LINE
8
DEFAULT_255_2_778
10
14.5968989
20
8.5188204
11
14.595341
21
8.5225504
0
ARC
8
DEFAULT_255_2_778
10
48.3023351
20
22.6413347
40
36.5445143
50
202.5701722
51
202.7272547
0
ARC
8
DEFAULT_255_2_778
10
18.4042353
20
10.2166446
40
4.1675278
50
201.6265549
51
202.6010199
0
ARC
8
DEFAULT_255_2_778
10
15.5008459
20
9.0711983
40
1.0463731
50
198.1263298
51
201.9138365
0
ARC
8
DEFAULT_255_2_778
10
14.7139893
20
8.8177829
40
0.2197609
50
186.2734605
51
199.1594384
0
ARC
8
DEFAULT_255_2_778
10
14.5765379
20
8.799755
40
0.0812144
50
180.096933
51
184.2270258
0
ARC
8
DEFAULT_255_2_778
10
14.5338564
20
8.800696
40
0.038548
50
80.7010653
51
181.6031507
0
ARC
8
DEFAULT_255_2_778
10
14.5840139
20
8.333091
40
0.5075511
50
88.9802041
51
94.9651763
0
ARC
8
DEFAULT_255_2_778
10
14.5904207
20
2.4908467
40
6.3497155
50
89.852141
51
89.9762995
0
ARC
8
DEFAULT_255_2_778
10
14.6234601
20
15.4784748
40
6.6379547
50
269.8562571
51
269.9830718
0
ARC
8
DEFAULT_255_2_778
10
14.6171604
20
8.6362395
40
0.204327
50
68.0400422
51
88.7833488
0
ARC
8
DEFAULT_255_2_778
10
14.5495149
20
8.460565
40
0.3925633
50
55.9790488
51
68.4717039
0
ARC
8
DEFAULT_255_2_778
10
14.4715782
20
8.3357529
40
0.5396423
50
55.028498
51
56.534912
0
ARC
8
DEFAULT_255_2_778
10
14.3324599
20
8.1525433
40
0.7695618
50
41.4356143
51
54.3592498
0
ARC
8
DEFAULT_255_2_778
10
14.216561
20
8.0387472
40
0.9317987
50
29.3400265
51
41.9652677
0
ARC
8
DEFAULT_255_2_778
10
14.4792682
20
8.1852938
40
0.6309838
50
19.0218215
51
29.4286181
0
ARC
8
DEFAULT_255_2_778
10
14.7445861
20
8.2754688
40
0.3507653
50
5.2376623
51
19.2217041
0
ARC
8
DEFAULT_255_2_778
10
14.863992
20
8.2895285
40
0.2305953
50
0.060806
51
4.467186
0
ARC
8
DEFAULT_255_2_778
10
14.9211219
20
8.2884393
40
0.1734704
50
346.7404783
51
0.4406056
0
ARC
8
DEFAULT_255_2_778
10
14.9535139
20
8.2819298
40
0.1404531
50
343.9596145
51
346.2943945
0
ARC
8
DEFAULT_255_2_778
10
14.3730467
20
8.4542382
40
0.7459507
50
335.9822971
51
343.5595659
0
ARC
8
DEFAULT_255_2_778
10
14.0340825
20
8.6007127
40
1.1151931
50
331.8736198
51
336.1966551
0
ARC
8
DEFAULT_255_2_778
10
13.8144997
20
8.7170253
40
1.3636775
50
320.739657
51
331.9130294
0
ARC
8
DEFAULT_255_2_778
10
14.0575068
20
8.5258818
40
1.0545739
50
319.9908022
51
320.4252132
0
ARC
8
DEFAULT_255_2_778
10
14.260604
20
8.3485404
40
0.7850163
50
312.5580073
51
320.3746959
0
ARC
8
DEFAULT_255_2_778
10
14.5575084
20
8.0220021
40
0.34369
50
300.7218125
51
312.9167753
0
ARC
8
DEFAULT_255_2_778
10
14.6599266
20
7.8521201
40
0.1453327
50
288.0256888
51
300.2262678
0
ARC
8
DEFAULT_255_2_778
10
14.6746487
20
7.7895407
40
0.0814463
50
274.644554
51
291.8027764
0
ARC
8
DEFAULT_255_2_778
10
14.6786884
20
7.7555021
40
0.0472093
50
270.0353843
51
273.1027833
0
ARC
8
DEFAULT_255_2_778
10
14.6799284
20
7.7447404
40
0.0364677
50
181.2205869
51
268.0972009
0
ARC
8
DEFAULT_255_2_778
10
14.8405135
20
7.783083
40
0.2008902
50
178.88459
51
191.2289597
0
ARC
8
DEFAULT_255_2_778
10
15.244589
20
7.7814645
40
0.6049529
50
173.8241899
51
179.4763284
0
ARC
8
DEFAULT_255_2_778
10
16.1098411
20
7.6935912
40
1.4746481
50
171.2696503
51
174.0464409
0
ARC
8
DEFAULT_255_2_778
10
17.3701496
20
7.5063052
40
2.7487883
50
170.3322774
51
171.3984497
0
ARC
8
DEFAULT_255_2_778
10
10.5392226
20
4.8701241
40
5.0806295
50
72.2029406
51
75.9615331
0
ARC
8
DEFAULT_255_2_778
10
10.1501447
20
3.3211793
40
6.6776922
50
75.9467347
51
79.1821584
0
ARC
8
DEFAULT_255_2_778
10
9.8144118
20
1.5729519
40
8.4578646
50
79.1710038
51
82.0399746
0
ARC
8
DEFAULT_255_2_778
10
9.5533591
20
-0.2878012
40
10.3368404
50
82.035228
51
84.7995519
0
ARC
8
DEFAULT_255_2_778
10
9.3838106
20
-2.1507184
40
12.2074572
50
84.799575
51
87.8287839
0
ARC
8
DEFAULT_255_2_778
10
9.3327136
20
-3.3597198
40
13.4175276
50
87.8063382
51
90.0083812
0
ARC
8
DEFAULT_255_2_778
10
9.331047
20
-3.721619
40
13.7794265
50
90.0012313
51
91.5338237
0
ARC
8
DEFAULT_255_2_778
10
9.3119629
20
-3.2627555
40
13.3202182
50
91.5045962
51
95.6946894
0
ARC
8
DEFAULT_255_2_778
10
9.1398461
20
-1.5167394
40
11.5657405
50
95.7045254
51
98.6330119
0
ARC
8
DEFAULT_255_2_778
10
8.8672298
20
0.2792501
40
9.7491785
50
98.6333614
51
101.4163211
0
ARC
8
DEFAULT_255_2_778
10
8.5164935
20
2.0106903
40
7.9825717
50
101.4085574
51
104.4446433
0
ARC
8
DEFAULT_255_2_778
10
8.2905624
20
2.9156725
40
7.049843
50
104.5011579
51
104.723611
0
ARC
8
DEFAULT_255_2_778
10
4.9462398
20
15.6393676
40
6.1060269
50
283.5702561
51
284.7301355
0
ARC
8
DEFAULT_255_2_778
10
5.8092398
20
12.0482019
40
2.4126268
50
281.0854338
51
283.6584714
0
ARC
8
DEFAULT_255_2_778
10
6.0889731
20
10.6049326
40
0.9425062
50
275.8392762
51
281.2670224
0
ARC
8
DEFAULT_255_2_778
10
6.1405406
20
10.1190319
40
0.4538842
50
270.2392643
51
275.6038225
0
ARC
8
DEFAULT_255_2_778
10
6.1365623
20
9.878762
40
0.2136912
50
249.7170284
51
271.5750561
0
ARC
8
DEFAULT_255_2_778
10
6.1357241
20
9.8536147
40
0.1899783
50
222.6849597
51
247.3243513
0
ARC
8
DEFAULT_255_2_778
10
6.2458066
20
9.9698897
40
0.3498976
50
224.1618321
51
224.4603904
0
ARC
8
DEFAULT_255_2_778
10
6.0991351
20
9.833785
40
0.1499256
50
209.1618442
51
225.8994577
0
ARC
8
DEFAULT_255_2_778
10
6.0431186
20
9.8026735
40
0.0858497
50
180.6532778
51
209.2470097
0
ARC
8
DEFAULT_255_2_778
10
6.0761196
20
9.7926246
40
0.1191907
50
129.6607678
51
175.6357105
0
ARC
8
DEFAULT_255_2_778
10
6.3032179
20
9.5595192
40
0.4443516
50
118.8992154
51
133.0218018
0
ARC
8
DEFAULT_255_2_778
10
6.6835168
20
8.8967267
40
1.2084605
50
112.4385294
51
119.4981719
0
ARC
8
DEFAULT_255_2_778
10
7.2508456
20
7.5489362
40
2.6707726
50
108.6078222
51
112.651669
0
ARC
8
DEFAULT_255_2_778
10
7.978758
20
5.4176061
40
4.9229654
50
106.4164341
51
108.7216154
0
ARC
8
DEFAULT_255_2_778
10
8.8693232
20
2.4085992
40
8.0609933
50
104.7954259
51
106.4439001
0
ARC
8
DEFAULT_255_2_778
10
8.030212
20
3.8079512
40
6.5096026
50
99.1352964
51
100.7967312
0
ARC
8
DEFAULT_255_2_778
10
8.3508386
20
1.8232957
40
8.51999
50
97.7214608
51
99.1451375
0
ARC
8
DEFAULT_255_2_778
10
8.6288306
20
-0.2221758
40
10.5842655
50
96.3615753
51
97.7249651
0
ARC
8
DEFAULT_255_2_778
10
8.8428361
20
-2.1306729
40
12.5047234
50
95.1114641
51
96.3671721
0
ARC
8
DEFAULT_255_2_778
10
8.9834908
20
-3.6956666
40
14.0760249
50
93.83029
51
95.1141687
0
ARC
8
DEFAULT_255_2_778
10
9.0570545
20
-4.7833492
40
15.1661923
50
92.4212697
51
93.8330884
0
ARC
8
DEFAULT_255_2_778
10
9.0743638
20
-5.1613028
40
15.5445397
50
90.6270906
51
92.4261596
0
ARC
8
DEFAULT_255_2_778
10
9.0708987
20
-4.8824451
40
15.265661
50
90.0010504
51
90.6255406
0
ARC
8
DEFAULT_255_2_778
10
9.0723482
20
-4.3267642
40
14.7099802
50
88.5783862
51
90.0067361
0
ARC
8
DEFAULT_255_2_778
10
9.0920316
20
-3.4927813
40
13.8757656
50
87.6597788
51
88.5742024
0
ARC
8
DEFAULT_255_2_778
10
9.2094718
20
-1.2042592
40
11.5843815
50
83.0274092
51
87.7779603
0
ARC
8
DEFAULT_255_2_778
10
9.5967188
20
2.0365181
40
8.3205671
50
79.1293621
51
82.965231
0
ARC
8
DEFAULT_255_2_778
10
10.0093187
20
4.1827876
40
6.1349982
50
74.8751042
51
79.133344
0
ARC
8
DEFAULT_255_2_778
10
10.4397395
20
5.7740411
40
4.4865597
50
70.0778987
51
74.8791206
0
ARC
8
DEFAULT_255_2_778
10
10.8634611
20
6.938903
40
3.2470273
50
64.1931828
51
70.1034341
0
ARC
8
DEFAULT_255_2_778
10
11.2816031
20
7.7979328
40
2.2916392
50
56.2727255
51
64.2549611
0
ARC
8
DEFAULT_255_2_778
10
11.5988167
20
8.280732
40
1.7139754
50
50.0628108
51
56.1307752
0
ARC
8
DEFAULT_255_2_778
10
12.6696485
20
9.5948747
40
0.0294504
50
271.6570075
51
0.0890124
0
ARC
8
DEFAULT_255_2_778
10
12.6469146
20
9.6884506
40
0.1252547
50
269.160681
51
280.853626
0
ARC
8
DEFAULT_255_2_778
10
12.6554787
20
9.9885928
40
0.4255106
50
258.7317731
51
268.5996352
0
ARC
8
DEFAULT_255_2_778
10
12.8414274
20
11.0035587
40
1.4573335
50
255.3344061
51
259.3593599
0
ARC
8
DEFAULT_255_2_778
10
13.389357
20
13.142394
40
3.6652264
50
253.60587
51
255.5130192
0
ARC
8
DEFAULT_255_2_778
10
14.4472827
20
16.7682933
40
7.4423044
50
252.701564
51
253.6710917
0
ARC
8
DEFAULT_255_2_778
10
16.2821384
20
22.6710992
40
13.6237124
50
252.0867352
51
252.7155652
0
LINE
8
DEFAULT_255_2_778
10
4.8445989
20
6.4312204
11
4.5945989
21
6.5066204
0
LINE
8
DEFAULT_255_2_778
10
4.5945989
20
6.5066204
11
5.0395989
21
6.5908204
0
LINE
8
DEFAULT_255_2_778
10
4.8451989
20
6.4312204
11
4.8445989
21
6.4312204
0
LINE
8
DEFAULT_255_2_778
10
14.6603989
20
7.9679204
11
14.6606989
21
7.9658204
0
LINE
8
DEFAULT_255_2_778
10
12.0917989
20
9.7078204
11
12.0920989
21
9.7076204
0
ARC
8
DEFAULT_255_2_778
10
1.7415525
20
0.2077902
40
2.8415592
50
83.40745
51
90.2385658
0
ARC
8
DEFAULT_255_2_778
10
1.8243142
20
0.9852201
40
2.0597804
50
79.3658306
51
83.2116026
0
ARC
8
DEFAULT_255_2_778
10
1.9401119
20
1.6191128
40
1.4154091
50
62.2145884
51
79.2375872
0
ARC
8
DEFAULT_255_2_778
10
1.736218
20
1.0013852
40
1.7670617
50
63.9937189
51
76.2934801
0
ARC
8
DEFAULT_255_2_778
10
1.7892436
20
1.2347772
40
1.5277565
50
76.1514801
51
90.1958678
0
ARC
8
DEFAULT_255_2_778
10
1.7782705
20
1.2712951
40
1.4912408
50
89.7790584
51
107.5372598
0
ARC
8
DEFAULT_255_2_778
10
1.6247944
20
1.78064
40
0.9593499
50
107.9634615
51
134.4293954
0
ARC
8
DEFAULT_255_2_778
10
1.6794746
20
1.7109678
40
1.0474266
50
133.8974327
51
154.2692504
0
ARC
8
DEFAULT_255_2_778
10
2.028615
20
1.5233426
40
1.4435092
50
153.576832
51
158.1696784
0
ARC
8
DEFAULT_255_2_778
10
1.9876516
20
1.564143
40
1.3904958
50
159.1026852
51
172.6535795
0
ARC
8
DEFAULT_255_2_778
10
2.7495624
20
1.4563036
40
2.1599625
50
172.4007843
51
180.2514389
0
ARC
8
DEFAULT_255_2_778
10
2.4695013
20
1.4337596
40
1.8799258
50
179.6017984
51
191.8171649
0
ARC
8
DEFAULT_255_2_778
10
2.0456909
20
1.3534781
40
1.44868
50
192.1419483
51
198.7412437
0
ARC
8
DEFAULT_255_2_778
10
1.7976546
20
1.2630668
40
1.184761
50
198.4547127
51
219.4649722
0
ARC
8
DEFAULT_255_2_778
10
1.6671882
20
1.1685532
40
1.0240143
50
220.0222382
51
222.4100874
0
ARC
8
DEFAULT_255_2_778
10
1.7037236
20
1.2447388
40
1.1028249
50
224.052566
51
247.518565
0
ARC
8
DEFAULT_255_2_778
10
1.7325608
20
1.3979561
40
1.2558314
50
248.9760427
51
268.8814792
0
ARC
8
DEFAULT_255_2_778
10
1.7565107
20
1.7307109
40
1.5890862
50
268.2523022
51
270.0075789
0
ARC
8
DEFAULT_255_2_778
10
1.7688971
20
2.2322408
40
2.0906514
50
269.6663027
51
276.8790254
0
ARC
8
DEFAULT_255_2_778
10
1.8414155
20
1.5607703
40
1.415354
50
277.2202035
51
279.8369239
0
ARC
8
DEFAULT_255_2_778
10
1.8724202
20
1.4664951
40
1.3172471
50
279.2087103
51
288.3416541
0
ARC
8
DEFAULT_255_2_778
10
2.0217629
20
0.9900147
40
0.8180188
50
288.9149212
51
291.8054438
0
ARC
8
DEFAULT_255_2_778
10
1.7009996
20
2.442859
40
2.6134427
50
282.5464606
51
291.7474198
0
ARC
8
DEFAULT_255_2_778
10
1.8682715
20
1.8786812
40
2.0268099
50
274.1480347
51
281.3952577
0
ARC
8
DEFAULT_255_2_778
10
1.7548959
20
3.3112304
40
3.4638202
50
269.833347
51
274.3044671
0
ARC
8
DEFAULT_255_2_778
10
1.7324835
20
1.5240028
40
1.6766234
50
249.7188688
51
270.421615
0
ARC
8
DEFAULT_255_2_778
10
1.6306566
20
1.2445632
40
1.3792129
50
225.6551534
51
249.662897
0
ARC
8
DEFAULT_255_2_778
10
1.6996135
20
1.3010944
40
1.4678729
50
203.2988064
51
225.2726124
0
ARC
8
DEFAULT_255_2_778
10
1.9851107
20
1.4439212
40
1.7866741
50
202.5821436
51
203.8843313
0
ARC
8
DEFAULT_255_2_778
10
1.8720285
20
1.3608044
40
1.6506808
50
186.2123751
51
201.4255199
0
ARC
8
DEFAULT_255_2_778
10
2.4789387
20
1.4399059
40
2.2626239
50
179.8653115
51
186.5405796
0
ARC
8
DEFAULT_255_2_778
10
2.4330275
20
1.4581932
40
2.2167445
50
169.3656085
51
180.3351928
0
ARC
8
DEFAULT_255_2_778
10
1.8844587
20
1.5562354
40
1.6595118
50
159.4920335
51
169.1972856
0
ARC
8
DEFAULT_255_2_778
10
1.6643606
20
1.6494618
40
1.4207388
50
141.613221
51
159.9037655
0
ARC
8
DEFAULT_255_2_778
10
1.4838423
20
1.7801645
40
1.1981186
50
134.3359003
51
141.1519166
0
ARC
8
DEFAULT_255_2_778
10
1.5884069
20
1.6932577
40
1.3334295
50
110.2803782
51
134.9398036
0
ARC
8
DEFAULT_255_2_778
10
1.7084171
20
1.3616872
40
1.686044
50
90.662367
51
110.2002957
0
ARC
8
DEFAULT_255_2_778
10
1.7294365
20
1.0277633
40
2.0202615
50
89.9976047
51
91.1489771
0
ARC
8
DEFAULT_255_2_778
10
5.6078004
20
-0.2531693
40
2.5697838
50
111.4677408
51
118.2360859
0
ARC
8
DEFAULT_255_2_778
10
5.282969
20
0.559713
40
1.6944221
50
105.9473128
51
111.3054535
0
ARC
8
DEFAULT_255_2_778
10
5.2329561
20
0.7574587
40
1.4905585
50
90.4136461
51
106.1872969
0
ARC
8
DEFAULT_255_2_778
10
5.2525402
20
0.3795622
40
1.8686626
50
89.9975245
51
90.9304618
0
ARC
8
DEFAULT_255_2_778
10
5.2644575
20
1.1150427
40
1.1332439
50
73.879041
51
90.598458
0
ARC
8
DEFAULT_255_2_778
10
5.4282832
20
1.5928666
40
0.6292057
50
48.6804889
51
76.1295576
0
ARC
8
DEFAULT_255_2_778
10
5.4299858
20
1.6058407
40
0.6183804
50
18.3797771
51
48.0052458
0
ARC
8
DEFAULT_255_2_778
10
5.1881902
20
1.4790033
40
0.8889308
50
5.2184287
51
21.2250456
0
ARC
8
DEFAULT_255_2_778
10
4.6096903
20
1.4096049
40
1.4714372
50
359.8294436
51
5.8607175
0
ARC
8
DEFAULT_255_2_778
10
5.0706948
20
0.7425169
40
0.887759
50
292.3460842
51
320.1471486
0
ARC
8
DEFAULT_255_2_778
10
5.0131801
20
0.9427073
40
1.0950229
50
270.436965
51
291.1468991
0
ARC
8
DEFAULT_255_2_778
10
4.992908
20
1.2542945
40
1.4068696
50
269.9964534
51
271.1657793
0
ARC
8
DEFAULT_255_2_778
10
4.9857727
20
0.8815775
40
1.0341767
50
253.1454877
51
270.3904919
0
ARC
8
DEFAULT_255_2_778
10
4.9381407
20
0.615049
40
0.7659426
50
229.7768612
51
250.7741126
0
ARC
8
DEFAULT_255_2_778
10
4.8950382
20
0.5312323
40
0.6744453
50
205.3073338
51
227.974236
0
ARC
8
DEFAULT_255_2_778
10
4.9102457
20
0.5097408
40
0.6795011
50
179.1412464
51
203.1203967
0
ARC
8
DEFAULT_255_2_778
10
4.9027346
20
0.5344367
40
0.6720704
50
153.0278051
51
181.2372741
0
ARC
8
DEFAULT_255_2_778
10
4.8342707
20
0.5580509
40
0.6004263
50
151.8387671
51
152.0728663
0
ARC
8
DEFAULT_255_2_778
10
4.8946455
20
0.5243362
40
0.6695672
50
124.7888995
51
151.7335553
0
ARC
8
DEFAULT_255_2_778
10
5.0504179
20
0.2598294
40
0.9759434
50
102.5038612
51
123.4393178
0
ARC
8
DEFAULT_255_2_778
10
5.2399995
20
-0.4009176
40
1.6625952
50
91.1352786
51
103.9524274
0
ARC
8
DEFAULT_255_2_778
10
5.2642283
20
-0.8512133
40
2.113338
50
89.9920658
51
91.5501499
0
ARC
8
DEFAULT_255_2_778
10
4.8547876
20
1.447149
40
0.8797155
50
359.2168396
51
12.5996332
0
ARC
8
DEFAULT_255_2_778
10
5.3297674
20
1.560722
40
0.3914664
50
11.5417716
51
41.6249606
0
ARC
8
DEFAULT_255_2_778
10
5.4172935
20
1.6269047
40
0.2822108
50
43.3849042
51
50.6788716
0
ARC
8
DEFAULT_255_2_778
10
5.2724742
20
1.4546871
40
0.5072148
50
50.3507486
51
86.2336657
0
ARC
8
DEFAULT_255_2_778
10
5.2314445
20
1.17726
40
0.7870658
50
84.579671
51
90.0890723
0
ARC
8
DEFAULT_255_2_778
10
5.2434191
20
0.774524
40
1.189874
50
90.6355436
51
101.7904037
0
ARC
8
DEFAULT_255_2_778
10
5.3550428
20
0.1596553
40
1.8146521
50
101.2735689
51
104.0754369
0
ARC
8
DEFAULT_255_2_778
10
5.2070155
20
0.6999898
40
1.2545992
50
103.5194559
51
114.7420217
0
ARC
8
DEFAULT_255_2_778
10
5.5146677
20
-0.0004403
40
2.0195402
50
114.3521165
51
119.2485873
0
ARC
8
DEFAULT_255_2_778
10
5.3799492
20
-0.9101037
40
1.9169183
50
90.996217
51
98.6205328
0
ARC
8
DEFAULT_255_2_778
10
5.2325932
20
0.0272248
40
0.9681058
50
98.3130461
51
111.1468283
0
ARC
8
DEFAULT_255_2_778
10
5.0680693
20
0.4564837
40
0.5084019
50
111.3062304
51
126.8850045
0
ARC
8
DEFAULT_255_2_778
10
5.0117608
20
0.5164994
40
0.4266972
50
125.6742942
51
162.3418088
0
ARC
8
DEFAULT_255_2_778
10
4.9767258
20
0.5383874
40
0.3868088
50
163.8571918
51
180.2610847
0
ARC
8
DEFAULT_255_2_778
10
5.08707
20
0.5239597
40
0.4973103
50
178.540685
51
201.2475653
0
ARC
8
DEFAULT_255_2_778
10
4.8915127
20
0.4519582
40
0.2889775
50
201.993587
51
236.8098835
0
ARC
8
DEFAULT_255_2_778
10
5.0569524
20
0.7221996
40
0.6057705
50
237.7070987
51
270.1510646
0
ARC
8
DEFAULT_255_2_778
10
5.0771595
20
0.9552987
40
0.839074
50
268.7291246
51
270.0041975
0
ARC
8
DEFAULT_255_2_778
10
5.0679333
20
0.9742417
40
0.8580671
50
270.6201757
51
294.8345461
0
ARC
8
DEFAULT_255_2_778
10
5.0928497
20
0.8812594
40
0.7633956
50
296.0685471
51
325.0971452
0
ARC
8
DEFAULT_255_2_778
10
4.8932029
20
1.0448801
40
1.0209473
50
323.9772535
51
325.5623274
0
LINE
8
DEFAULT_255_2_778
10
2.5999209
20
2.8713248
11
2.5110209
21
2.5895248
0
LINE
8
DEFAULT_255_2_778
10
2.3256209
20
0.2305248
11
2.3256209
21
1.2200248
0
LINE
8
DEFAULT_255_2_778
10
2.3256209
20
1.2200248
11
1.6998209
21
1.2200248
0
LINE
8
DEFAULT_255_2_778
10
1.6998209
20
1.2200248
11
1.6998209
21
1.4970248
0
LINE
8
DEFAULT_255_2_778
10
1.6998209
20
1.4970248
11
2.6693209
21
1.4970248
0
LINE
8
DEFAULT_255_2_778
10
2.6693209
20
1.4970248
11
2.6693209
21
0.0154248
0
LINE
8
DEFAULT_255_2_778
10
1.7295209
20
3.0480248
11
1.7297209
21
3.0493248
0
LINE
8
DEFAULT_255_2_778
10
3.3349209
20
-0.1057752
11
3.3349209
21
3.4052248
0
LINE
8
DEFAULT_255_2_778
10
3.3349209
20
3.4052248
11
3.6789209
21
3.4052248
0
LINE
8
DEFAULT_255_2_778
10
3.6789209
20
3.4052248
11
3.6789209
21
-0.1057752
0
LINE
8
DEFAULT_255_2_778
10
3.6789209
20
-0.1057752
11
3.3349209
21
-0.1057752
0
LINE
8
DEFAULT_255_2_778
10
6.0811209
20
1.4052248
11
6.0811209
21
-0.1081752
0
LINE
8
DEFAULT_255_2_778
10
6.0811209
20
-0.1081752
11
5.8165209
21
-0.1081752
0
LINE
8
DEFAULT_255_2_778
10
5.8165209
20
-0.1081752
11
5.7620209
21
0.1736248
0
LINE
8
DEFAULT_255_2_778
10
5.7620209
20
0.1736248
11
5.7522209
21
0.1736248
0
LINE
8
DEFAULT_255_2_778
10
5.2645209
20
1.2621248
11
5.7344209
21
1.2621248
0
LINE
8
DEFAULT_255_2_778
10
5.7344209
20
1.2621248
11
5.7344209
21
1.4351248
0
LINE
8
DEFAULT_255_2_778
10
4.5279209
20
1.7616248
11
4.3920209
21
2.0108248
0
LINE
8
DEFAULT_255_2_778
10
5.7323209
20
1.0118248
11
5.3466209
21
1.0065248
0
LINE
8
DEFAULT_255_2_778
10
5.7352209
20
0.4675248
11
5.7323209
21
1.0118248
0
ARC
8
DEFAULT_255_2_778
10
7.4548701
20
0.7088668
40
1.2752003
50
63.7099141
51
76.9562335
0
ARC
8
DEFAULT_255_2_778
10
7.4766448
20
0.7710755
40
1.2097034
50
77.2959558
51
90.2826661
0
ARC
8
DEFAULT_255_2_778
10
7.4585562
20
1.0899086
40
0.8909381
50
89.2205085
51
102.7111277
0
ARC
8
DEFAULT_255_2_778
10
7.3516289
20
1.5454247
40
0.4230776
50
102.1589974
51
127.346329
0
ARC
8
DEFAULT_255_2_778
10
7.2852308
20
1.6320401
40
0.3139407
50
127.3022046
51
181.3462527
0
ARC
8
DEFAULT_255_2_778
10
7.2614666
20
1.6111755
40
0.2904033
50
177.3377395
51
227.5010093
0
ARC
8
DEFAULT_255_2_778
10
7.4065047
20
1.8461169
40
0.5639901
50
232.7693807
51
246.1777117
0
ARC
8
DEFAULT_255_2_778
10
7.8172719
20
2.7333826
40
1.5416706
50
245.5309089
51
251.9771813
0
ARC
8
DEFAULT_255_2_778
10
8.204752
20
3.8685328
40
2.7410618
50
251.6164583
51
253.6095916
0
ARC
8
DEFAULT_255_2_778
10
7.154205
20
-0.2362433
40
1.4924507
50
62.8872813
51
73.4482256
0
ARC
8
DEFAULT_255_2_778
10
7.4497966
20
0.3319498
40
0.851992
50
45.7529795
51
63.1670273
0
ARC
8
DEFAULT_255_2_778
10
7.6621612
20
0.5526901
40
0.5456926
50
357.8702022
51
45.5537634
0
LINE
8
DEFAULT_255_2_778
10
8.2074767
20
0.5324102
11
8.2074768
21
0.5321643
0
ARC
8
DEFAULT_255_2_778
10
7.5882611
20
0.5180645
40
0.6193762
50
309.8658908
51
1.3044172
0
ARC
8
DEFAULT_255_2_778
10
7.5030366
20
0.6146638
40
0.7481571
50
283.2839128
51
310.1334982
0
ARC
8
DEFAULT_255_2_778
10
7.3714486
20
1.1232363
40
1.2734071
50
270.5562325
51
283.788265
0
ARC
8
DEFAULT_255_2_778
10
7.3504345
20
1.5645549
40
1.7149906
50
269.9947303
51
271.1151311
0
ARC
8
DEFAULT_255_2_778
10
7.3372431
20
1.8643404
40
2.0148183
50
259.404113
51
270.3706444
0
ARC
8
DEFAULT_255_2_778
10
7.2761846
20
1.4790118
40
1.6248687
50
258.0656517
51
259.0219713
0
ARC
8
DEFAULT_255_2_778
10
7.1633198
20
1.1604268
40
1.2905995
50
246.1054425
51
260.0435996
0
ARC
8
DEFAULT_255_2_778
10
7.0530878
20
0.886757
40
0.9957861
50
243.8150318
51
245.5261987
0
ARC
8
DEFAULT_255_2_778
10
7.2748771
20
1.3749165
40
1.2486303
50
242.7197984
51
256.782349
0
ARC
8
DEFAULT_255_2_778
10
7.3129566
20
1.6617811
40
1.5368671
50
257.8457018
51
270.4630404
0
ARC
8
DEFAULT_255_2_778
10
7.3379093
20
1.0822377
40
0.9573554
50
269.2499326
51
282.9358552
0
ARC
8
DEFAULT_255_2_778
10
7.4403519
20
0.6400999
40
0.5035065
50
282.8373324
51
303.2167553
0
ARC
8
DEFAULT_255_2_778
10
7.5330697
20
0.4896678
40
0.3268987
50
304.0650688
51
2.8048289
0
ARC
8
DEFAULT_255_2_778
10
7.5632961
20
0.519253
40
0.2965921
50
357.3739966
51
52.0293347
0
ARC
8
DEFAULT_255_2_778
10
7.35256
20
0.2894045
40
0.6079472
50
49.6996685
51
64.4424779
0
ARC
8
DEFAULT_255_2_778
10
6.9784416
20
-0.4629643
40
1.4481574
50
63.9310102
51
71.8215256
0
ARC
8
DEFAULT_255_2_778
10
6.7127368
20
-1.2146774
40
2.2453175
50
71.3641048
51
72.4529049
0
ARC
8
DEFAULT_255_2_778
10
7.7169078
20
2.5209649
40
1.6198476
50
243.1753646
51
252.5617961
0
ARC
8
DEFAULT_255_2_778
10
7.3675277
20
1.8418721
40
0.8561858
50
227.401142
51
243.5324357
0
ARC
8
DEFAULT_255_2_778
10
7.208511
20
1.6545981
40
0.6107763
50
224.9668108
51
226.4907277
0
ARC
8
DEFAULT_255_2_778
10
7.1613677
20
1.5920798
40
0.5333519
50
178.2073663
51
223.7939942
0
ARC
8
DEFAULT_255_2_778
10
7.2229534
20
1.6146374
40
0.5947057
50
154.2115112
51
180.5658485
0
ARC
8
DEFAULT_255_2_778
10
7.2042118
20
1.6153155
40
0.5775848
50
127.1038836
51
153.4632313
0
ARC
8
DEFAULT_255_2_778
10
7.3163071
20
1.4845684
40
0.749558
50
106.1451071
51
127.9085166
0
ARC
8
DEFAULT_255_2_778
10
7.4228562
20
1.228513
40
1.0256159
50
89.3563931
51
107.8852999
0
ARC
8
DEFAULT_255_2_778
10
7.4243231
20
0.1235059
40
2.1305821
50
80.4343875
51
89.729636
0
ARC
8
DEFAULT_255_2_778
10
7.5660137
20
0.9099568
40
1.331551
50
65.9023439
51
80.8229645
0
LINE
8
DEFAULT_255_2_778
10
7.4312768
20
1.2388643
11
7.5793768
21
1.1943643
0
LINE
8
DEFAULT_255_2_778
10
6.6136768
20
-0.0068357
11
6.7025768
21
0.2651643
0
LINE
8
DEFAULT_255_2_778
10
7.3896768
20
0.9261643
11
7.2314768
21
0.9755643
0
LINE
8
DEFAULT_255_2_778
10
8.1096768
20
2.1254643
11
8.0196768
21
1.8521643
0
ARC
8
DEFAULT_255_2_778
10
9.437662
20
0.7088668
40
1.2752003
50
63.7099141
51
76.9562335
0
ARC
8
DEFAULT_255_2_778
10
9.4594367
20
0.7710755
40
1.2097034
50
77.2959558
51
90.2826661
0
ARC
8
DEFAULT_255_2_778
10
9.4413481
20
1.0899086
40
0.8909381
50
89.2205085
51
102.7111277
0
ARC
8
DEFAULT_255_2_778
10
9.3344208
20
1.5454247
40
0.4230776
50
102.1589974
51
127.346329
0
ARC
8
DEFAULT_255_2_778
10
9.2680227
20
1.6320401
40
0.3139407
50
127.3022046
51
181.3462527
0
ARC
8
DEFAULT_255_2_778
10
9.2441094
20
1.6112
40
0.2902531
50
177.3412163
51
227.5405504
0
ARC
8
DEFAULT_255_2_778
10
9.3889423
20
1.8451193
40
0.5629209
50
232.7447596
51
246.1727982
0
ARC
8
DEFAULT_255_2_778
10
9.7995726
20
2.7318041
40
1.5400166
50
245.5243506
51
251.9765064
0
ARC
8
DEFAULT_255_2_778
10
10.1869591
20
3.8665622
40
2.7390064
50
251.6151316
51
253.6096955
0
ARC
8
DEFAULT_255_2_778
10
9.1369969
20
-0.2362433
40
1.4924507
50
62.8872813
51
73.4482256
0
ARC
8
DEFAULT_255_2_778
10
9.4325885
20
0.3319498
40
0.851992
50
45.7529795
51
63.1670273
0
ARC
8
DEFAULT_255_2_778
10
9.6451665
20
0.5526299
40
0.5455861
50
357.8502627
51
45.5741926
0
ARC
8
DEFAULT_255_2_778
10
9.5712698
20
0.5180926
40
0.6192588
50
309.8488326
51
1.3020666
0
ARC
8
DEFAULT_255_2_778
10
9.4860215
20
0.6142261
40
0.7476981
50
283.2808964
51
310.1438085
0
ARC
8
DEFAULT_255_2_778
10
9.3542639
20
1.1234559
40
1.2736265
50
270.55544
51
283.7870409
0
ARC
8
DEFAULT_255_2_778
10
9.3332266
20
1.5653395
40
1.7157752
50
269.9947263
51
271.1148775
0
ARC
8
DEFAULT_255_2_778
10
9.3201131
20
1.8650725
40
2.0155499
50
259.4061242
51
270.3682908
0
ARC
8
DEFAULT_255_2_778
10
9.2594932
20
1.4823091
40
1.6282016
50
258.0718583
51
259.0266712
0
ARC
8
DEFAULT_255_2_778
10
9.1461117
20
1.1604268
40
1.2905995
50
246.1054425
51
260.0435996
0
ARC
8
DEFAULT_255_2_778
10
9.0358797
20
0.886757
40
0.9957861
50
243.8150318
51
245.5261987
0
ARC
8
DEFAULT_255_2_778
10
9.257669
20
1.3749165
40
1.2486303
50
242.7197984
51
256.782349
0
ARC
8
DEFAULT_255_2_778
10
9.2957485
20
1.6617811
40
1.5368671
50
257.8457018
51
270.4630404
0
ARC
8
DEFAULT_255_2_778
10
9.3207012
20
1.0822377
40
0.9573554
50
269.2499326
51
282.9358552
0
ARC
8
DEFAULT_255_2_778
10
9.4231439
20
0.6400999
40
0.5035065
50
282.8373324
51
303.2167553
0
ARC
8
DEFAULT_255_2_778
10
9.5158616
20
0.4896678
40
0.3268987
50
304.0650688
51
2.8048289
0
ARC
8
DEFAULT_255_2_778
10
9.5459861
20
0.51928
40
0.2966951
50
357.3696999
51
51.995396
0
ARC
8
DEFAULT_255_2_778
10
9.3293699
20
0.2805771
40
0.6186143
50
49.7988593
51
64.8577178
0
ARC
8
DEFAULT_255_2_778
10
8.9444883
20
-0.5043631
40
1.4927839
50
64.285027
51
72.066569
0
ARC
8
DEFAULT_255_2_778
10
8.6843578
20
-1.2493496
40
2.2817443
50
71.6120164
51
72.4479353
0
ARC
8
DEFAULT_255_2_778
10
9.6996998
20
2.5209649
40
1.6198476
50
243.1753646
51
252.5617961
0
ARC
8
DEFAULT_255_2_778
10
9.3503196
20
1.8418721
40
0.8561858
50
227.401142
51
243.5324357
0
ARC
8
DEFAULT_255_2_778
10
9.1913029
20
1.6545981
40
0.6107763
50
224.9668108
51
226.4907277
0
ARC
8
DEFAULT_255_2_778
10
9.1441596
20
1.5920798
40
0.5333519
50
178.2073663
51
223.7939942
0
ARC
8
DEFAULT_255_2_778
10
9.2057454
20
1.6146374
40
0.5947057
50
154.2115112
51
180.5658485
0
ARC
8
DEFAULT_255_2_778
10
9.1870037
20
1.6153155
40
0.5775848
50
127.1038836
51
153.4632313
0
ARC
8
DEFAULT_255_2_778
10
9.2989838
20
1.4846322
40
0.7494369
50
106.1306624
51
127.9045677
0
ARC
8
DEFAULT_255_2_778
10
9.4056588
20
1.2291019
40
1.0250281
50
89.3510331
51
107.8906599
0
ARC
8
DEFAULT_255_2_778
10
9.4071602
20
0.1240647
40
2.1300235
50
80.4330874
51
89.72809
0
ARC
8
DEFAULT_255_2_778
10
9.5488056
20
0.9099568
40
1.331551
50
65.9023439
51
80.8229645
0
LINE
8
DEFAULT_255_2_778
10
9.4140687
20
1.2388643
11
9.5621687
21
1.1943643
0
LINE
8
DEFAULT_255_2_778
10
8.5964687
20
-0.0068357
11
8.6853687
21
0.2651643
0
LINE
8
DEFAULT_255_2_778
10
9.3724687
20
0.9261643
11
9.2142687
21
0.9755643
0
LINE
8
DEFAULT_255_2_778
10
10.0924687
20
2.1254643
11
10.0024687
21
1.8521643
0
ARC
8
DEFAULT_255_2_778
10
13.2163067
20
3.0554436
40
0.2384654
50
226.8954197
51
271.2852814
0
ARC
8
DEFAULT_255_2_778
10
13.2164533
20
3.0400837
40
0.2275983
50
177.5940398
51
224.2252591
0
ARC
8
DEFAULT_255_2_778
10
13.2164533
20
3.0591926
40
0.2275983
50
135.7747409
51
182.4059602
0
ARC
8
DEFAULT_255_2_778
10
13.2175719
20
3.0581415
40
0.229133
50
88.9787851
51
135.781485
0
ARC
8
DEFAULT_255_2_778
10
13.2219253
20
3.0611386
40
0.2260998
50
45.6933401
51
90.0683354
0
ARC
8
DEFAULT_255_2_778
10
13.2367341
20
3.0592664
40
0.2174217
50
357.5410243
51
48.8321718
0
ARC
8
DEFAULT_255_2_778
10
13.2235884
20
3.0417429
40
0.2305129
50
314.3255112
51
2.0374327
0
ARC
8
DEFAULT_255_2_778
10
13.225498
20
3.0610386
40
0.2434357
50
269.0249785
51
310.8285086
0
LINE
8
DEFAULT_255_2_778
10
12.5538556
20
3.0097382
11
12.5538556
21
2.7178382
0
LINE
8
DEFAULT_255_2_778
10
12.5538556
20
2.7178382
11
11.1295556
21
2.7178382
0
LINE
8
DEFAULT_255_2_778
10
11.1295556
20
2.7178382
11
11.1295556
21
1.5902382
0
LINE
8
DEFAULT_255_2_778
10
11.1295556
20
1.5902382
11
12.4450556
21
1.5902382
0
LINE
8
DEFAULT_255_2_778
10
12.4450556
20
1.5902382
11
12.4450556
21
1.3034382
0
LINE
8
DEFAULT_255_2_778
10
12.4450556
20
1.3034382
11
11.1295556
21
1.3034382
0
LINE
8
DEFAULT_255_2_778
10
11.1295556
20
1.3034382
11
11.1295556
21
-0.1060618
0
LINE
8
DEFAULT_255_2_778
10
11.1295556
20
-0.1060618
11
10.7734556
21
-0.1060618
0
LINE
8
DEFAULT_255_2_778
10
10.7734556
20
-0.1060618
11
10.7734556
21
3.0097382
0
LINE
8
DEFAULT_255_2_778
10
10.7734556
20
3.0097382
11
12.5538556
21
3.0097382
0
LINE
8
DEFAULT_255_2_778
10
13.0486556
20
-0.1057618
11
13.0486556
21
2.2185382
0
LINE
8
DEFAULT_255_2_778
10
13.0486556
20
2.2185382
11
13.3946556
21
2.2185382
0
LINE
8
DEFAULT_255_2_778
10
13.3946556
20
2.2185382
11
13.3946556
21
-0.1057618
0
LINE
8
DEFAULT_255_2_778
10
13.3946556
20
-0.1057618
11
13.0486556
21
-0.1057618
0
LINE
8
DEFAULT_255_2_778
10
13.2213556
20
2.8176382
11
13.2216556
21
2.8170382
0
ARC
8
DEFAULT_255_2_778
10
14.8345701
20
0.7088668
40
1.2752003
50
63.7099141
51
76.9562335
0
ARC
8
DEFAULT_255_2_778
10
14.8563448
20
0.7710755
40
1.2097034
50
77.2959558
51
90.2826661
0
ARC
8
DEFAULT_255_2_778
10
14.8382562
20
1.0899086
40
0.8909381
50
89.2205085
51
102.7111277
0
ARC
8
DEFAULT_255_2_778
10
14.7313289
20
1.5454247
40
0.4230776
50
102.1589974
51
127.346329
0
ARC
8
DEFAULT_255_2_778
10
14.6649308
20
1.6320401
40
0.3139407
50
127.3022046
51
181.3462527
0
ARC
8
DEFAULT_255_2_778
10
14.6410174
20
1.6112
40
0.2902531
50
177.3412163
51
227.5405504
0
ARC
8
DEFAULT_255_2_778
10
14.7858504
20
1.8451193
40
0.5629209
50
232.7447596
51
246.1727982
0
ARC
8
DEFAULT_255_2_778
10
15.1964807
20
2.7318041
40
1.5400166
50
245.5243506
51
251.9765064
0
ARC
8
DEFAULT_255_2_778
10
15.5838672
20
3.8665622
40
2.7390064
50
251.6151316
51
253.6096955
0
ARC
8
DEFAULT_255_2_778
10
14.533905
20
-0.2362433
40
1.4924507
50
62.8872813
51
73.4482256
0
ARC
8
DEFAULT_255_2_778
10
14.8294966
20
0.3319498
40
0.851992
50
45.7529795
51
63.1670273
0
ARC
8
DEFAULT_255_2_778
10
15.0418612
20
0.5526901
40
0.5456926
50
357.8702022
51
45.5537634
0
LINE
8
DEFAULT_255_2_778
10
15.5871767
20
0.5324102
11
15.5871768
21
0.5321643
0
ARC
8
DEFAULT_255_2_778
10
14.9679611
20
0.5180645
40
0.6193762
50
309.8658908
51
1.3044172
0
ARC
8
DEFAULT_255_2_778
10
14.8827366
20
0.6146638
40
0.7481571
50
283.2839128
51
310.1334982
0
ARC
8
DEFAULT_255_2_778
10
14.7511486
20
1.1232363
40
1.2734071
50
270.5562325
51
283.788265
0
ARC
8
DEFAULT_255_2_778
10
14.7301345
20
1.5645549
40
1.7149906
50
269.9947303
51
271.1151311
0
ARC
8
DEFAULT_255_2_778
10
14.7170211
20
1.8650725
40
2.0155499
50
259.4061242
51
270.3682908
0
ARC
8
DEFAULT_255_2_778
10
14.6564013
20
1.4823091
40
1.6282016
50
258.0718583
51
259.0266712
0
ARC
8
DEFAULT_255_2_778
10
14.5430198
20
1.1604268
40
1.2905995
50
246.1054425
51
260.0435996
0
ARC
8
DEFAULT_255_2_778
10
14.4327878
20
0.886757
40
0.9957861
50
243.8150318
51
245.5261987
0
ARC
8
DEFAULT_255_2_778
10
14.6545771
20
1.3749165
40
1.2486303
50
242.7197984
51
256.782349
0
ARC
8
DEFAULT_255_2_778
10
14.6926566
20
1.6617811
40
1.5368671
50
257.8457018
51
270.4630404
0
ARC
8
DEFAULT_255_2_778
10
14.7176093
20
1.0822377
40
0.9573554
50
269.2499326
51
282.9358552
0
ARC
8
DEFAULT_255_2_778
10
14.8200519
20
0.6400999
40
0.5035065
50
282.8373324
51
303.2167553
0
ARC
8
DEFAULT_255_2_778
10
14.9127697
20
0.4896678
40
0.3268987
50
304.0650688
51
2.8048289
0
ARC
8
DEFAULT_255_2_778
10
14.9429961
20
0.519253
40
0.2965921
50
357.3739966
51
52.0293347
0
ARC
8
DEFAULT_255_2_778
10
14.73226
20
0.2894045
40
0.6079472
50
49.6996685
51
64.4424779
0
ARC
8
DEFAULT_255_2_778
10
14.3581416
20
-0.4629643
40
1.4481574
50
63.9310102
51
71.8215256
0
ARC
8
DEFAULT_255_2_778
10
14.0924368
20
-1.2146774
40
2.2453175
50
71.3641048
51
72.4529049
0
ARC
8
DEFAULT_255_2_778
10
15.0966078
20
2.5209649
40
1.6198476
50
243.1753646
51
252.5617961
0
ARC
8
DEFAULT_255_2_778
10
14.7472277
20
1.8418721
40
0.8561858
50
227.401142
51
243.5324357
0
ARC
8
DEFAULT_255_2_778
10
14.588211
20
1.6545981
40
0.6107763
50
224.9668108
51
226.4907277
0
ARC
8
DEFAULT_255_2_778
10
14.5410677
20
1.5920798
40
0.5333519
50
178.2073663
51
223.7939942
0
ARC
8
DEFAULT_255_2_778
10
14.6026534
20
1.6146374
40
0.5947057
50
154.2115112
51
180.5658485
0
ARC
8
DEFAULT_255_2_778
10
14.5839118
20
1.6153155
40
0.5775848
50
127.1038836
51
153.4632313
0
ARC
8
DEFAULT_255_2_778
10
14.6958919
20
1.4846322
40
0.7494369
50
106.1306624
51
127.9045677
0
ARC
8
DEFAULT_255_2_778
10
14.8025125
20
1.2294371
40
1.0246924
50
89.3533717
51
107.8935243
0
ARC
8
DEFAULT_255_2_778
10
14.8040231
20
0.1235059
40
2.1305821
50
80.4343875
51
89.729636
0
ARC
8
DEFAULT_255_2_778
10
14.9457137
20
0.9099568
40
1.331551
50
65.9023439
51
80.8229645
0
LINE
8
DEFAULT_255_2_778
10
14.8109768
20
1.2388643
11
14.9590768
21
1.1943643
0
LINE
8
DEFAULT_255_2_778
10
13.9933768
20
-0.0068357
11
14.0822768
21
0.2651643
0
LINE
8
DEFAULT_255_2_778
10
14.7693768
20
0.9261643
11
14.6111768
21
0.9755643
0
LINE
8
DEFAULT_255_2_778
10
15.4893768
20
2.1254643
11
15.3993768
21
1.8521643
0
ARC
8
DEFAULT_255_2_778
10
17.5134216
20
0.7435876
40
1.5550147
50
115.3350755
51
131.3096126
0
ARC
8
DEFAULT_255_2_778
10
17.2725208
20
1.2880261
40
0.9599767
50
89.3558443
51
116.2447231
0
ARC
8
DEFAULT_255_2_778
10
17.296286
20
1.3135944
40
0.9344378
50
73.6592813
51
90.7954594
0
ARC
8
DEFAULT_255_2_778
10
17.3591683
20
1.5603162
40
0.6800508
50
67.5090424
51
72.8948662
0
ARC
8
DEFAULT_255_2_778
10
17.4276096
20
1.6561506
40
0.5659483
50
41.4031263
51
70.2004823
0
ARC
8
DEFAULT_255_2_778
10
17.408763
20
1.6128585
40
0.6090448
50
17.2181417
51
43.2857248
0
ARC
8
DEFAULT_255_2_778
10
17.1909839
20
1.507266
40
0.849101
50
359.2561113
51
19.6747919
0
ARC
8
DEFAULT_255_2_778
10
16.7434791
20
1.4143329
40
0.9532134
50
359.2612043
51
12.3743761
0
ARC
8
DEFAULT_255_2_778
10
17.2412767
20
1.5305849
40
0.4421213
50
11.4835325
51
39.5825203
0
ARC
8
DEFAULT_255_2_778
10
17.3395723
20
1.6002666
40
0.3220874
50
41.1710195
51
46.0987518
0
ARC
8
DEFAULT_255_2_778
10
17.2493068
20
1.5186025
40
0.4436007
50
45.0121641
51
84.8752212
0
ARC
8
DEFAULT_255_2_778
10
17.1990609
20
1.230945
40
0.7349999
50
82.9767055
51
90.1596209
0
ARC
8
DEFAULT_255_2_778
10
17.2086002
20
1.166779
40
0.7992472
50
90.8306589
51
115.5599095
0
ARC
8
DEFAULT_255_2_778
10
17.3094793
20
0.9121893
40
1.0726113
50
114.5536222
51
115.9028168
0
ARC
8
DEFAULT_255_2_778
10
17.5218099
20
0.5425302
40
1.4981797
50
117.0316488
51
131.2845317
0
ARC
8
DEFAULT_255_2_778
10
17.8020129
20
0.1978833
40
1.9421128
50
130.7876802
51
132.5050977
0
LINE
8
DEFAULT_255_2_778
10
16.4895133
20
-0.1057579
11
16.1408133
21
-0.1057579
0
LINE
8
DEFAULT_255_2_778
10
16.1408133
20
-0.1057579
11
16.1408133
21
3.4052421
0
LINE
8
DEFAULT_255_2_778
10
16.1408133
20
3.4052421
11
16.4869133
21
3.4052421
0
LINE
8
DEFAULT_255_2_778
10
16.4869133
20
3.4052421
11
16.4869133
21
1.9116421
0
LINE
8
DEFAULT_255_2_778
10
18.0400133
20
1.4962421
11
18.0400133
21
-0.1060579
0
LINE
8
DEFAULT_255_2_778
10
18.0400133
20
-0.1060579
11
17.6966133
21
-0.1060579
0
LINE
8
DEFAULT_255_2_778
10
17.6966133
20
-0.1060579
11
17.6966133
21
1.4020421
0
LINE
8
DEFAULT_255_2_778
10
16.4898133
20
1.6296421
11
16.4895133
21
-0.1057579
0
ENDSEC
0
EOF