0
SECTION
2
HEADER
9
$MEASUREMENT
70
1
0
ENDSEC
0
SECTION
2
TABLES
0
TABLE
2
LTYPE
0
LTYPE
72
65
70
64
2
CONTINUOUS
3
______
73
0
40
0
0
ENDTAB
0
TABLE
2
LAYER
0
LAYER
2
DEFAULT_255_2_778
70
0
62
255
6
CONTINUOUS
0
ENDTAB
0
ENDSEC
0
SECTION
2
ENTITIES
0
ARC
8
DEFAULT_255_2_778
10
4.0007675
20
6.1010872
40
0.4392889
50
93.2861053
51
152.8485914
0
ARC
8
DEFAULT_255_2_778
10
3.3581018
20
6.4478951
40
0.291224
50
287.0001465
51
329.8341735
0
ARC
8
DEFAULT_255_2_778
10
3.3274769
20
6.517908
40
0.3672374
50
285.0719858
51
288.3758588
0
ARC
8
DEFAULT_255_2_778
10
3.3244613
20
6.5288476
40
0.3785848
50
270.1457122
51
285.0821489
0
ARC
8
DEFAULT_255_2_778
10
3.3233504
20
6.4404712
40
0.2902146
50
258.0116613
51
270.409416
0
ARC
8
DEFAULT_255_2_778
10
3.3043668
20
6.3438255
40
0.1917396
50
252.2105741
51
257.5619172
0
ARC
8
DEFAULT_255_2_778
10
2.987977
20
5.4259223
40
0.7792164
50
70.6791655
51
87.2026255
0
ARC
8
DEFAULT_255_2_778
10
3.0101765
20
5.6572379
40
0.5472015
50
88.3423234
51
89.9945797
0
ARC
8
DEFAULT_255_2_778
10
3.0072354
20
5.7289512
40
0.4754975
50
89.6393658
51
111.8108498
0
ARC
8
DEFAULT_255_2_778
10
3.0082359
20
5.7300467
40
0.4748539
50
111.9720442
51
116.5783313
0
ARC
8
DEFAULT_255_2_778
10
3.025713
20
5.6966101
40
0.5125771
50
116.6532146
51
125.5855649
0
ARC
8
DEFAULT_255_2_778
10
3.0495477
20
5.6615876
40
0.5549299
50
125.4826539
51
126.3814308
0
ARC
8
DEFAULT_255_2_778
10
2.5049614
20
6.4001066
40
0.3626675
50
299.8311291
51
306.4415227
0
ARC
8
DEFAULT_255_2_778
10
2.5392089
20
6.3369445
40
0.2908436
50
283.4098996
51
300.1680237
0
ARC
8
DEFAULT_255_2_778
10
2.5543148
20
6.2774916
40
0.22951
50
270.1889052
51
283.1837258
0
ARC
8
DEFAULT_255_2_778
10
2.5525851
20
6.2297375
40
0.1817716
50
189.4169088
51
270.7837545
0
ARC
8
DEFAULT_255_2_778
10
2.6517877
20
6.260078
40
0.2849312
50
179.723963
51
192.1729449
0
ARC
8
DEFAULT_255_2_778
10
2.7260456
20
6.260715
40
0.3591865
50
172.5948642
51
179.8826313
0
ARC
8
DEFAULT_255_2_778
10
2.7706203
20
6.2557068
40
0.4040356
50
171.4388114
51
172.7052797
0
ARC
8
DEFAULT_255_2_778
10
3.1353488
20
6.2579254
40
0.7664544
50
128.5539593
51
175.6654663
0
ARC
8
DEFAULT_255_2_778
10
3.0736763
20
6.2878315
40
0.7052509
50
119.7623943
51
126.1492917
0
ARC
8
DEFAULT_255_2_778
10
2.1608226
20
7.8927335
40
1.1411031
50
299.549508
51
305.6436134
0
ARC
8
DEFAULT_255_2_778
10
2.4271583
20
7.5240127
40
0.6862563
50
305.5124775
51
314.7512674
0
ARC
8
DEFAULT_255_2_778
10
2.6143167
20
7.3367063
40
0.421473
50
314.6092265
51
329.1339644
0
ARC
8
DEFAULT_255_2_778
10
2.6617013
20
7.3020417
40
0.3630562
50
329.9933366
51
354.0943266
0
ARC
8
DEFAULT_255_2_778
10
2.3869261
20
7.3432138
40
0.6407348
50
352.9602276
51
354.7888655
0
ARC
8
DEFAULT_255_2_778
10
1.5626782
20
7.4092693
40
1.4676034
50
355.1433857
51
357.5543672
0
ARC
8
DEFAULT_255_2_778
10
3.6281348
20
7.3449944
40
0.5991921
50
162.5488343
51
179.8422091
0
ARC
8
DEFAULT_255_2_778
10
3.430431
20
7.3911179
40
0.3970505
50
144.6131477
51
160.3419804
0
ARC
8
DEFAULT_255_2_778
10
3.5332723
20
7.3196287
40
0.5222935
50
136.6959656
51
144.7527287
0
ARC
8
DEFAULT_255_2_778
10
1.8993244
20
8.8586378
40
1.7223302
50
316.7192719
51
320.3025408
0
ARC
8
DEFAULT_255_2_778
10
2.5017303
20
8.3611908
40
0.9410882
50
320.1791078
51
326.5163935
0
ARC
8
DEFAULT_255_2_778
10
2.838953
20
8.1401014
40
0.5378578
50
326.3409479
51
338.3085838
0
ARC
8
DEFAULT_255_2_778
10
2.9235052
20
8.1031388
40
0.445642
50
338.7063941
51
341.1495289
0
ARC
8
DEFAULT_255_2_778
10
2.8344883
20
8.1253943
40
0.5371303
50
341.9708617
51
359.2443718
0
ARC
8
DEFAULT_255_2_778
10
2.1898989
20
8.1580365
40
1.1823405
50
358.0745419
51
0.0732445
0
ARC
8
DEFAULT_255_2_778
10
0.9920561
20
8.1532332
40
2.3801907
50
0.1520089
51
1.8151859
0
ARC
8
DEFAULT_255_2_778
10
-11.0426008
20
7.7820884
40
14.4205687
50
1.7744715
51
2.0727762
0
ARC
8
DEFAULT_255_2_778
10
21.8439896
20
8.9424828
40
18.486498
50
181.972324
51
181.9803047
0
ARC
8
DEFAULT_255_2_778
10
11.6663937
20
8.5984068
40
8.3030923
50
181.5443062
51
182.01654
0
ARC
8
DEFAULT_255_2_778
10
8.2259786
20
8.5043689
40
4.8613927
50
180.6940682
51
181.5291654
0
ARC
8
DEFAULT_255_2_778
10
7.5099092
20
8.4944727
40
4.1452563
50
180.6084413
51
180.6771869
0
ARC
8
DEFAULT_255_2_778
10
4.1626385
20
13.9029772
40
5.5105734
50
257.5693832
51
261.6761854
0
ARC
8
DEFAULT_255_2_778
10
3.7065723
20
11.8607559
40
3.4180604
50
250.2889084
51
257.6661366
0
ARC
8
DEFAULT_255_2_778
10
3.3852813
20
10.9627795
40
2.4643365
50
227.3428273
51
250.2795566
0
ARC
8
DEFAULT_255_2_778
10
3.9443439
20
11.607313
40
3.3172655
50
223.9314325
51
227.7849236
0
ARC
8
DEFAULT_255_2_778
10
4.3998443
20
12.0501147
40
3.952519
50
221.9544336
51
223.9730062
0
ARC
8
DEFAULT_255_2_778
10
4.8852719
20
12.4863204
40
4.605141
50
220.0694478
51
221.952799
0
ARC
8
DEFAULT_255_2_778
10
5.3945078
20
12.9166797
40
5.2718704
50
219.0619847
51
220.0861376
0
ARC
8
DEFAULT_255_2_778
10
5.7450906
20
13.2077403
40
5.7275027
50
216.6189597
51
219.1127506
0
ARC
8
DEFAULT_255_2_778
10
4.8511006
20
12.5442288
40
4.6141903
50
213.419139
51
216.6277615
0
ARC
8
DEFAULT_255_2_778
10
4.2136925
20
12.1231642
40
3.8502633
50
209.7619684
51
213.4133536
0
ARC
8
DEFAULT_255_2_778
10
3.6936839
20
11.830208
40
3.2534258
50
190.0442082
51
209.8291946
0
ARC
8
DEFAULT_255_2_778
10
5.1819795
20
12.1210483
40
4.7697113
50
185.2414665
51
190.3662879
0
ARC
8
DEFAULT_255_2_778
10
6.7846944
20
12.2832136
40
6.3805565
50
183.7756601
51
185.3768261
0
ARC
8
DEFAULT_255_2_778
10
12.4877659
20
12.6691976
40
12.0966706
50
183.1156126
51
183.8211252
0
ARC
8
DEFAULT_255_2_778
10
9.396866
20
12.5043368
40
9.0013797
50
181.7793839
51
183.137102
0
ARC
8
DEFAULT_255_2_778
10
7.0662598
20
12.4321431
40
6.6696558
50
180.0398909
51
181.7811801
0
ARC
8
DEFAULT_255_2_778
10
5.24373
20
12.4367907
40
4.8471333
50
176.3359621
51
180.1098272
0
ARC
8
DEFAULT_255_2_778
10
3.7482961
20
12.5455288
40
3.3478322
50
165.210322
51
176.5575709
0
ARC
8
DEFAULT_255_2_778
10
3.6478178
20
12.5584676
40
3.2474064
50
159.0201995
51
164.9785006
0
ARC
8
DEFAULT_255_2_778
10
4.1555171
20
12.3637961
40
3.7911487
50
154.7793283
51
159.0203493
0
ARC
8
DEFAULT_255_2_778
10
4.8205093
20
12.0537676
40
4.5248553
50
152.3994472
51
154.8158279
0
ARC
8
DEFAULT_255_2_778
10
4.775014
20
12.0948872
40
4.4655129
50
147.4154016
51
152.5965529
0
ARC
8
DEFAULT_255_2_778
10
3.644934
20
12.8218136
40
3.121831
50
138.5377697
51
147.4871255
0
ARC
8
DEFAULT_255_2_778
10
3.5395672
20
12.8772152
40
3.0063197
50
121.6549705
51
137.9993862
0
ARC
8
DEFAULT_255_2_778
10
4.7689116
20
10.98009
40
5.2666066
50
118.1618193
51
122.2079688
0
ARC
8
DEFAULT_255_2_778
10
5.7421391
20
9.2042996
40
7.2915306
50
117.6808265
51
118.3182456
0
ARC
8
DEFAULT_255_2_778
10
5.8612042
20
8.9795328
40
7.5458839
50
117.5994812
51
117.6885985
0
ARC
8
DEFAULT_255_2_778
10
4.2043415
20
12.1540889
40
3.9649638
50
108.758815
51
117.6342952
0
ARC
8
DEFAULT_255_2_778
10
4.2269222
20
12.0692098
40
4.0526002
50
98.6800101
51
108.6751938
0
ARC
8
DEFAULT_255_2_778
10
4.3469028
20
11.2161392
40
4.9140176
50
89.7667118
51
98.5618331
0
ARC
8
DEFAULT_255_2_778
10
4.3663139
20
10.038052
40
6.0920641
50
88.9816428
51
89.9943851
0
ARC
8
DEFAULT_255_2_778
10
4.3105403
20
5.4992256
40
10.6311939
50
87.2281243
51
89.1158533
0
ARC
8
DEFAULT_255_2_778
10
4.5933877
20
11.130945
40
4.9923956
50
83.0531128
51
87.3448351
0
ARC
8
DEFAULT_255_2_778
10
4.8935128
20
13.5337273
40
2.5709634
50
74.5179924
51
83.215958
0
ARC
8
DEFAULT_255_2_778
10
5.1315596
20
14.4027272
40
1.6699544
50
60.5747905
51
74.4302274
0
ARC
8
DEFAULT_255_2_778
10
2.7999524
20
10.3467134
40
6.3483365
50
58.3008524
51
60.2304034
0
ARC
8
DEFAULT_255_2_778
10
0.5188347
20
6.6052399
40
10.7303162
50
58.3914138
51
58.4352653
0
ARC
8
DEFAULT_255_2_778
10
-0.0426718
20
5.6920734
40
11.8023062
50
58.3538335
51
58.3933403
0
ARC
8
DEFAULT_255_2_778
10
16.7175794
20
32.5658219
40
19.8697821
50
237.8688915
51
238.909748
0
ARC
8
DEFAULT_255_2_778
10
7.5936156
20
17.4345408
40
2.2005325
50
238.9031079
51
244.9718365
0
ARC
8
DEFAULT_255_2_778
10
6.9637776
20
16.0717819
40
0.6992994
50
244.4935387
51
258.6753525
0
ARC
8
DEFAULT_255_2_778
10
6.8845407
20
15.7092618
40
0.3283423
50
259.8108649
51
269.6582935
0
ARC
8
DEFAULT_255_2_778
10
6.8825754
20
15.6483907
40
0.2674654
50
270.0015321
51
270.837888
0
ARC
8
DEFAULT_255_2_778
10
6.8804782
20
16.4705042
40
1.0895669
50
270.3159594
51
282.2067809
0
ARC
8
DEFAULT_255_2_778
10
6.9748737
20
16.0468049
40
0.6554936
50
281.973041
51
302.2459402
0
ARC
8
DEFAULT_255_2_778
10
7.0246801
20
15.9569775
40
0.5529767
50
302.8472493
51
307.2751345
0
ARC
8
DEFAULT_255_2_778
10
6.2194999
20
15.4713275
40
1.1409993
50
0.592563
51
2.2917575
0
ARC
8
DEFAULT_255_2_778
10
6.2792456
20
15.4720841
40
1.081249
50
359.9993791
51
0.5852125
0
ARC
8
DEFAULT_255_2_778
10
6.5251441
20
15.4630041
40
0.8353998
50
344.979378
51
0.6219577
0
ARC
8
DEFAULT_255_2_778
10
6.7841052
20
15.3924103
40
0.566992
50
312.4651527
51
345.0872797
0
ARC
8
DEFAULT_255_2_778
10
6.6287822
20
15.6024225
40
0.8272281
50
283.4689055
51
310.5803203
0
ARC
8
DEFAULT_255_2_778
10
6.2557441
20
17.0879287
40
2.3588246
50
271.6769396
51
283.8764363
0
ARC
8
DEFAULT_255_2_778
10
5.9972788
20
21.5601528
40
6.8378854
50
271.3810865
51
272.7451758
0
ARC
8
DEFAULT_255_2_778
10
6.1090798
20
16.7965966
40
2.0730206
50
269.9997408
51
271.4652057
0
ARC
8
DEFAULT_255_2_778
10
6.1115816
20
16.9108676
40
2.187293
50
263.7876721
51
269.9342184
0
ARC
8
DEFAULT_255_2_778
10
6.2493355
20
18.0552681
40
3.3399058
50
258.7222003
51
263.5628454
0
ARC
8
DEFAULT_255_2_778
10
7.6422255
20
25.3376535
40
10.7542317
50
258.5113051
51
259.0322455
0
ARC
8
DEFAULT_255_2_778
10
3.260133
20
3.9091839
40
11.1177299
50
78.3758356
51
79.2503228
0
ARC
8
DEFAULT_255_2_778
10
4.8967545
20
12.6520851
40
2.2231109
50
78.6623938
51
87.922845
0
ARC
8
DEFAULT_255_2_778
10
4.938739
20
13.3075102
40
1.5667003
50
88.5884821
51
89.9960436
0
ARC
8
DEFAULT_255_2_778
10
4.9381313
20
13.3853246
40
1.4888859
50
89.9724499
51
95.6284434
0
ARC
8
DEFAULT_255_2_778
10
4.9387669
20
13.3846518
40
1.489618
50
95.6502341
51
99.4735728
0
ARC
8
DEFAULT_255_2_778
10
5.4181559
20
10.4976235
40
4.4161764
50
99.4433072
51
101.8621509
0
ARC
8
DEFAULT_255_2_778
10
5.326028
20
10.9322831
40
3.9718615
50
101.8504249
51
105.219294
0
ARC
8
DEFAULT_255_2_778
10
5.1854111
20
11.4417287
40
3.4433697
50
105.1868715
51
110.2488005
0
ARC
8
DEFAULT_255_2_778
10
5.0521183
20
11.812401
40
3.0494748
50
110.3095568
51
112.6457321
0
ARC
8
DEFAULT_255_2_778
10
4.8217245
20
12.3275907
40
2.4853365
50
112.3168351
51
125.3899617
0
ARC
8
DEFAULT_255_2_778
10
4.4679563
20
12.8283878
40
1.8721921
50
125.4398039
51
142.6230103
0
ARC
8
DEFAULT_255_2_778
10
4.341161
20
12.9350737
40
1.7066867
50
142.885096
51
150.0295791
0
ARC
8
DEFAULT_255_2_778
10
9.2092601
20
10.1195649
40
7.330339
50
149.9736481
51
151.6431572
0
ARC
8
DEFAULT_255_2_778
10
6.9475462
20
11.3390644
40
4.7608007
50
151.6304064
51
153.9212539
0
ARC
8
DEFAULT_255_2_778
10
5.466934
20
12.0606353
40
3.1137228
50
153.8701402
51
157.6053487
0
ARC
8
DEFAULT_255_2_778
10
4.5020375
20
12.4557925
40
2.07105
50
157.542961
51
163.7303396
0
ARC
8
DEFAULT_255_2_778
10
4.098909
20
12.5766369
40
1.6502124
50
163.836765
51
170.9618773
0
ARC
8
DEFAULT_255_2_778
10
4.3337742
20
12.5466091
40
1.8868925
50
171.1817338
51
178.5045119
0
ARC
8
DEFAULT_255_2_778
10
5.1897745
20
12.5134578
40
2.7434877
50
178.2789616
51
180.0375426
0
ARC
8
DEFAULT_255_2_778
10
6.4940851
20
12.5181711
40
4.0478029
50
180.0921611
51
182.0707119
0
ARC
8
DEFAULT_255_2_778
10
9.3947082
20
12.6162128
40
6.9500779
50
182.0144051
51
182.8075446
0
ARC
8
DEFAULT_255_2_778
10
15.1471661
20
12.8974987
40
12.7094089
50
182.8038725
51
183.26496
0
ARC
8
DEFAULT_255_2_778
10
3.6474214
20
12.2461488
40
1.1912427
50
183.488983
51
205.8026952
0
ARC
8
DEFAULT_255_2_778
10
3.79195
20
12.3116752
40
1.3498892
50
205.6364747
51
222.629371
0
ARC
8
DEFAULT_255_2_778
10
3.712473
20
12.2326215
40
1.2378822
50
222.4285981
51
234.570908
0
ARC
8
DEFAULT_255_2_778
10
3.5382924
20
11.989489
40
0.9387984
50
234.6310529
51
243.3514197
0
ARC
8
DEFAULT_255_2_778
10
3.4104741
20
11.7319901
40
0.6513251
50
243.2412876
51
253.7777621
0
ARC
8
DEFAULT_255_2_778
10
3.3415001
20
11.4895517
40
0.3992734
50
253.5624217
51
268.2413597
0
ARC
8
DEFAULT_255_2_778
10
3.3356423
20
11.438822
40
0.3484142
50
268.9481917
51
269.0698953
0
ARC
8
DEFAULT_255_2_778
10
3.3530595
20
12.5575455
40
1.4672732
50
269.098988
51
269.9904513
0
ARC
8
DEFAULT_255_2_778
10
3.3591013
20
12.0809725
40
0.9907201
50
269.636443
51
276.7177108
0
ARC
8
DEFAULT_255_2_778
10
3.4088505
20
11.6713256
40
0.5780679
50
276.5702151
51
291.51037
0
ARC
8
DEFAULT_255_2_778
10
3.3873794
20
11.7155933
40
0.6271364
50
291.8524299
51
298.1504331
0
ARC
8
DEFAULT_255_2_778
10
3.0316087
20
12.3524173
40
1.3565447
50
298.7097096
51
304.4671477
0
ARC
8
DEFAULT_255_2_778
10
1.4240118
20
14.7865494
40
4.2734783
50
303.7676361
51
303.8211448
0
ARC
8
DEFAULT_255_2_778
10
0.9871763
20
15.4379387
40
5.0577824
50
303.8251002
51
303.86952
0
ARC
8
DEFAULT_255_2_778
10
1.2016545
20
15.1184852
40
4.6730079
50
303.8688988
51
303.9240297
0
ARC
8
DEFAULT_255_2_778
10
0.6463531
20
15.9447528
40
5.6685367
50
303.920419
51
303.9649292
0
ARC
8
DEFAULT_255_2_778
10
0.0179263
20
16.8777579
40
6.793445
50
303.9644918
51
304.0008605
0
ARC
8
DEFAULT_255_2_778
10
57.9622396
20
-68.6899102
40
96.5476009
50
124.0635638
51
124.1122077
0
ARC
8
DEFAULT_255_2_778
10
6.7289485
20
7.0792159
40
5.0827967
50
122.9700629
51
124.0264224
0
ARC
8
DEFAULT_255_2_778
10
3.6957867
20
11.7405513
40
0.4785696
50
303.9259884
51
311.147585
0
ARC
8
DEFAULT_255_2_778
10
3.006615
20
12.5449961
40
1.5378408
50
310.7613269
51
314.1323131
0
ARC
8
DEFAULT_255_2_778
10
1.5280894
20
14.079833
40
3.6689763
50
314.0144654
51
315.8511872
0
ARC
8
DEFAULT_255_2_778
10
-0.8816695
20
16.4288308
40
7.0341958
50
315.7939412
51
316.7848225
0
ARC
8
DEFAULT_255_2_778
10
-5.0297473
20
20.324827
40
12.7250074
50
316.7893394
51
317.6111578
0
ARC
8
DEFAULT_255_2_778
10
-13.4501904
20
28.0161675
40
24.1294179
50
317.6016419
51
318.1284072
0
ARC
8
DEFAULT_255_2_778
10
-36.3348722
20
48.5229051
40
54.857824
50
318.133106
51
318.4664017
0
ARC
8
DEFAULT_255_2_778
10
-1651.0562577
20
1478.3986063
40
2211.6771655
50
318.4741201
51
318.4854151
0
ARC
8
DEFAULT_255_2_778
10
89.452734
20
-62.3531116
40
112.8200908
50
138.4252571
51
138.4514136
0
ARC
8
DEFAULT_255_2_778
10
45.0918565
20
-22.9549571
40
53.4896656
50
138.0010406
51
138.4634646
0
ARC
8
DEFAULT_255_2_778
10
23.5235809
20
-3.5399939
40
24.4701671
50
137.2790933
51
137.9932276
0
ARC
8
DEFAULT_255_2_778
10
15.8570698
20
3.537507
40
14.0362606
50
136.4155771
51
137.272696
0
ARC
8
DEFAULT_255_2_778
10
11.7752869
20
7.4248904
40
8.3995331
50
135.2190784
51
136.4277797
0
ARC
8
DEFAULT_255_2_778
10
9.1761495
20
10.0074479
40
4.7355041
50
133.448398
51
135.2467387
0
ARC
8
DEFAULT_255_2_778
10
7.5843023
20
11.6912438
40
2.4183643
50
130.7226598
51
133.5023361
0
ARC
8
DEFAULT_255_2_778
10
6.9215583
20
12.4554583
40
1.4068162
50
129.0909052
51
130.5717278
0
ARC
8
DEFAULT_255_2_778
10
7.6334161
20
11.578515
40
2.5363166
50
125.6324112
51
129.080672
0
ARC
8
DEFAULT_255_2_778
10
7.5257461
20
11.7273857
40
2.3525921
50
123.4630132
51
125.6133785
0
ARC
8
DEFAULT_255_2_778
10
7.3829774
20
11.9542192
40
2.0846441
50
111.5360297
51
123.6271507
0
ARC
8
DEFAULT_255_2_778
10
7.4253648
20
11.7616098
40
2.2795812
50
89.6727038
51
110.749904
0
ARC
8
DEFAULT_255_2_778
10
7.6217721
20
-1.194579
40
15.2368364
50
90.4181759
51
90.6896093
0
ARC
8
DEFAULT_255_2_778
10
7.5800372
20
4.5682314
40
9.4738748
50
90.0147857
51
90.4201478
0
ARC
8
DEFAULT_255_2_778
10
7.5863537
20
9.0141789
40
5.0279347
50
88.5109739
51
90.0998395
0
ARC
8
DEFAULT_255_2_778
10
7.659822
20
11.671773
40
2.3693329
50
84.8677951
51
88.6170019
0
ARC
8
DEFAULT_255_2_778
10
7.7447947
20
12.6197026
40
1.4176024
50
77.7594287
51
84.8611608
0
ARC
8
DEFAULT_255_2_778
10
7.7018615
20
12.4627824
40
1.5800815
50
71.0492178
51
77.4444095
0
ARC
8
DEFAULT_255_2_778
10
7.3187785
20
11.3213916
40
2.7840276
50
68.8757121
51
71.2211502
0
ARC
8
DEFAULT_255_2_778
10
6.3844004
20
8.8991017
40
5.3802845
50
67.4949216
51
68.8904697
0
ARC
8
DEFAULT_255_2_778
10
7.7572044
20
12.2402872
40
1.768115
50
55.1949554
51
67.1504227
0
ARC
8
DEFAULT_255_2_778
10
6.4620668
20
10.363143
40
4.0486903
50
51.4381834
51
55.3083287
0
ARC
8
DEFAULT_255_2_778
10
40.309099
20
53.2460049
40
50.5825011
50
231.7385671
51
231.9015893
0
ARC
8
DEFAULT_255_2_778
10
10.6944308
20
15.414534
40
2.5385507
50
231.0614383
51
239.357597
0
ARC
8
DEFAULT_255_2_778
10
8.720767
20
14.3108641
40
1.2764957
50
302.1790733
51
315.9966637
0
ARC
8
DEFAULT_255_2_778
10
62.6346409
20
-41.8028833
40
76.5412376
50
133.8140012
51
133.8188751
0
ARC
8
DEFAULT_255_2_778
10
10.8359211
20
12.23741
40
1.6853566
50
127.3567745
51
135.026284
0
ARC
8
DEFAULT_255_2_778
10
13.1883653
20
8.9938504
40
5.6918283
50
124.4391422
51
126.3679934
0
ARC
8
DEFAULT_255_2_778
10
11.817052
20
10.998357
40
3.2631385
50
121.1038864
51
124.4856738
0
ARC
8
DEFAULT_255_2_778
10
11.1628635
20
12.0880394
40
1.9921713
50
115.1115447
51
121.1839401
0
ARC
8
DEFAULT_255_2_778
10
10.9681685
20
12.4909289
40
1.5447457
50
112.2487363
51
114.9144406
0
ARC
8
DEFAULT_255_2_778
10
10.9014441
20
12.6564068
40
1.3663242
50
94.6422569
51
112.286392
0
ARC
8
DEFAULT_255_2_778
10
10.953367
20
12.1211035
40
1.9040923
50
89.8637574
51
94.8958707
0
ARC
8
DEFAULT_255_2_778
10
10.9557278
20
11.4812688
40
2.5439227
50
87.5356365
51
89.9511967
0
ARC
8
DEFAULT_255_2_778
10
10.9224782
20
10.7107951
40
3.3151135
50
85.4648853
51
87.5340802
0
ARC
8
DEFAULT_255_2_778
10
10.8534657
20
9.8106011
40
4.2179466
50
84.4611242
51
85.497242
0
ARC
8
DEFAULT_255_2_778
10
10.9584462
20
11.8175222
40
2.212063
50
50.661095
51
82.1495655
0
ARC
8
DEFAULT_255_2_778
10
8.6705811
20
9.4144595
40
5.5263917
50
37.0974099
51
48.1083392
0
ARC
8
DEFAULT_255_2_778
10
1.9369424
20
4.0992626
40
14.1043172
50
36.0374627
51
37.8201858
0
ARC
8
DEFAULT_255_2_778
10
-52.4896058
20
-35.5788158
40
81.4585918
50
35.866395
51
36.0832368
0
ARC
8
DEFAULT_255_2_778
10
38.898745
20
30.5455755
40
31.3433159
50
215.9432957
51
216.1211659
0
ARC
8
DEFAULT_255_2_778
10
27.8887714
20
22.431827
40
17.6668681
50
215.9144551
51
216.5278416
0
ARC
8
DEFAULT_255_2_778
10
19.5180403
20
16.2474564
40
7.2594101
50
216.6289473
51
217.1383329
0
ARC
8
DEFAULT_255_2_778
10
15.6325039
20
13.193006
40
2.3195507
50
214.9372104
51
234.7934164
0
ARC
8
DEFAULT_255_2_778
10
14.8799638
20
12.1984417
40
1.0738561
50
237.0077845
51
252.7201547
0
ARC
8
DEFAULT_255_2_778
10
14.7063036
20
11.643851
40
0.4927139
50
252.846552
51
262.3723275
0
ARC
8
DEFAULT_255_2_778
10
14.7014684
20
11.6111367
40
0.4596475
50
262.4284435
51
269.9826746
0
ARC
8
DEFAULT_255_2_778
10
14.6783983
20
11.7197392
40
0.5687126
50
272.3108499
51
316.0275328
0
ARC
8
DEFAULT_255_2_778
10
14.2618007
20
12.1710332
40
1.1824
50
314.305325
51
334.5291853
0
ARC
8
DEFAULT_255_2_778
10
14.1719384
20
12.2291532
40
1.288597
50
333.9144374
51
340.6220647
0
ARC
8
DEFAULT_255_2_778
10
14.4187802
20
12.1434549
40
1.0273049
50
340.5630563
51
346.9764466
0
ARC
8
DEFAULT_255_2_778
10
14.6775741
20
12.0821725
40
0.761359
50
347.0807833
51
351.158759
0
ARC
8
DEFAULT_255_2_778
10
22.7174424
20
10.829792
40
7.3754671
50
170.30002
51
171.1448134
0
ARC
8
DEFAULT_255_2_778
10
-2.132952
20
15.0696471
40
17.8340252
50
350.3250112
51
350.6112613
0
ARC
8
DEFAULT_255_2_778
10
13.1294324
20
12.5749823
40
2.369304
50
349.921144
51
357.6573835
0
ARC
8
DEFAULT_255_2_778
10
13.7705262
20
12.5318444
40
1.7270653
50
358.2179592
51
359.8609767
0
ARC
8
DEFAULT_255_2_778
10
12.8787962
20
12.5563118
40
2.6189472
50
359.3730261
51
359.9999451
0
ARC
8
DEFAULT_255_2_778
10
12.8797355
20
12.5562947
40
2.6180079
50
0.0003191
51
14.347745
0
ARC
8
DEFAULT_255_2_778
10
13.2604179
20
12.5896925
40
2.24178
50
15.9320247
51
18.98869
0
ARC
8
DEFAULT_255_2_778
10
13.1969133
20
12.5746374
40
2.3067364
50
18.8290457
51
32.5650478
0
ARC
8
DEFAULT_255_2_778
10
13.4094912
20
12.7319524
40
2.0429846
50
32.0557255
51
34.47335
0
ARC
8
DEFAULT_255_2_778
10
13.3124998
20
12.6851318
40
2.1495066
50
34.0388369
51
60.1948619
0
ARC
8
DEFAULT_255_2_778
10
13.7443022
20
13.3541858
40
1.3549813
50
61.9766085
51
63.5805436
0
ARC
8
DEFAULT_255_2_778
10
13.5114069
20
12.9076676
40
1.858516
50
63.2753863
51
65.5027506
0
ARC
8
DEFAULT_255_2_778
10
13.1306356
20
12.0777996
40
2.7715681
50
65.4533364
51
67.1519943
0
ARC
8
DEFAULT_255_2_778
10
12.9180639
20
11.5760882
40
3.3164534
50
67.1332598
51
68.7231618
0
ARC
8
DEFAULT_255_2_778
10
12.903961
20
11.5452192
40
3.3503365
50
68.6899835
51
71.9713417
0
ARC
8
DEFAULT_255_2_778
10
13.0670963
20
12.0424434
40
2.8270361
50
71.99644
51
73.8197926
0
ARC
8
DEFAULT_255_2_778
10
13.3088231
20
12.910897
40
1.9256477
50
73.5266938
51
80.1133238
0
ARC
8
DEFAULT_255_2_778
10
13.474488
20
13.8603174
40
0.9618823
50
80.1245901
51
88.0697665
0
ARC
8
DEFAULT_255_2_778
10
13.4773311
20
13.4670866
40
1.3548896
50
88.7500523
51
90.0015007
0
ARC
8
DEFAULT_255_2_778
10
13.4891269
20
13.1740153
40
1.6480035
50
90.4113376
51
100.4091259
0
ARC
8
DEFAULT_255_2_778
10
14.063822
20
9.9337176
40
4.9388496
50
100.1747129
51
102.2032329
0
ARC
8
DEFAULT_255_2_778
10
0.0063702
20
76.6118155
40
63.2050462
50
281.8642846
51
281.8817808
0
ARC
8
DEFAULT_255_2_778
10
12.4526698
20
17.1234423
40
2.4291321
50
274.8627838
51
283.0449061
0
ARC
8
DEFAULT_255_2_778
10
13.275018
20
5.6843622
40
9.0397337
50
93.9101093
51
94.3924251
0
ARC
8
DEFAULT_255_2_778
10
4.5982769
20
118.9261799
40
104.5340096
50
274.335267
51
274.380576
0
ARC
8
DEFAULT_255_2_778
10
11.867992
20
22.9186438
40
8.2516394
50
273.2858239
51
274.3945324
0
ARC
8
DEFAULT_255_2_778
10
12.1107897
20
18.6138554
40
3.9400138
50
270.1651399
51
273.3489233
0
ARC
8
DEFAULT_255_2_778
10
12.1219061
20
17.5427161
40
2.8688582
50
269.2663086
51
270.0047854
0
ARC
8
DEFAULT_255_2_778
10
12.0816342
20
16.394694
40
1.7206045
50
257.5514515
51
270.1177555
0
ARC
8
DEFAULT_255_2_778
10
11.8729843
20
15.4507197
40
0.753846
50
237.8062212
51
257.5711151
0
ARC
8
DEFAULT_255_2_778
10
11.7409884
20
15.2243533
40
0.4920383
50
225.6585443
51
236.7694739
0
ARC
8
DEFAULT_255_2_778
10
12.1323224
20
15.6274329
40
1.0538335
50
220.1944318
51
225.7590452
0
ARC
8
DEFAULT_255_2_778
10
11.8249596
20
15.3693988
40
0.652522
50
210.5762209
51
220.3055329
0
ARC
8
DEFAULT_255_2_778
10
11.8577481
20
15.3663917
40
0.679495
50
187.0011868
51
208.9513087
0
ARC
8
DEFAULT_255_2_778
10
13.943955
20
15.7317494
40
2.7967791
50
187.7802938
51
189.2213532
0
ARC
8
DEFAULT_255_2_778
10
18.2242407
20
16.3285051
40
7.118458
50
187.6104732
51
187.8754272
0
ARC
8
DEFAULT_255_2_778
10
11.5037947
20
15.8110934
40
0.5416135
50
231.7502207
51
264.5216083
0
ARC
8
DEFAULT_255_2_778
10
11.4839478
20
15.6539531
40
0.3833257
50
265.2321984
51
270.0142577
0
ARC
8
DEFAULT_255_2_778
10
11.4454556
20
15.9159779
40
0.6465031
50
273.4218253
51
303.5380151
0
ARC
8
DEFAULT_255_2_778
10
10.4139161
20
17.7310805
40
2.7330864
50
300.538449
51
302.9987218
0
ARC
8
DEFAULT_255_2_778
10
13.9426748
20
12.3471595
40
3.7042496
50
120.7351061
51
123.4212404
0
ARC
8
DEFAULT_255_2_778
10
12.6625058
20
14.4683203
40
1.2268813
50
119.4610499
51
119.974119
0
ARC
8
DEFAULT_255_2_778
10
10.3400017
20
18.4436833
40
3.377374
50
300.597274
51
302.8514125
0
ARC
8
DEFAULT_255_2_778
10
21.1358846
20
1.6684336
40
16.5715677
50
122.2236177
51
122.7458472
0
ARC
8
DEFAULT_255_2_778
10
13.7957096
20
13.3320237
40
2.7905322
50
117.8741014
51
122.4232981
0
ARC
8
DEFAULT_255_2_778
10
13.1006101
20
14.637019
40
1.3119733
50
112.0588706
51
117.6851274
0
ARC
8
DEFAULT_255_2_778
10
13.5136578
20
13.3644662
40
2.6482054
50
95.3530297
51
110.0007254
0
ARC
8
DEFAULT_255_2_778
10
13.6554579
20
12.2468482
40
3.7743586
50
92.4265553
51
95.9134449
0
ARC
8
DEFAULT_255_2_778
10
13.6829501
20
11.6339426
40
4.3878787
50
89.9733831
51
92.4463757
0
ARC
8
DEFAULT_255_2_778
10
13.6744376
20
10.6235681
40
5.3982628
50
85.3489543
51
89.8880151
0
ARC
8
DEFAULT_255_2_778
10
13.5964848
20
9.5376703
40
6.4869141
50
84.2243396
51
85.4404242
0
ARC
8
DEFAULT_255_2_778
10
13.9873991
20
13.4785712
40
2.5266914
50
78.7709295
51
84.0506993
0
ARC
8
DEFAULT_255_2_778
10
13.7767056
20
12.4169906
40
3.6089785
50
73.2918899
51
78.7719404
0
ARC
8
DEFAULT_255_2_778
10
13.6239697
20
11.8752103
40
4.1718076
50
65.3635884
51
73.4219787
0
ARC
8
DEFAULT_255_2_778
10
14.0667146
20
12.845057
40
3.1056832
50
60.7802468
51
65.3295247
0
ARC
8
DEFAULT_255_2_778
10
14.1792224
20
13.1245111
40
2.8071269
50
48.1061531
51
59.9999816
0
ARC
8
DEFAULT_255_2_778
10
13.2834165
20
12.0901303
40
4.1753476
50
40.2802908
51
48.4339485
0
ARC
8
DEFAULT_255_2_778
10
13.192141
20
12.0034207
40
4.301047
50
38.229324
51
40.3753767
0
ARC
8
DEFAULT_255_2_778
10
14.2582997
20
12.7440875
40
3.0062141
50
12.0397379
51
39.7147038
0
ARC
8
DEFAULT_255_2_778
10
12.8540757
20
12.3803245
40
4.4558703
50
9.4498052
51
12.8479748
0
ARC
8
DEFAULT_255_2_778
10
11.6395161
20
12.1773158
40
5.687279
50
5.800248
51
9.4583002
0
ARC
8
DEFAULT_255_2_778
10
11.0004827
20
12.1082762
40
6.3300194
50
1.0817487
51
5.8374047
0
ARC
8
DEFAULT_255_2_778
10
11.2781089
20
12.1147036
40
6.0523214
50
0.0031292
51
1.0705306
0
ARC
8
DEFAULT_255_2_778
10
12.0773612
20
12.1045154
40
5.2530798
50
354.7474876
51
0.1147292
0
ARC
8
DEFAULT_255_2_778
10
13.5398197
20
11.9708694
40
3.7845278
50
349.6635497
51
354.7354311
0
ARC
8
DEFAULT_255_2_778
10
14.6359731
20
11.7717159
40
2.6704302
50
344.4683657
51
349.6472573
0
ARC
8
DEFAULT_255_2_778
10
15.1268208
20
11.6488971
40
2.1646594
50
339.5205351
51
344.1216074
0
ARC
8
DEFAULT_255_2_778
10
14.1461758
20
12.0133443
40
3.2108355
50
335.672845
51
339.5506312
0
ARC
8
DEFAULT_255_2_778
10
13.0502287
20
12.5079993
40
4.4132428
50
331.8507209
51
335.6824215
0
ARC
8
DEFAULT_255_2_778
10
12.4432268
20
12.8254726
40
5.098228
50
330.774359
51
331.9231244
0
ARC
8
DEFAULT_255_2_778
10
12.2590547
20
12.9258699
40
5.3079751
50
323.4942663
51
330.7992395
0
ARC
8
DEFAULT_255_2_778
10
13.220233
20
12.2230272
40
4.1172648
50
320.4306291
51
323.3987333
0
ARC
8
DEFAULT_255_2_778
10
13.878768
20
11.6797687
40
3.2635685
50
317.8015398
51
320.417958
0
ARC
8
DEFAULT_255_2_778
10
14.4146491
20
11.193236
40
2.5397714
50
314.836385
51
317.8124295
0
ARC
8
DEFAULT_255_2_778
10
14.7331739
20
10.8759813
40
2.0902129
50
313.5342119
51
314.7765759
0
ARC
8
DEFAULT_255_2_778
10
14.5470707
20
11.0705914
40
2.3594838
50
297.2572138
51
313.5554113
0
ARC
8
DEFAULT_255_2_778
10
14.237361
20
11.7623159
40
3.1165175
50
279.8515859
51
296.4945882
0
ARC
8
DEFAULT_255_2_778
10
13.6890481
20
8.4761836
40
1.1028128
50
11.2040169
51
11.2723611
0
ARC
8
DEFAULT_255_2_778
10
12.7109349
20
8.3075225
40
2.0952006
50
6.8920736
51
10.5311823
0
ARC
8
DEFAULT_255_2_778
10
15.6648622
20
8.6468612
40
0.878278
50
185.7449325
51
196.4158528
0
ARC
8
DEFAULT_255_2_778
10
15.5780611
20
8.6373107
40
0.7924651
50
197.5271439
51
199.6533011
0
ARC
8
DEFAULT_255_2_778
10
15.1362719
20
8.4518426
40
0.3151154
50
194.906305
51
236.8635943
0
ARC
8
DEFAULT_255_2_778
10
15.0326991
20
8.3252245
40
0.1534753
50
243.4166889
51
270.3393804
0
ARC
8
DEFAULT_255_2_778
10
15.0324781
20
8.3664872
40
0.1947384
50
270.3324866
51
284.0985504
0
ARC
8
DEFAULT_255_2_778
10
15.0233373
20
8.4088474
40
0.2380536
50
283.748809
51
286.0332798
0
ARC
8
DEFAULT_255_2_778
10
15.1917846
20
7.8756989
40
0.3212146
50
97.4906878
51
108.645845
0
ARC
8
DEFAULT_255_2_778
10
15.1583626
20
8.0857521
40
0.1087492
50
90.045183
51
94.4581611
0
ARC
8
DEFAULT_255_2_778
10
15.1552149
20
8.075431
40
0.1191096
50
55.4558914
51
88.526933
0
ARC
8
DEFAULT_255_2_778
10
15.0401349
20
7.885629
40
0.3409442
50
49.0284428
51
57.6133601
0
ARC
8
DEFAULT_255_2_778
10
15.1919999
20
8.0657283
40
0.105443
50
13.0343292
51
47.1671015
0
ARC
8
DEFAULT_255_2_778
10
15.0870849
20
8.0353409
40
0.2145906
50
359.4071196
51
14.6211664
0
ARC
8
DEFAULT_255_2_778
10
14.9664161
20
8.0360977
40
0.335261
50
344.5450166
51
359.4911801
0
ARC
8
DEFAULT_255_2_778
10
14.8952057
20
8.0534162
40
0.4085179
50
336.4945836
51
344.8653601
0
ARC
8
DEFAULT_255_2_778
10
14.871938
20
8.0635276
40
0.4338877
50
314.4229709
51
336.4955812
0
ARC
8
DEFAULT_255_2_778
10
14.8705578
20
8.0653744
40
0.4361731
50
298.0830652
51
314.382663
0
ARC
8
DEFAULT_255_2_778
10
14.7702231
20
8.2806841
40
0.6734883
50
272.3329842
51
296.9910438
0
ARC
8
DEFAULT_255_2_778
10
14.612451
20
10.0607606
40
2.4599869
50
271.0070573
51
274.3173112
0
ARC
8
DEFAULT_255_2_778
10
14.4858836
20
15.0292725
40
7.4300592
50
270.7195753
51
271.3095247
0
ARC
8
DEFAULT_255_2_778
10
14.4936329
20
14.3899752
40
6.7907151
50
270.0074381
51
270.7219379
0
ARC
8
DEFAULT_255_2_778
10
14.4891257
20
12.9584027
40
5.3591451
50
268.0350272
51
270.0576124
0
ARC
8
DEFAULT_255_2_778
10
14.3945805
20
10.5303589
40
2.9293088
50
263.4901623
51
268.2547903
0
ARC
8
DEFAULT_255_2_778
10
14.2359806
20
9.0728365
40
1.4632228
50
260.1109942
51
263.1899179
0
ARC
8
DEFAULT_255_2_778
10
14.134863
20
8.3186724
40
0.7035337
50
238.1146587
51
257.6747995
0
ARC
8
DEFAULT_255_2_778
10
21.0022273
20
20.6761742
40
14.8402074
50
240.6975537
51
240.8042146
0
ARC
8
DEFAULT_255_2_778
10
13.3172604
20
7.0624883
40
0.7937111
50
57.8914561
51
77.1324948
0
ARC
8
DEFAULT_255_2_778
10
13.4023021
20
7.3468364
40
0.4979503
50
79.3863075
51
85.082546
0
ARC
8
DEFAULT_255_2_778
10
13.6547187
20
9.1092103
40
1.2835081
50
232.2123178
51
260.5953928
0
ARC
8
DEFAULT_255_2_778
10
17.2239127
20
14.4337201
40
7.6910775
50
234.6239176
51
235.5056679
0
ARC
8
DEFAULT_255_2_778
10
1.9378206
20
-7.1071355
40
18.7224244
50
54.6455459
51
54.9664215
0
ARC
8
DEFAULT_255_2_778
10
10.5611703
20
5.2031242
40
3.6923053
50
54.8756621
51
57.1027649
0
ARC
8
DEFAULT_255_2_778
10
12.1082173
20
7.6051072
40
0.8352549
50
56.7167978
51
63.1593052
0
ARC
8
DEFAULT_255_2_778
10
12.1240705
20
7.6105144
40
0.8233555
50
63.9737821
51
70.4392154
0
ARC
8
DEFAULT_255_2_778
10
12.6724249
20
9.1104899
40
0.7737804
50
247.7793136
51
249.3650904
0
ARC
8
DEFAULT_255_2_778
10
12.5208944
20
8.7408976
40
0.3743315
50
242.4032113
51
247.8568134
0
ARC
8
DEFAULT_255_2_778
10
11.5324073
20
7.8979208
40
0.940521
50
0.4643705
51
11.3957838
0
ARC
8
DEFAULT_255_2_778
10
13.4461509
20
7.9241091
40
0.9734305
50
181.0928339
51
187.3811076
0
ARC
8
DEFAULT_255_2_778
10
13.6074133
20
7.9811373
40
1.1412458
50
189.1806609
51
195.1667555
0
ARC
8
DEFAULT_255_2_778
10
9.6080957
20
6.9086983
40
2.9993719
50
13.5517355
51
14.9517747
0
ARC
8
DEFAULT_255_2_778
10
11.7167852
20
7.4223862
40
0.8290389
50
11.181665
51
13.1874339
0
ARC
8
DEFAULT_255_2_778
10
12.3042047
20
7.3431516
40
0.3295812
50
34.3018488
51
46.7360201
0
ARC
8
DEFAULT_255_2_778
10
3.5055294
20
0.8952941
40
11.2377242
50
36.1561988
51
36.1780811
0
ARC
8
DEFAULT_255_2_778
10
12.7475474
20
7.6226515
40
0.1945823
50
209.9786597
51
252.4231666
0
ARC
8
DEFAULT_255_2_778
10
12.7510962
20
7.6897257
40
0.2601443
50
256.141841
51
270.2124386
0
ARC
8
DEFAULT_255_2_778
10
12.7579617
20
7.8604967
40
0.4309539
50
269.2154272
51
270.0062711
0
ARC
8
DEFAULT_255_2_778
10
12.7463311
20
8.2200859
40
0.7906294
50
270.8463025
51
278.4802992
0
ARC
8
DEFAULT_255_2_778
10
12.5290545
20
9.8200488
40
2.405233
50
277.9789888
51
279.5171398
0
ARC
8
DEFAULT_255_2_778
10
13.5802473
20
3.6408296
40
3.8627729
50
98.5032509
51
99.740166
0
ARC
8
DEFAULT_255_2_778
10
13.1381175
20
6.5494918
40
0.9207364
50
97.4027678
51
98.0565264
0
ARC
8
DEFAULT_255_2_778
10
12.9520632
20
7.9176406
40
0.4600542
50
278.4273674
51
290.7128944
0
ARC
8
DEFAULT_255_2_778
10
13.3155856
20
6.9721487
40
0.5529262
50
102.7048432
51
111.2951984
0
ARC
8
DEFAULT_255_2_778
10
13.2261055
20
7.3440383
40
0.1705513
50
90.2977193
51
100.8568111
0
ARC
8
DEFAULT_255_2_778
10
13.225417
20
7.3755275
40
0.13906
50
79.4882903
51
90.0814591
0
ARC
8
DEFAULT_255_2_778
10
13.1088673
20
7.0113279
40
0.5206418
50
49.490309
51
74.1818277
0
ARC
8
DEFAULT_255_2_778
10
137.8340295
20
176.9182566
40
210.2525283
50
233.728838
51
233.7340508
0
ARC
8
DEFAULT_255_2_778
10
14.0553049
20
8.2262605
40
1.0202983
50
234.4773738
51
237.9122791
0
ARC
8
DEFAULT_255_2_778
10
13.3899552
20
7.1536029
40
0.2420177
50
32.9458566
51
59.3579555
0
ARC
8
DEFAULT_255_2_778
10
13.3093321
20
7.1027452
40
0.3373362
50
26.853088
51
32.7475543
0
ARC
8
DEFAULT_255_2_778
10
13.1681463
20
7.0308893
40
0.4957554
50
22.5934184
51
26.8915949
0
ARC
8
DEFAULT_255_2_778
10
13.0513816
20
6.980717
40
0.6228363
50
22.1904486
51
22.7279197
0
ARC
8
DEFAULT_255_2_778
10
12.7562194
20
6.8731617
40
0.9368345
50
14.7066454
51
21.4632676
0
ARC
8
DEFAULT_255_2_778
10
11.5999739
20
6.5650546
40
2.1334232
50
8.6683394
51
14.8268747
0
ARC
8
DEFAULT_255_2_778
10
11.6595997
20
6.5626755
40
2.0748681
50
4.0541643
51
8.9814417
0
ARC
8
DEFAULT_255_2_778
10
12.3393722
20
6.6159143
40
1.3930419
50
2.3055241
51
3.8466211
0
ARC
8
DEFAULT_255_2_778
10
12.0367229
20
6.604752
40
1.6958957
50
0.0277035
51
2.2710051
0
ARC
8
DEFAULT_255_2_778
10
12.5759176
20
6.5912664
40
1.1567893
50
345.1638824
51
0.7085735
0
ARC
8
DEFAULT_255_2_778
10
12.8011898
20
6.5413411
40
0.9262916
50
339.4938512
51
344.5811244
0
ARC
8
DEFAULT_255_2_778
10
12.4648697
20
6.6658716
40
1.2849253
50
338.3715041
51
339.5462919
0
ARC
8
DEFAULT_255_2_778
10
13.0781373
20
6.4108631
40
0.6209408
50
324.6199962
51
339.3876384
0
ARC
8
DEFAULT_255_2_778
10
12.9127577
20
6.5440544
40
0.8329961
50
316.274292
51
323.7367505
0
ARC
8
DEFAULT_255_2_778
10
11.799226
20
7.5928282
40
2.3626466
50
314.0291908
51
316.5598867
0
ARC
8
DEFAULT_255_2_778
10
10.0111136
20
9.4147794
40
4.9154241
50
314.2099335
51
314.2544652
0
ARC
8
DEFAULT_255_2_778
10
10.6058473
20
8.8068831
40
4.0649896
50
312.1757641
51
314.1758319
0
ARC
8
DEFAULT_255_2_778
10
10.5200773
20
8.8973719
40
4.1896371
50
309.296444
51
312.21417
0
ARC
8
DEFAULT_255_2_778
10
11.2894129
20
7.9335692
40
2.9565627
50
302.2865846
51
309.5878083
0
ARC
8
DEFAULT_255_2_778
10
11.794019
20
7.1661191
40
2.0383007
50
301.541496
51
301.8185389
0
ARC
8
DEFAULT_255_2_778
10
12.3618108
20
5.0986766
40
0.5979642
50
27.2593518
51
33.527429
0
ARC
8
DEFAULT_255_2_778
10
7.2357747
20
2.3467586
40
6.4159015
50
28.1119217
51
28.1387915
0
ARC
8
DEFAULT_255_2_778
10
13.2924734
20
5.5629894
40
0.4420846
50
205.8976943
51
222.2088463
0
ARC
8
DEFAULT_255_2_778
10
13.2568691
20
5.5398044
40
0.400193
50
223.1748777
51
226.6167805
0
ARC
8
DEFAULT_255_2_778
10
13.635593
20
5.9737991
40
0.9760133
50
227.9584384
51
234.4694556
0
ARC
8
DEFAULT_255_2_778
10
80.4964501
20
96.4951061
40
113.512466
50
233.5575878
51
233.578054
0
ARC
8
DEFAULT_255_2_778
10
12.6088709
20
4.4476289
40
0.8620889
50
44.5473856
51
55.1885538
0
ARC
8
DEFAULT_255_2_778
10
13.0161495
20
4.8640531
40
0.2799313
50
38.2492051
51
42.281458
0
ARC
8
DEFAULT_255_2_778
10
12.5556005
20
4.4853713
40
0.8761336
50
33.2863943
51
39.0516684
0
ARC
8
DEFAULT_255_2_778
10
13.0200585
20
4.7964886
40
0.3171689
50
27.85277
51
32.3526115
0
ARC
8
DEFAULT_255_2_778
10
13.1119778
20
4.8435597
40
0.2139109
50
359.7573612
51
28.2081742
0
ARC
8
DEFAULT_255_2_778
10
12.0250643
20
4.8232842
40
1.3009666
50
0.031924
51
0.8530858
0
ARC
8
DEFAULT_255_2_778
10
12.7923512
20
4.8137312
40
0.5337783
50
346.818185
51
1.1033009
0
ARC
8
DEFAULT_255_2_778
10
13.0142972
20
4.7645637
40
0.3064804
50
323.3816815
51
346.3057506
0
ARC
8
DEFAULT_255_2_778
10
12.7010191
20
4.995073
40
0.6954229
50
306.7259658
51
323.5342429
0
ARC
8
DEFAULT_255_2_778
10
12.4896623
20
5.3374361
40
1.0967866
50
289.7752345
51
304.8802452
0
ARC
8
DEFAULT_255_2_778
10
10.8909082
20
9.2324486
40
5.3062915
50
291.7641205
51
291.7912219
0
ARC
8
DEFAULT_255_2_778
10
15.6484494
20
-2.8369771
40
7.667045
50
111.3399273
51
112.4914205
0
ARC
8
DEFAULT_255_2_778
10
13.6762141
20
1.9693216
40
2.4719141
50
112.8716731
51
113.4104059
0
ARC
8
DEFAULT_255_2_778
10
6.4818414
20
3.1846025
40
6.3008824
50
7.8207267
51
9.6217755
0
ARC
8
DEFAULT_255_2_778
10
11.0495338
20
3.8188959
40
1.6893786
50
3.3504246
51
7.5884176
0
ARC
8
DEFAULT_255_2_778
10
11.5338159
20
3.8506251
40
1.2040745
50
0.0383855
51
3.1899562
0
ARC
8
DEFAULT_255_2_778
10
11.670447
20
3.8506212
40
1.0674434
50
350.0820462
51
0.0435097
0
ARC
8
DEFAULT_255_2_778
10
11.5396696
20
3.8725915
40
1.2000508
50
346.8782018
51
350.124195
0
ARC
8
DEFAULT_255_2_778
10
9.9151317
20
4.2387842
40
2.865331
50
345.7954901
51
347.1216425
0
ARC
8
DEFAULT_255_2_778
10
11.5346048
20
3.8272866
40
1.1943977
50
340.7038993
51
345.8686105
0
ARC
8
DEFAULT_255_2_778
10
12.234366
20
3.5647367
40
0.4474938
50
318.2366107
51
342.8252599
0
ARC
8
DEFAULT_255_2_778
10
12.4509131
20
3.3822038
40
0.1645922
50
294.0106193
51
315.4224382
0
ARC
8
DEFAULT_255_2_778
10
12.3612782
20
3.6350802
40
0.4325711
50
275.5858079
51
291.225596
0
ARC
8
DEFAULT_255_2_778
10
12.2076808
20
5.0011474
40
1.8072116
50
271.1729657
51
276.2167275
0
ARC
8
DEFAULT_255_2_778
10
11.6751867
20
20.7202886
40
17.5352242
50
271.7719732
51
271.8611143
0
ARC
8
DEFAULT_255_2_778
10
12.2607331
20
0.925998
40
2.2678655
50
91.0946402
51
94.9839634
0
ARC
8
DEFAULT_255_2_778
10
12.1344693
20
2.4792051
40
0.7096206
50
95.7228864
51
98.8098669
0
ARC
8
DEFAULT_255_2_778
10
9.7915385
20
4.4696785
40
2.3308776
50
321.1892452
51
324.4130819
0
LINE
8
DEFAULT_255_2_778
10
11.6078058
20
3.0088007
11
11.6061797
21
3.0067396
0
ARC
8
DEFAULT_255_2_778
10
12.7657819
20
2.0465083
40
1.5055635
50
140.3728787
51
147.6088834
0
ARC
8
DEFAULT_255_2_778
10
11.8365427
20
2.649035
40
0.3982842
50
149.1901531
51
155.0640245
0
ARC
8
DEFAULT_255_2_778
10
11.7358839
20
2.6919276
40
0.288947
50
154.3612126
51
166.6491782
0
ARC
8
DEFAULT_255_2_778
10
11.60468
20
2.7252191
40
0.1536158
50
167.4306617
51
179.8332921
0
ARC
8
DEFAULT_255_2_778
10
11.6002151
20
2.7257304
40
0.14915
50
180.0247211
51
184.7059903
0
ARC
8
DEFAULT_255_2_778
10
11.7791767
20
2.7543497
40
0.3301466
50
187.1086333
51
200.6098691
0
ARC
8
DEFAULT_255_2_778
10
1.8515229
20
-0.5652521
40
10.1380413
50
18.2305915
51
18.419813
0
ARC
8
DEFAULT_255_2_778
10
12.0252108
20
2.8028298
40
0.5788864
50
199.8405304
51
209.5872039
0
ARC
8
DEFAULT_255_2_778
10
15.5999848
20
4.7489289
40
4.6489788
50
208.6912043
51
209.6542955
0
ARC
8
DEFAULT_255_2_778
10
9.0377632
20
1.0239922
40
2.8967523
50
28.5547743
51
29.462572
0
ARC
8
DEFAULT_255_2_778
10
10.9638094
20
2.056457
40
0.7116056
50
19.1461499
51
29.6636472
0
ARC
8
DEFAULT_255_2_778
10
11.3335295
20
2.1939401
40
0.3173619
50
15.4068065
51
17.5901319
0
ARC
8
DEFAULT_255_2_778
10
11.0176805
20
2.1011907
40
0.6465247
50
0.005742
51
15.8946322
0
ARC
8
DEFAULT_255_2_778
10
11.0337688
20
2.1012225
40
0.6304364
50
359.6554242
51
0.0029949
0
ARC
8
DEFAULT_255_2_778
10
11.0200606
20
2.101215
40
0.6441444
50
346.6839172
51
359.6634234
0
ARC
8
DEFAULT_255_2_778
10
11.1414405
20
2.0724494
40
0.5194025
50
325.193873
51
346.6878496
0
ARC
8
DEFAULT_255_2_778
10
10.9408946
20
2.2168813
40
0.7665214
50
316.4325752
51
324.8859532
0
ARC
8
DEFAULT_255_2_778
10
10.6499262
20
2.4814072
40
1.159694
50
315.9819756
51
316.8708962
0
ARC
8
DEFAULT_255_2_778
10
10.995944
20
2.1787245
40
0.7009057
50
300.9103456
51
314.1197401
0
ARC
8
DEFAULT_255_2_778
10
10.0377429
20
3.6696713
40
2.47296
50
300.7613889
51
302.2129261
0
ARC
8
DEFAULT_255_2_778
10
12.8688389
20
-1.1635977
40
3.1285411
50
120.0422134
51
122.8736185
0
ARC
8
DEFAULT_255_2_778
10
11.6129841
20
0.8043268
40
0.7941911
50
123.8411697
51
125.2819663
0
ARC
8
DEFAULT_255_2_778
10
11.4638465
20
1.0131691
40
0.5375684
50
125.1629688
51
128.980414
0
ARC
8
DEFAULT_255_2_778
10
10.610452
20
2.0850488
40
0.832572
50
302.1081573
51
308.2319813
0
ARC
8
DEFAULT_255_2_778
10
11.5335673
20
0.6414522
40
0.880996
50
123.0591493
51
124.7285847
0
ARC
8
DEFAULT_255_2_778
10
11.0904677
20
1.2537387
40
0.1262896
50
117.746138
51
180.4737631
0
ARC
8
DEFAULT_255_2_778
10
11.1813918
20
1.2537354
40
0.2172119
50
180.2745753
51
187.9065811
0
ARC
8
DEFAULT_255_2_778
10
11.2444326
20
1.2612138
40
0.280685
50
187.6484625
51
188.5768141
0
ARC
8
DEFAULT_255_2_778
10
11.3149579
20
1.2922784
40
0.3556284
50
191.8329161
51
205.2926206
0
ARC
8
DEFAULT_255_2_778
10
11.6339559
20
1.4394381
40
0.7069267
50
205.0303029
51
214.4019409
0
ARC
8
DEFAULT_255_2_778
10
11.8369478
20
1.5705309
40
0.9485032
50
214.0077526
51
215.403756
0
ARC
8
DEFAULT_255_2_778
10
11.9975987
20
1.6894756
40
1.1483636
50
215.5973432
51
232.4240201
0
ARC
8
DEFAULT_255_2_778
10
11.7190848
20
1.3323293
40
0.6954738
50
232.6664299
51
241.0810069
0
ARC
8
DEFAULT_255_2_778
10
11.584185
20
1.0892065
40
0.4174339
50
241.1511315
51
249.7182005
0
ARC
8
DEFAULT_255_2_778
10
11.5729903
20
1.0702105
40
0.3957546
50
250.2851311
51
268.7437536
0
ARC
8
DEFAULT_255_2_778
10
11.58394
20
1.2111303
40
0.5369381
50
267.9052559
51
270.0094011
0
ARC
8
DEFAULT_255_2_778
10
11.5824767
20
1.2845584
40
0.610368
50
270.1456356
51
279.4826574
0
ARC
8
DEFAULT_255_2_778
10
11.5812499
20
1.3054353
40
0.6311659
50
279.2802809
51
293.416878
0
ARC
8
DEFAULT_255_2_778
10
11.3954269
20
0.7943724
40
0.441941
50
310.8243778
51
351.1333713
0
ARC
8
DEFAULT_255_2_778
10
13.6407235
20
-1.4313818
40
2.7211311
50
135.9685749
51
138.2758391
0
ARC
8
DEFAULT_255_2_778
10
11.2588092
20
1.6675055
40
1.334821
50
285.244565
51
315.568369
0
ARC
8
DEFAULT_255_2_778
10
11.4793306
20
1.0142436
40
0.7847628
50
329.747238
51
339.0034417
0
ARC
8
DEFAULT_255_2_778
10
10.9607586
20
1.3104314
40
1.3819458
50
322.5715602
51
329.9717208
0
ARC
8
DEFAULT_255_2_778
10
10.6217615
20
1.565138
40
1.8059549
50
315.9768164
51
322.6910544
0
ARC
8
DEFAULT_255_2_778
10
10.5155122
20
1.6648603
40
1.9516574
50
311.1903437
51
316.039396
0
ARC
8
DEFAULT_255_2_778
10
10.5080641
20
1.6730113
40
1.9626963
50
309.5186926
51
311.197261
0
ARC
8
DEFAULT_255_2_778
10
9.510136
20
2.8756789
40
3.5254692
50
307.9053907
51
309.5922392
0
ARC
8
DEFAULT_255_2_778
10
10.6023248
20
1.4685286
40
1.7441964
50
304.9816376
51
307.9950798
0
ARC
8
DEFAULT_255_2_778
10
11.1244625
20
0.7196004
40
0.8312254
50
299.6888339
51
305.0894992
0
ARC
8
DEFAULT_255_2_778
10
11.0812771
20
0.8130862
40
0.9338698
50
295.7123274
51
299.1497693
0
LINE
8
DEFAULT_255_2_778
10
11.4864393
20
-0.0283153
11
11.4860464
21
-0.0285088
0
ARC
8
DEFAULT_255_2_778
10
11.8401477
20
-0.7673644
40
0.8193262
50
115.6063746
51
120.2950384
0
ARC
8
DEFAULT_255_2_778
10
11.8224771
20
-0.7276258
40
0.776115
50
120.6485652
51
123.6084173
0
ARC
8
DEFAULT_255_2_778
10
11.6967819
20
1.5045533
40
1.6146554
50
259.1516243
51
269.9983515
0
LINE
8
DEFAULT_255_2_778
10
11.6967355
20
-0.1101023
11
11.6979876
21
-0.1101018
0
ARC
8
DEFAULT_255_2_778
10
11.6968019
20
1.5008781
40
1.6109803
50
270.0421705
51
280.554511
0
ARC
8
DEFAULT_255_2_778
10
11.2847647
20
1.2097665
40
1.4733869
50
295.859229
51
298.6808018
0
ARC
8
DEFAULT_255_2_778
10
11.3574184
20
1.0621319
40
1.308847
50
294.1710105
51
295.8160575
0
ARC
8
DEFAULT_255_2_778
10
11.4011773
20
0.9610901
40
1.1987469
50
285.9549668
51
294.2403275
0
ARC
8
DEFAULT_255_2_778
10
11.4229462
20
0.8872971
40
1.121813
50
275.9629784
51
285.9219774
0
ARC
8
DEFAULT_255_2_778
10
11.3493992
20
1.5703992
40
1.808861
50
272.6014498
51
276.0321698
0
ARC
8
DEFAULT_255_2_778
10
11.3716231
20
1.1247082
40
1.3626219
50
270.0324654
51
272.518537
0
ARC
8
DEFAULT_255_2_778
10
11.3710553
20
0.9276103
40
1.1655247
50
263.4531757
51
270.0658635
0
ARC
8
DEFAULT_255_2_778
10
11.4295476
20
1.348208
40
1.5900812
50
256.6267791
51
263.0872072
0
ARC
8
DEFAULT_255_2_778
10
11.7349405
20
2.7290189
40
3.0041679
50
256.3539321
51
257.0513338
0
ARC
8
DEFAULT_255_2_778
10
11.1640592
20
0.3524049
40
0.5599889
50
243.3921882
51
255.7468916
0
ARC
8
DEFAULT_255_2_778
10
11.5898485
20
1.175863
40
1.4869875
50
235.4322977
51
242.934272
0
ARC
8
DEFAULT_255_2_778
10
-13.9237291
20
-36.7755456
40
44.2433227
50
56.1103057
51
56.2741922
0
ARC
8
DEFAULT_255_2_778
10
9.5481408
20
-1.5944132
40
1.9510338
50
55.9339437
51
62.4351317
0
ARC
8
DEFAULT_255_2_778
10
8.7252735
20
-0.3043722
40
1.7808057
50
13.768036
51
14.2890018
0
ARC
8
DEFAULT_255_2_778
10
11.2297187
20
0.2847151
40
0.7922375
50
192.0410332
51
201.3844679
0
ARC
8
DEFAULT_255_2_778
10
10.8137125
20
0.1290995
40
0.3481962
50
202.5008215
51
224.1688751
0
ARC
8
DEFAULT_255_2_778
10
10.826541
20
0.1421236
40
0.366473
50
224.2319557
51
228.076526
0
ARC
8
DEFAULT_255_2_778
10
11.0108692
20
0.3836106
40
0.6697424
50
230.1472083
51
247.0130722
0
ARC
8
DEFAULT_255_2_778
10
11.7231797
20
1.8666951
40
2.3145005
50
245.1171502
51
245.991179
0
ARC
8
DEFAULT_255_2_778
10
12.191745
20
2.913119
40
3.4610401
50
245.9537622
51
246.0034722
0
ARC
8
DEFAULT_255_2_778
10
12.4101684
20
3.4045701
40
3.9988438
50
246.0080408
51
246.0504824
0
ARC
8
DEFAULT_255_2_778
10
12.1221781
20
2.7563949
40
3.2895699
50
246.0518867
51
246.1027783
0
ARC
8
DEFAULT_255_2_778
10
8.8985624
20
-4.6867987
40
4.8219022
50
64.5849905
51
66.910221
0
ARC
8
DEFAULT_255_2_778
10
10.6521438
20
1.0746739
40
1.3626854
50
243.7942113
51
258.7324066
0
ARC
8
DEFAULT_255_2_778
10
10.5756549
20
0.8472754
40
1.1253323
50
231.1180129
51
242.1753445
0
LINE
8
DEFAULT_255_2_778
10
9.8692631
20
-0.028729
11
9.8668089
21
-0.0268721
0
ARC
8
DEFAULT_255_2_778
10
8.5827738
20
-1.6950561
40
2.1051327
50
52.4137898
51
55.3759755
0
ARC
8
DEFAULT_255_2_778
10
9.1002282
20
-0.3023766
40
0.7588979
50
19.6466599
51
26.5853904
0
LINE
8
DEFAULT_255_2_778
10
9.8149462
20
-0.0472209
11
9.8154644
21
-0.0485869
0
ARC
8
DEFAULT_255_2_778
10
10.1873764
20
0.0595272
40
0.3873076
50
196.2090468
51
224.0672619
0
ARC
8
DEFAULT_255_2_778
10
10.271586
20
0.2589292
40
0.5925842
50
232.2855753
51
252.9871098
0
LINE
8
DEFAULT_255_2_778
10
10.0982036
20
-0.307723
11
10.0992534
21
-0.3081212
0
ARC
8
DEFAULT_255_2_778
10
9.6463271
20
-1.5540305
40
1.3256818
50
65.3094756
51
70.0222411
0
ARC
8
DEFAULT_255_2_778
10
10.1852564
20
-1.1036176
40
0.7542172
50
88.8733153
51
90.0128421
0
ARC
8
DEFAULT_255_2_778
10
10.19785
20
-1.83447
40
1.4851245
50
90.492388
51
93.838082
0
ARC
8
DEFAULT_255_2_778
10
9.9600189
20
1.8692478
40
2.2262317
50
272.1173142
51
273.5648018
0
ARC
8
DEFAULT_255_2_778
10
10.0131707
20
0.5101968
40
0.8661497
50
270.0617135
51
271.9251807
0
ARC
8
DEFAULT_255_2_778
10
10.0078734
20
0.1155547
40
0.4715483
50
256.386766
51
270.7570413
0
ARC
8
DEFAULT_255_2_778
10
10.1180064
20
0.5451775
40
0.9150423
50
233.9402708
51
256.0160666
0
ARC
8
DEFAULT_255_2_778
10
10.9067785
20
1.6208186
40
2.2488927
50
223.0949549
51
233.8257873
0
ARC
8
DEFAULT_255_2_778
10
29.8395148
20
18.2883141
40
27.4720192
50
221.3064559
51
221.501252
0
ARC
8
DEFAULT_255_2_778
10
12.0127807
20
2.6192952
40
3.7378555
50
220.1620224
51
221.2570457
0
ARC
8
DEFAULT_255_2_778
10
10.0735326
20
1.0044311
40
1.2144412
50
212.7528258
51
220.9453612
0
ARC
8
DEFAULT_255_2_778
10
9.3689375
20
0.5472343
40
0.3745318
50
201.7985841
51
212.2463051
0
ARC
8
DEFAULT_255_2_778
10
9.1774663
20
0.4693696
40
0.1678413
50
180.0966439
51
201.3906128
0
ARC
8
DEFAULT_255_2_778
10
9.3096235
20
0.4540577
40
0.3003744
50
157.5540189
51
177.1320812
0
LINE
8
DEFAULT_255_2_778
10
9.0320054
20
0.5687443
11
9.0320869
21
0.568978
0
ARC
8
DEFAULT_255_2_778
10
8.6709443
20
0.708851
40
0.3872834
50
338.828263
51
350.4734436
0
ARC
8
DEFAULT_255_2_778
10
8.6701112
20
1.2423544
40
0.7096785
50
296.2815716
51
302.6403911
0
LINE
8
DEFAULT_255_2_778
10
8.9843447
20
0.6060362
11
8.982596
21
0.605132
0
ARC
8
DEFAULT_255_2_778
10
9.1277371
20
0.269834
40
0.3653638
50
113.4064196
51
137.0552473
0
ARC
8
DEFAULT_255_2_778
10
10.1578569
20
-0.5453371
40
1.6780876
50
140.6460486
51
141.3939977
0
ARC
8
DEFAULT_255_2_778
10
9.0156698
20
0.3420234
40
0.2326385
50
136.6479551
51
178.1469367
0
ARC
8
DEFAULT_255_2_778
10
9.0448504
20
0.3511179
40
0.261702
50
180.3441212
51
191.6325565
0
ARC
8
DEFAULT_255_2_778
10
9.0978928
20
0.3599779
40
0.3154478
50
191.266179
51
191.5989799
0
ARC
8
DEFAULT_255_2_778
10
9.2786034
20
0.418727
40
0.5047264
50
194.0080485
51
210.9368335
0
ARC
8
DEFAULT_255_2_778
10
10.6664731
20
1.1922663
40
2.0934184
50
209.5681641
51
212.7768977
0
ARC
8
DEFAULT_255_2_778
10
18.8548919
20
6.3707616
40
11.7818604
50
212.3929223
51
212.4966268
0
ARC
8
DEFAULT_255_2_778
10
6.0220002
20
-1.8290988
40
3.4471382
50
30.9155933
51
32.8536699
0
ARC
8
DEFAULT_255_2_778
10
5.7920458
20
-3.9718114
40
5.0474449
50
50.8408886
51
50.8865515
0
ARC
8
DEFAULT_255_2_778
10
5.9150095
20
-3.8211856
40
4.8530019
50
50.8910834
51
50.9377816
0
ARC
8
DEFAULT_255_2_778
10
5.9185752
20
-3.8162115
40
4.8468929
50
50.9334571
51
50.9794352
0
ARC
8
DEFAULT_255_2_778
10
5.3063936
20
-4.5719221
40
5.8194486
50
50.9811945
51
51.0188532
0
ARC
8
DEFAULT_255_2_778
10
5.4470491
20
-4.399141
40
5.5966553
50
51.0254923
51
51.0640028
0
ARC
8
DEFAULT_255_2_778
10
6.1370587
20
-3.5444526
40
4.4981995
50
51.0588097
51
51.1059354
0
ARC
8
DEFAULT_255_2_778
10
5.8711838
20
-3.873271
40
4.9210597
50
51.1004253
51
51.1498372
0
ARC
8
DEFAULT_255_2_778
10
5.2511748
20
-4.6427329
40
5.9092311
50
51.148057
51
51.1884222
0
ARC
8
DEFAULT_255_2_778
10
5.4083691
20
-4.4471088
40
5.6582753
50
51.1871862
51
51.2285421
0
ARC
8
DEFAULT_255_2_778
10
5.4110041
20
-4.443513
40
5.6538219
50
51.226542
51
51.267149
0
ARC
8
DEFAULT_255_2_778
10
3.3310352
20
-7.0371452
40
8.978457
50
51.2689658
51
51.2958428
0
ARC
8
DEFAULT_255_2_778
10
4.5956381
20
-5.4596173
40
6.9566227
50
51.2995496
51
51.3346722
0
ARC
8
DEFAULT_255_2_778
10
29.7517885
20
26.1969619
40
33.4781984
50
231.3504578
51
231.5673428
0
ARC
8
DEFAULT_255_2_778
10
9.8092924
20
1.2651932
40
1.5517832
50
227.4982437
51
231.4775199
0
ARC
8
DEFAULT_255_2_778
10
9.0737837
20
0.4834257
40
0.4787083
50
195.1391428
51
229.1844764
0
ARC
8
DEFAULT_255_2_778
10
9.2293675
20
0.5308073
40
0.6412871
50
193.4952178
51
195.5951903
0
ARC
8
DEFAULT_255_2_778
10
8.9600283
20
0.4675167
40
0.3646172
50
179.9023009
51
193.7012296
0
ARC
8
DEFAULT_255_2_778
10
9.290702
20
0.4163714
40
0.6972149
50
145.3234454
51
175.7419715
0
ARC
8
DEFAULT_255_2_778
10
16.4349308
20
-3.8478676
40
9.0158477
50
148.2958986
51
148.8708368
0
ARC
8
DEFAULT_255_2_778
10
9.6523952
20
0.3045162
40
1.0637059
50
139.9925453
51
146.5878687
0
ARC
8
DEFAULT_255_2_778
10
5.8269512
20
3.4390392
40
3.8820186
50
320.8546307
51
321.6015479
0
ARC
8
DEFAULT_255_2_778
10
8.2958575
20
1.4901263
40
0.7366154
50
321.1254803
51
327.8599411
0
ARC
8
DEFAULT_255_2_778
10
7.0072427
20
-0.9014342
40
2.7669137
50
46.2790319
51
48.9589121
0
LINE
8
DEFAULT_255_2_778
10
8.8239984
20
1.1854798
11
8.8238573
21
1.1856046
0
ARC
8
DEFAULT_255_2_778
10
9.6930317
20
2.2347725
40
1.3624307
50
219.2175072
51
230.3602341
0
ARC
8
DEFAULT_255_2_778
10
9.348707
20
1.8815965
40
0.8741539
50
203.5495886
51
215.5498427
0
ARC
8
DEFAULT_255_2_778
10
30.9046347
20
12.114168
40
24.7350569
50
205.2905114
51
205.3284742
0
ARC
8
DEFAULT_255_2_778
10
7.7900704
20
1.2287961
40
0.815028
50
22.9921785
51
36.9174523
0
ARC
8
DEFAULT_255_2_778
10
7.6707751
20
1.0352509
40
1.0300166
50
41.5440801
51
55.621905
0
ARC
8
DEFAULT_255_2_778
10
9.461739
20
3.5421461
40
2.0512242
50
230.3473098
51
233.8726964
0
ARC
8
DEFAULT_255_2_778
10
11.7152937
20
3.6644276
40
3.9480134
50
205.5307174
51
208.2233428
0
ARC
8
DEFAULT_255_2_778
10
41.7822989
20
19.518781
40
37.9388776
50
207.846485
51
207.8879385
0
ARC
8
DEFAULT_255_2_778
10
5.0519385
20
0.0301195
40
3.6417464
50
24.66174
51
28.5941144
0
ARC
8
DEFAULT_255_2_778
10
7.7013011
20
1.2456477
40
0.7268489
50
14.3144724
51
24.7261963
0
ARC
8
DEFAULT_255_2_778
10
8.0536545
20
1.3441729
40
0.3611717
50
12.1117768
51
12.9898559
0
ARC
8
DEFAULT_255_2_778
10
8.0750629
20
1.3474899
40
0.3395462
50
1.7531283
51
12.3225034
0
ARC
8
DEFAULT_255_2_778
10
8.1111873
20
1.3495907
40
0.303376
50
0.0041178
51
1.5652623
0
ARC
8
DEFAULT_255_2_778
10
8.0986561
20
1.3537375
40
0.315934
50
328.2116492
51
359.2519065
0
ARC
8
DEFAULT_255_2_778
10
7.6762556
20
1.5893836
40
0.7994173
50
326.5735247
51
329.8039869
0
ARC
8
DEFAULT_255_2_778
10
-2.7324521
20
8.4455295
40
13.2632821
50
326.4653892
51
326.6241266
0
ARC
8
DEFAULT_255_2_778
10
8.0903891
20
1.290831
40
0.2897293
50
290.3097734
51
323.4656533
0
ARC
8
DEFAULT_255_2_778
10
8.6440509
20
0.0069101
40
1.1089883
50
114.1149633
51
118.700121
0
ARC
8
DEFAULT_255_2_778
10
8.0020649
20
1.1914948
40
0.2384318
50
275.4896414
51
297.3176103
0
ARC
8
DEFAULT_255_2_778
10
7.8501774
20
2.2722113
40
1.3295816
50
276.2156881
51
277.550075
0
ARC
8
DEFAULT_255_2_778
10
7.9944036
20
0.7542773
40
0.1961688
50
90.0789532
51
123.6059578
0
ARC
8
DEFAULT_255_2_778
10
7.9404033
20
0.8550331
40
0.0830689
50
131.070167
51
146.9357036
0
ARC
8
DEFAULT_255_2_778
10
8.0850937
20
0.7654289
40
0.2532435
50
147.8060255
51
176.5462199
0
ARC
8
DEFAULT_255_2_778
10
8.0960177
20
0.7626617
40
0.2643227
50
176.0901203
51
179.9892794
0
ARC
8
DEFAULT_255_2_778
10
8.0422265
20
0.7587501
40
0.2105688
50
178.9221394
51
208.1049044
0
ARC
8
DEFAULT_255_2_778
10
8.466385
20
1.1147085
40
0.8526627
50
219.143395
51
239.6294278
0
ARC
8
DEFAULT_255_2_778
10
7.2482675
20
0.1555575
40
0.697998
50
37.0854241
51
40.9084626
0
ARC
8
DEFAULT_255_2_778
10
4.2498123
20
-2.4170965
40
4.6488494
50
40.6712709
51
41.0286408
0
ARC
8
DEFAULT_255_2_778
10
7.9742909
20
0.8637857
40
0.3159605
50
191.6924232
51
226.5051164
0
ARC
8
DEFAULT_255_2_778
10
8.4583457
20
0.9032935
40
0.8001861
50
180.9202645
51
187.4346051
0
ARC
8
DEFAULT_255_2_778
10
7.927142
20
0.897629
40
0.2689752
50
153.4825225
51
181.5311825
0
ARC
8
DEFAULT_255_2_778
10
7.9283559
20
0.8928036
40
0.2722419
50
143.7575786
51
152.687845
0
ARC
8
DEFAULT_255_2_778
10
7.9100308
20
0.8843399
40
0.2630594
50
112.9277725
51
139.90823
0
ARC
8
DEFAULT_255_2_778
10
8.3326575
20
0.0373662
40
1.2092163
50
112.7651722
51
115.7378265
0
ARC
8
DEFAULT_255_2_778
10
53.0882829
20
-105.089613
40
115.4665754
50
113.0444108
51
113.0577745
0
ARC
8
DEFAULT_255_2_778
10
7.6663564
20
1.7316195
40
0.6109133
50
291.4263513
51
301.8583095
0
ARC
8
DEFAULT_255_2_778
10
7.8784088
20
1.3773307
40
0.1981904
50
303.8514081
51
310.3342435
0
ARC
8
DEFAULT_255_2_778
10
7.5155894
20
1.8170985
40
0.7682929
50
309.7326239
51
315.4933188
0
ARC
8
DEFAULT_255_2_778
10
7.8372874
20
1.4936446
40
0.3121721
50
316.4421274
51
318.726879
0
ARC
8
DEFAULT_255_2_778
10
7.9666048
20
1.39058
40
0.1472032
50
315.6725337
51
359.8981651
0
ARC
8
DEFAULT_255_2_778
10
7.9226988
20
1.3898809
40
0.1911093
50
0.1311537
51
6.4815082
0
ARC
8
DEFAULT_255_2_778
10
7.8529094
20
1.3481404
40
0.2672843
50
13.7022813
51
60.1309655
0
ARC
8
DEFAULT_255_2_778
10
7.1676324
20
0.4726965
40
1.3768464
50
53.5305363
51
54.9167983
0
ARC
8
DEFAULT_255_2_778
10
6.5823537
20
-0.3551305
40
2.3906722
50
54.8415917
51
54.9941595
0
ARC
8
DEFAULT_255_2_778
10
5.7973336
20
-1.316447
40
3.6295695
50
53.5490319
51
56.2160017
0
ARC
8
DEFAULT_255_2_778
10
-10.6804579
20
-25.8691572
40
33.1990301
50
56.142685
51
56.410983
0
ARC
8
DEFAULT_255_2_778
10
9.0461864
20
3.9370961
40
2.5444384
50
227.6513439
51
237.6931792
0
ARC
8
DEFAULT_255_2_778
10
8.1161028
20
2.8689505
40
1.1289317
50
223.3805691
51
226.0189777
0
ARC
8
DEFAULT_255_2_778
10
7.8783551
20
2.6824339
40
0.8284919
50
214.0593663
51
225.2988685
0
ARC
8
DEFAULT_255_2_778
10
7.5956095
20
2.4919857
40
0.4875886
50
196.2854527
51
214.1267972
0
ARC
8
DEFAULT_255_2_778
10
7.5642023
20
2.48003
40
0.4540969
50
195.293751
51
195.9487275
0
ARC
8
DEFAULT_255_2_778
10
7.3201491
20
2.4148109
40
0.2014892
50
180.278526
51
195.7100548
0
ARC
8
DEFAULT_255_2_778
10
7.3054416
20
2.4138103
40
0.1867793
50
175.5541779
51
179.9935079
0
ARC
8
DEFAULT_255_2_778
10
7.4216398
20
2.3927512
40
0.3044963
50
151.2990018
51
173.2977699
0
ARC
8
DEFAULT_255_2_778
10
8.1243947
20
2.0563677
40
1.0832851
50
150.9395675
51
153.5440248
0
ARC
8
DEFAULT_255_2_778
10
7.5000576
20
2.3901754
40
0.3755815
50
136.781358
51
149.1885393
0
ARC
8
DEFAULT_255_2_778
10
8.9445989
20
1.0731735
40
2.3303331
50
135.1175575
51
137.5052018
0
ARC
8
DEFAULT_255_2_778
10
5.667562
20
4.3151023
40
2.2793647
50
315.5038432
51
316.9202654
0
ARC
8
DEFAULT_255_2_778
10
6.9500981
20
3.1308735
40
0.5338626
50
315.7367718
51
327.7354098
0
ARC
8
DEFAULT_255_2_778
10
7.2643393
20
2.9303906
40
0.1611287
50
328.3667359
51
346.4553832
0
ARC
8
DEFAULT_255_2_778
10
7.2902068
20
2.9217708
40
0.133982
50
347.4483144
51
359.5511991
0
ARC
8
DEFAULT_255_2_778
10
7.3081574
20
2.9089426
40
0.1166237
50
5.7966432
51
77.3475803
0
ARC
8
DEFAULT_255_2_778
10
6.8824797
20
2.000196
40
1.1176701
50
66.1892415
51
67.394117
0
ARC
8
DEFAULT_255_2_778
10
10.2953604
20
10.1777818
40
7.743519
50
247.1997911
51
247.3401878
0
ARC
8
DEFAULT_255_2_778
10
7.6771057
20
3.9495411
40
0.9873188
50
246.0609503
51
247.2060342
0
ARC
8
DEFAULT_255_2_778
10
7.2068675
20
2.8664742
40
0.1936284
50
68.9274229
51
90.7677302
0
ARC
8
DEFAULT_255_2_778
10
7.1894945
20
2.5206897
40
0.5395979
50
88.4305807
51
90.051153
0
ARC
8
DEFAULT_255_2_778
10
7.1969959
20
1.6377635
40
1.4225464
50
90.3215378
51
92.0690055
0
ARC
8
DEFAULT_255_2_778
10
7.0069594
20
7.485332
40
4.4281215
50
271.6121009
51
271.7946595
0
ARC
8
DEFAULT_255_2_778
10
7.0989406
20
4.145193
40
1.0867187
50
270.1414032
51
271.7187355
0
ARC
8
DEFAULT_255_2_778
10
7.0870139
20
3.2835381
40
0.2255341
50
245.2469905
51
273.7138585
0
ARC
8
DEFAULT_255_2_778
10
7.0423918
20
3.1678306
40
0.1020821
50
230.1551421
51
240.7942921
0
ARC
8
DEFAULT_255_2_778
10
7.0397868
20
3.157691
40
0.0927372
50
174.5919317
51
227.3759809
0
ARC
8
DEFAULT_255_2_778
10
7.4655304
20
3.1579422
40
0.5181374
50
174.1922778
51
179.0612247
0
ARC
8
DEFAULT_255_2_778
10
5.3800463
20
3.3485899
40
1.5760785
50
354.9688774
51
355.5001941
0
ARC
8
DEFAULT_255_2_778
10
6.557564
20
3.2579956
40
0.3950881
50
355.2002969
51
359.5995544
0
ARC
8
DEFAULT_255_2_778
10
6.8426801
20
3.2643171
40
0.1103369
50
355.2781135
51
47.8763126
0
ARC
8
DEFAULT_255_2_778
10
6.7883469
20
3.171315
40
0.2168864
50
53.7196147
51
83.4008186
0
ARC
8
DEFAULT_255_2_778
10
6.6097122
20
2.1827846
40
1.2210668
50
80.4036078
51
83.5910123
0
ARC
8
DEFAULT_255_2_778
10
7.1800996
20
7.028295
40
3.6579226
50
262.6500281
51
263.1846424
0
ARC
8
DEFAULT_255_2_778
10
6.7352115
20
3.7677547
40
0.3680497
50
239.0970685
51
266.4064471
0
ARC
8
DEFAULT_255_2_778
10
6.8147826
20
3.804947
40
0.4435628
50
191.1285023
51
232.7321384
0
ARC
8
DEFAULT_255_2_778
10
11.4375541
20
5.2575494
40
5.2867198
50
196.8154588
51
196.9153315
0
ARC
8
DEFAULT_255_2_778
10
7.0149242
20
3.92044
40
0.6663827
50
190.6269514
51
196.7712982
0
ARC
8
DEFAULT_255_2_778
10
7.0105536
20
3.92111
40
0.6622122
50
180.1901753
51
190.7536626
0
ARC
8
DEFAULT_255_2_778
10
6.7948309
20
3.9238962
40
0.4465137
50
166.8357688
51
180.6395795
0
ARC
8
DEFAULT_255_2_778
10
6.642538
20
3.9550013
40
0.2911722
50
164.0420328
51
165.9707087
0
ARC
8
DEFAULT_255_2_778
10
6.5102505
20
3.9910844
40
0.1540711
50
120.4403316
51
163.4181916
0
ARC
8
DEFAULT_255_2_778
10
6.7692546
20
3.6262594
40
0.601062
50
123.0778416
51
124.109686
0
ARC
8
DEFAULT_255_2_778
10
8.4069794
20
1.1076222
40
3.6053381
50
122.8273137
51
123.0410015
0
ARC
8
DEFAULT_255_2_778
10
6.3206618
20
4.3549603
40
0.2545418
50
301.1927207
51
312.8855422
0
ARC
8
DEFAULT_255_2_778
10
6.0985285
20
4.5781645
40
0.56936
50
313.9786529
51
317.4411625
0
ARC
8
DEFAULT_255_2_778
10
6.4629881
20
4.2521695
40
0.0806721
50
312.9060683
51
355.3383393
0
ARC
8
DEFAULT_255_2_778
10
6.4696817
20
4.2424425
40
0.0737799
50
2.4630485
51
37.6553527
0
ARC
8
DEFAULT_255_2_778
10
6.3913535
20
4.1919336
40
0.1668342
50
34.9537559
51
42.1787699
0
ARC
8
DEFAULT_255_2_778
10
6.4441303
20
4.2264707
40
0.1049965
50
47.5578768
51
88.5093482
0
ARC
8
DEFAULT_255_2_778
10
6.3769686
20
3.6066445
40
0.7281493
50
84.4918532
51
90.0411955
0
ARC
8
DEFAULT_255_2_778
10
6.3881272
20
5.6134849
40
1.2787446
50
266.8247365
51
269.4765605
0
ARC
8
DEFAULT_255_2_778
10
6.317515
20
4.5899328
40
0.2532295
50
236.8353809
51
269.9506739
0
ARC
8
DEFAULT_255_2_778
10
6.3144513
20
4.5261428
40
0.2007751
50
180.0420122
51
227.5684878
0
ARC
8
DEFAULT_255_2_778
10
7.2262083
20
4.6513551
40
1.1195726
50
185.1382796
51
186.4289411
0
ARC
8
DEFAULT_255_2_778
10
10.2552965
20
4.9271813
40
4.1611925
50
184.9380459
51
185.1855551
0
ARC
8
DEFAULT_255_2_778
10
5.7100613
20
4.5568651
40
0.3996716
50
1.7387615
51
19.256094
0
ARC
8
DEFAULT_255_2_778
10
5.9788841
20
4.6432564
40
0.1176116
50
22.7157456
51
41.999958
0
ARC
8
DEFAULT_255_2_778
10
5.9224155
20
4.5740067
40
0.2063668
50
45.800225
51
86.7669124
0
ARC
8
DEFAULT_255_2_778
10
5.8223316
20
3.8090894
40
0.9773622
50
83.4361523
51
87.135593
0
ARC
8
DEFAULT_255_2_778
10
5.8865593
20
5.2393621
40
0.4543924
50
259.3981304
51
268.0594978
0
ARC
8
DEFAULT_255_2_778
10
5.8341065
20
4.9320032
40
0.142717
50
253.7987086
51
257.393779
0
ARC
8
DEFAULT_255_2_778
10
5.7713236
20
4.7172596
40
0.0810167
50
73.5346081
51
89.9834059
0
ARC
8
DEFAULT_255_2_778
10
5.774261
20
4.678551
40
0.1197606
50
91.3942368
51
106.7007785
0
ARC
8
DEFAULT_255_2_778
10
5.7068921
20
4.8940717
40
0.1060609
50
273.797498
51
288.1012794
0
ARC
8
DEFAULT_255_2_778
10
5.7138078
20
4.8198115
40
0.0315681
50
218.5920945
51
270.1973846
0
ARC
8
DEFAULT_255_2_778
10
5.7656571
20
4.8645761
40
0.1000517
50
203.4406661
51
220.1076188
0
ARC
8
DEFAULT_255_2_778
10
5.9517414
20
4.9512013
40
0.3052869
50
197.8323728
51
204.4639633
0
ARC
8
DEFAULT_255_2_778
10
6.1966343
20
5.0345761
40
0.5639633
50
196.78079
51
198.2768393
0
ARC
8
DEFAULT_255_2_778
10
6.1705416
20
5.0179631
40
0.5342509
50
188.8506039
51
195.8828634
0
ARC
8
DEFAULT_255_2_778
10
7.3934229
20
5.2180817
40
1.7733871
50
186.0756444
51
189.1602823
0
ARC
8
DEFAULT_255_2_778
10
11.8874432
20
5.7097903
40
6.2942216
50
185.1865144
51
186.196653
0
ARC
8
DEFAULT_255_2_778
10
-35.275132
20
1.3857891
40
41.0661602
50
5.2463501
51
5.3797097
0
ARC
8
DEFAULT_255_2_778
10
2.0200379
20
4.9179543
40
3.6041615
50
5.0622369
51
8.2447212
0
ARC
8
DEFAULT_255_2_778
10
4.5759755
20
5.2884267
40
1.0215143
50
8.2380863
51
14.4259208
0
ARC
8
DEFAULT_255_2_778
10
5.1759721
20
5.4406969
40
0.4025055
50
14.7115867
51
21.3376434
0
ARC
8
DEFAULT_255_2_778
10
5.3890379
20
5.5268782
40
0.1727084
50
20.4263193
51
39.1835226
0
ARC
8
DEFAULT_255_2_778
10
5.4499952
20
5.5729756
40
0.0963742
50
40.8375869
51
89.1910758
0
ARC
8
DEFAULT_255_2_778
10
5.425586
20
5.3767557
40
0.2937171
50
84.9665924
51
85.1977903
0
ARC
8
DEFAULT_255_2_778
10
5.4013317
20
5.060954
40
0.6104449
50
85.4107177
51
86.6890096
0
ARC
8
DEFAULT_255_2_778
10
5.4281933
20
5.7651288
40
0.0951199
50
217.2146612
51
275.0633201
0
ARC
8
DEFAULT_255_2_778
10
5.493281
20
5.803275
40
0.1702624
50
197.2610204
51
214.1891529
0
ARC
8
DEFAULT_255_2_778
10
5.8083006
20
5.901362
40
0.5001994
50
183.4101088
51
197.2833764
0
ARC
8
DEFAULT_255_2_778
10
6.5305505
20
5.9595693
40
1.2247263
50
179.7129677
51
184.1185562
0
ARC
8
DEFAULT_255_2_778
10
9.7361247
20
5.9393537
40
4.4303635
50
177.9692165
51
179.6592127
0
ARC
8
DEFAULT_255_2_778
10
0.7245661
20
6.2552123
40
4.5867297
50
358.0151526
51
359.7385839
0
ARC
8
DEFAULT_255_2_778
10
3.3267913
20
6.2361485
40
1.9844576
50
359.9461992
51
1.7646003
0
ARC
8
DEFAULT_255_2_778
10
3.9570506
20
6.2573354
40
1.3538459
50
1.6897263
51
5.6640511
0
ARC
8
DEFAULT_255_2_778
10
3.4023282
20
9.7079435
40
3.2252286
50
300.7139932
51
303.8422939
0
ARC
8
DEFAULT_255_2_778
10
3.8661501
20
8.9240713
40
2.3144142
50
295.7000203
51
300.7537167
0
ARC
8
DEFAULT_255_2_778
10
4.0190877
20
8.6134358
40
1.9681873
50
291.8465027
51
295.609819
0
ARC
8
DEFAULT_255_2_778
10
3.8949015
20
8.9660471
40
2.3417422
50
282.4585834
51
291.4563338
0
ARC
8
DEFAULT_255_2_778
10
3.2150487
20
11.8664845
40
5.3206847
50
280.8779036
51
282.8690957
0
ARC
8
DEFAULT_255_2_778
10
2.4740383
20
15.6147143
40
9.1414283
50
280.8249849
51
281.0054008
0
ARC
8
DEFAULT_255_2_778
10
-18.2694796
20
7.4049129
40
22.4735255
50
357.654587
51
358.0391724
0
ARC
8
DEFAULT_255_2_778
10
-31.7308919
20
7.9568695
40
35.946249
50
357.4306841
51
357.6536262
0
ARC
8
DEFAULT_255_2_778
10
-63.8654263
20
9.3857013
40
68.1125321
50
357.4034316
51
357.4417301
0
ARC
8
DEFAULT_255_2_778
10
197.4888139
20
-2.5628857
40
193.5147044
50
177.3749644
51
177.4302637
0
ARC
8
DEFAULT_255_2_778
10
23.09919
20
5.2482745
40
18.9502387
50
177.3833691
51
178.1927889
0
ARC
8
DEFAULT_255_2_778
10
12.7265595
20
5.5756043
40
8.5724447
50
178.1931229
51
179.9228872
0
ARC
8
DEFAULT_255_2_778
10
10.5819179
20
5.5865495
40
6.4277953
50
179.9947215
51
180.632801
0
ARC
8
DEFAULT_255_2_778
10
9.0794502
20
5.5557941
40
4.9251
50
180.4680725
51
186.3479323
0
ARC
8
DEFAULT_255_2_778
10
8.7832474
20
5.5332725
40
4.6282347
50
186.4762633
51
190.6990953
0
ARC
8
DEFAULT_255_2_778
10
9.4225001
20
5.6551186
40
5.2789954
50
190.7104911
51
194.0811985
0
ARC
8
DEFAULT_255_2_778
10
10.5173974
20
5.9293081
40
6.4077026
50
194.0773154
51
196.7763616
0
ARC
8
DEFAULT_255_2_778
10
11.3452857
20
6.172734
40
7.270619
50
196.7299167
51
197.089488
0
ARC
8
DEFAULT_255_2_778
10
8.1409048
20
5.1833372
40
3.9169745
50
197.0301489
51
203.7829979
0
ARC
8
DEFAULT_255_2_778
10
8.5540469
20
5.4158037
40
4.3890221
50
204.3850217
51
220.7060418
0
ARC
8
DEFAULT_255_2_778
10
10.9180294
20
7.3022676
40
7.4122281
50
219.8427742
51
221.2636178
0
ARC
8
DEFAULT_255_2_778
10
13.3028966
20
9.4139476
40
10.5976069
50
221.3416642
51
223.4966883
0
ARC
8
DEFAULT_255_2_778
10
20.2935718
20
16.0288995
40
20.2219012
50
223.4593153
51
224.4369975
0
ARC
8
DEFAULT_255_2_778
10
44.7723639
20
40.0010858
40
54.4837868
50
224.4143194
51
224.7308819
0
ARC
8
DEFAULT_255_2_778
10
-148.2383618
20
-151.1819123
40
217.1852749
50
44.6434627
51
44.7265621
0
ARC
8
DEFAULT_255_2_778
10
13.679068
20
11.3603812
40
12.3772067
50
231.6704933
51
233.3308746
0
ARC
8
DEFAULT_255_2_778
10
12.2186936
20
9.5142366
40
10.023286
50
229.7005514
51
231.6742283
0
ARC
8
DEFAULT_255_2_778
10
11.0396691
20
8.1245641
40
8.2008459
50
227.3962235
51
229.7033195
0
ARC
8
DEFAULT_255_2_778
10
10.0712365
20
7.0729164
40
6.7712223
50
224.5224046
51
227.4041026
0
ARC
8
DEFAULT_255_2_778
10
9.3096474
20
6.3235521
40
5.7027818
50
221.2996211
51
224.5197744
0
ARC
8
DEFAULT_255_2_778
10
8.6827092
20
5.7757403
40
4.8702293
50
216.2860126
51
221.3257782
0
ARC
8
DEFAULT_255_2_778
10
8.2697331
20
5.4715614
40
4.3573226
50
207.7994683
51
216.2756993
0
ARC
8
DEFAULT_255_2_778
10
8.6245445
20
5.6492225
40
4.7540479
50
200.9234694
51
207.6991955
0
ARC
8
DEFAULT_255_2_778
10
7.9935848
20
5.4197293
40
4.0827528
50
195.3287434
51
201.0774003
0
ARC
8
DEFAULT_255_2_778
10
7.9604736
20
5.4068817
40
4.0474248
50
188.2999331
51
195.2772533
0
ARC
8
DEFAULT_255_2_778
10
8.9311837
20
5.5329466
40
5.0261892
50
181.0079067
51
188.1245811
0
ARC
8
DEFAULT_255_2_778
10
11.1185573
20
5.6021766
40
7.2145077
50
179.9783873
51
181.252057
0
ARC
8
DEFAULT_255_2_778
10
17.1706023
20
5.545565
40
13.2666848
50
177.3777266
51
179.7437536
0
ARC
8
DEFAULT_255_2_778
10
89.8692746
20
2.559641
40
86.0265264
50
177.4822468
51
177.6063491
0
ARC
8
DEFAULT_255_2_778
10
-52.6577801
20
8.8249919
40
56.6381711
50
357.4840272
51
357.6730219
0
ARC
8
DEFAULT_255_2_778
10
10.2312044
20
6.1396897
40
0.7881416
50
81.1610976
51
87.2959454
0
ARC
8
DEFAULT_255_2_778
10
10.2873997
20
6.4132056
40
0.509418
50
62.3163843
51
82.6797008
0
ARC
8
DEFAULT_255_2_778
10
10.4080909
20
6.666372
40
0.2294123
50
56.7169775
51
59.6323358
0
ARC
8
DEFAULT_255_2_778
10
11.4614788
20
8.2892395
40
1.7053586
50
237.0525716
51
238.9564285
0
ARC
8
DEFAULT_255_2_778
10
20.5686456
20
23.2415463
40
19.2128202
50
238.6819353
51
238.6972185
0
ARC
8
DEFAULT_255_2_778
10
10.253214
20
6.2256703
40
0.6861365
50
46.6187399
51
60.9463464
0
ARC
8
DEFAULT_255_2_778
10
9.9478995
20
5.9302133
40
1.1107416
50
13.8845506
51
45.640273
0
ARC
8
DEFAULT_255_2_778
10
9.4936276
20
5.8690251
40
1.5672088
50
3.4810012
51
12.0705616
0
ARC
8
DEFAULT_255_2_778
10
4.5641558
20
5.4671923
40
6.5127792
50
3.6407984
51
4.3764931
0
ARC
8
DEFAULT_255_2_778
10
-24.4506017
20
3.5807863
40
35.5887896
50
3.6551187
51
3.7054019
0
ARC
8
DEFAULT_255_2_778
10
19.3773784
20
6.3657163
40
8.3275924
50
183.5533272
51
184.2501184
0
ARC
8
DEFAULT_255_2_778
10
14.5037699
20
6.8078098
40
3.5908711
50
195.5537466
51
197.1566856
0
ARC
8
DEFAULT_255_2_778
10
33.8135724
20
12.2474755
40
23.6522231
50
195.6251793
51
195.7056056
0
ARC
8
DEFAULT_255_2_778
10
9.4106734
20
5.4746327
40
1.673821
50
13.9064091
51
24.2594343
0
ARC
8
DEFAULT_255_2_778
10
10.0188311
20
5.7352993
40
1.012341
50
24.9513461
51
63.9701205
0
ARC
8
DEFAULT_255_2_778
10
10.3570943
20
6.4145038
40
0.2536564
50
65.300586
51
89.9876813
0
ARC
8
DEFAULT_255_2_778
10
10.3571451
20
6.4159157
40
0.2522445
50
89.9991342
51
91.9799652
0
ARC
8
DEFAULT_255_2_778
10
10.3571068
20
6.4164378
40
0.2517214
50
91.9753648
51
100.4878627
0
ARC
8
DEFAULT_255_2_778
10
10.5020063
20
6.7813899
40
0.223976
50
211.6227916
51
216.5488249
0
ARC
8
DEFAULT_255_2_778
10
11.8797722
20
7.7873796
40
1.9299177
50
216.1834036
51
216.4922288
0
ARC
8
DEFAULT_255_2_778
10
10.2378401
20
6.5600589
40
0.1204312
50
5.142649
51
41.3553401
0
ARC
8
DEFAULT_255_2_778
10
10.1442018
20
6.5626419
40
0.2137427
50
359.9849474
51
2.2018267
0
ARC
8
DEFAULT_255_2_778
10
10.1417933
20
6.5618099
40
0.2161525
50
342.6686192
51
0.2056571
0
ARC
8
DEFAULT_255_2_778
10
10.2194113
20
6.5344749
40
0.1339485
50
296.6472183
51
343.9398515
0
ARC
8
DEFAULT_255_2_778
10
10.1681265
20
6.6431771
40
0.2541226
50
274.8999201
51
295.9900052
0
ARC
8
DEFAULT_255_2_778
10
10.1672074
20
6.6524894
40
0.2634793
50
269.9864835
51
274.9260868
0
ARC
8
DEFAULT_255_2_778
10
10.1769015
20
6.7252663
40
0.3363976
50
227.9034502
51
268.3380618
0
ARC
8
DEFAULT_255_2_778
10
10.1380495
20
6.6850542
40
0.2805201
50
179.6975614
51
228.2856747
0
ARC
8
DEFAULT_255_2_778
10
10.1424966
20
6.6865346
40
0.2849633
50
179.0399999
51
179.9999367
0
ARC
8
DEFAULT_255_2_778
10
10.1301042
20
6.6874288
40
0.2725584
50
157.1761753
51
179.1842875
0
ARC
8
DEFAULT_255_2_778
10
10.0730982
20
6.6940174
40
0.2180508
50
96.1921298
51
152.9576863
0
ARC
8
DEFAULT_255_2_778
10
10.1679456
20
6.341852
40
0.5811265
50
95.2717601
51
101.7525521
0
ARC
8
DEFAULT_255_2_778
10
10.198068
20
6.0081924
40
0.9161425
50
89.7818928
51
95.2303866
0
ARC
8
DEFAULT_255_2_778
10
10.1989051
20
5.4124909
40
1.5118399
50
87.6595774
51
89.8995545
0
ARC
8
DEFAULT_255_2_778
10
10.1702218
20
4.6124287
40
2.3124096
50
87.5669886
51
87.7590006
0
ARC
8
DEFAULT_255_2_778
10
9.8089954
20
7.1121625
40
0.6836387
50
144.1690056
51
179.4643345
0
ARC
8
DEFAULT_255_2_778
10
9.6869485
20
7.1729687
40
0.5495401
50
117.9844578
51
141.8592692
0
ARC
8
DEFAULT_255_2_778
10
11.5742981
20
3.3166081
40
4.8427079
50
115.2194479
51
116.2940228
0
ARC
8
DEFAULT_255_2_778
10
10.5930211
20
5.3876471
40
2.5509719
50
114.2834777
51
115.1003502
0
ARC
8
DEFAULT_255_2_778
10
10.1201766
20
6.475216
40
1.3652679
50
105.0152331
51
114.9657149
0
ARC
8
DEFAULT_255_2_778
10
9.9409111
20
7.1126356
40
0.7032139
50
96.9691592
51
104.3630147
0
ARC
8
DEFAULT_255_2_778
10
9.954903
20
6.9264134
40
0.8898004
50
93.0191132
51
96.4085043
0
ARC
8
DEFAULT_255_2_778
10
9.9877921
20
6.3321221
40
1.485
50
90.2821348
51
93.0786331
0
ARC
8
DEFAULT_255_2_778
10
9.9917773
20
6.0345101
40
1.7826298
50
89.9992625
51
90.3631197
0
ARC
8
DEFAULT_255_2_778
10
9.9896897
20
5.7811649
40
2.0359759
50
86.2260175
51
89.9406068
0
ARC
8
DEFAULT_255_2_778
10
9.9945705
20
5.8167859
40
2.0001124
50
82.1514499
51
86.2983653
0
ARC
8
DEFAULT_255_2_778
10
10.1007117
20
6.5015174
40
1.3073529
50
71.8085812
51
82.6617389
0
ARC
8
DEFAULT_255_2_778
10
10.2746125
20
7.0580229
40
0.724422
50
65.6597215
51
71.1340801
0
ARC
8
DEFAULT_255_2_778
10
9.9162512
20
6.4064648
40
1.4669117
50
51.8957014
51
63.3950907
0
ARC
8
DEFAULT_255_2_778
10
-531.805681
20
-731.0995155
40
916.5496356
50
53.6979415
51
53.6986276
0
ARC
8
DEFAULT_255_2_778
10
12.0338046
20
9.1404125
40
1.9910411
50
232.8107404
51
238.5505468
0
ARC
8
DEFAULT_255_2_778
10
10.4113131
20
5.8077109
40
1.6993092
50
51.1537231
51
55.2388062
0
ARC
8
DEFAULT_255_2_778
10
10.2871165
20
5.6506806
40
1.8995104
50
50.7071115
51
51.2070006
0
ARC
8
DEFAULT_255_2_778
10
9.5947934
20
4.8383319
40
2.966717
50
46.1347055
51
50.2947048
0
ARC
8
DEFAULT_255_2_778
10
13.8911736
20
9.2874867
40
3.2182691
50
225.8773412
51
229.2259954
0
ARC
8
DEFAULT_255_2_778
10
12.3674437
20
7.5348422
40
0.8959415
50
229.8204704
51
235.2209381
0
ARC
8
DEFAULT_255_2_778
10
12.0368736
20
7.1256966
40
0.3732779
50
241.0845088
51
265.5490425
0
ARC
8
DEFAULT_255_2_778
10
11.805973
20
5.3606934
40
1.4074128
50
79.0001422
51
81.7508737
0
ARC
8
DEFAULT_255_2_778
10
11.9751476
20
6.2440947
40
0.507968
50
73.503723
51
78.7190217
0
ARC
8
DEFAULT_255_2_778
10
11.5945013
20
8.5335072
40
1.8772273
50
285.8673583
51
286.2367344
0
ARC
8
DEFAULT_255_2_778
10
11.9065478
20
7.3918507
40
0.6938578
50
276.0593431
51
286.8570772
0
ARC
8
DEFAULT_255_2_778
10
11.9477014
20
7.0686718
40
0.3682033
50
270.0991949
51
274.9996831
0
ARC
8
DEFAULT_255_2_778
10
11.9451474
20
6.9485397
40
0.2480911
50
253.186843
51
270.7370794
0
ARC
8
DEFAULT_255_2_778
10
12.2855012
20
7.7603266
40
1.1273029
50
230.1194411
51
248.5569842
0
ARC
8
DEFAULT_255_2_778
10
7.2112995
20
1.7264581
40
6.7565538
50
49.9074138
51
50.8285911
0
ARC
8
DEFAULT_255_2_778
10
9.9774939
20
5.1219785
40
2.3768975
50
50.8229089
51
53.0716931
0
ARC
8
DEFAULT_255_2_778
10
10.4034497
20
5.6845607
40
1.6712571
50
53.1572627
51
55.8391466
0
ARC
8
DEFAULT_255_2_778
10
10.2348378
20
5.4291985
40
1.9772427
50
55.9512925
51
59.1571105
0
ARC
8
DEFAULT_255_2_778
10
9.7242317
20
4.5857607
40
2.9631848
50
59.0415629
51
59.853367
0
ARC
8
DEFAULT_255_2_778
10
10.2095999
20
6.8296918
40
0.8031458
50
66.5051993
51
74.9819619
0
ARC
8
DEFAULT_255_2_778
10
10.0463045
20
6.2550164
40
1.400534
50
74.621701
51
80.1745724
0
ARC
8
DEFAULT_255_2_778
10
10.0583031
20
6.3651473
40
1.2899898
50
79.8649543
51
87.1419646
0
ARC
8
DEFAULT_255_2_778
10
10.0875964
20
6.8539036
40
0.8003957
50
87.4917806
51
89.9416374
0
ARC
8
DEFAULT_255_2_778
10
10.0881521
20
7.0179651
40
0.6363339
50
89.9766216
51
91.5908063
0
ARC
8
DEFAULT_255_2_778
10
10.125357
20
5.6937449
40
1.9610767
50
91.6033271
51
95.8451743
0
ARC
8
DEFAULT_255_2_778
10
10.080492
20
6.1415909
40
1.5109905
50
95.8822296
51
99.5828941
0
ARC
8
DEFAULT_255_2_778
10
9.9412687
20
6.8365536
40
0.8028386
50
98.0421174
51
119.2636378
0
ARC
8
DEFAULT_255_2_778
10
9.7548844
20
7.1975697
40
0.3970279
50
121.266696
51
131.7546666
0
ARC
8
DEFAULT_255_2_778
10
10.0509688
20
6.8660266
40
0.8415353
50
131.7608795
51
137.9471876
0
ARC
8
DEFAULT_255_2_778
10
9.8695623
20
7.0332225
40
0.5948513
50
138.2013569
51
140.9259001
0
ARC
8
DEFAULT_255_2_778
10
9.6658779
20
7.1811242
40
0.3437662
50
138.6641346
51
179.8352164
0
ARC
8
DEFAULT_255_2_778
10
9.7733403
20
7.1846416
40
0.4512344
50
180.3210954
51
190.4919979
0
ARC
8
DEFAULT_255_2_778
10
9.8860248
20
7.2021724
40
0.5652367
50
190.1593141
51
190.7384802
0
ARC
8
DEFAULT_255_2_778
10
8.8444014
20
7.515645
40
0.6417627
50
319.2648093
51
326.4309442
0
ARC
8
DEFAULT_255_2_778
10
-6.3230632
20
17.8035243
40
18.9690996
50
325.8711069
51
325.9908529
0
ARC
8
DEFAULT_255_2_778
10
9.7540586
20
6.9725957
40
0.4162521
50
133.0543523
51
147.9265945
0
ARC
8
DEFAULT_255_2_778
10
9.7110473
20
6.9882567
40
0.3760173
50
87.5177705
51
129.8929449
0
ARC
8
DEFAULT_255_2_778
10
9.7199802
20
6.4807302
40
0.8832215
50
82.3807123
51
89.5230481
0
ARC
8
DEFAULT_255_2_778
10
9.8087022
20
7.0515012
40
0.305972
50
18.0176228
51
84.6771164
0
ARC
8
DEFAULT_255_2_778
10
9.4642308
20
6.8822735
40
0.688047
50
19.1034368
51
22.5508058
0
ARC
8
DEFAULT_255_2_778
10
12.203867
20
9.8945068
40
3.4833306
50
232.1133786
51
233.1407525
0
ARC
8
DEFAULT_255_2_778
10
9.3769341
20
6.237535
40
1.1389684
50
52.8506979
51
53.3738029
0
ARC
8
DEFAULT_255_2_778
10
9.6811583
20
6.6517606
40
0.6250431
50
53.1015389
51
57.442386
0
ARC
8
DEFAULT_255_2_778
10
9.8870284
20
6.979882
40
0.2377169
50
56.7048569
51
69.5751131
0
ARC
8
DEFAULT_255_2_778
10
9.8376889
20
6.8334977
40
0.3921466
50
70.2834019
51
86.6217899
0
ARC
8
DEFAULT_255_2_778
10
9.8460718
20
6.9132436
40
0.3120669
50
87.2954509
51
89.9944417
0
ARC
8
DEFAULT_255_2_778
10
9.846179
20
6.9169774
40
0.3083331
50
90.0143007
51
100.1118906
0
ARC
8
DEFAULT_255_2_778
10
9.8751194
20
6.7950084
40
0.4335465
50
101.0471564
51
117.9188907
0
ARC
8
DEFAULT_255_2_778
10
9.9979857
20
6.5334749
40
0.7223024
50
116.8170571
51
117.7755093
0
ARC
8
DEFAULT_255_2_778
10
9.7410453
20
7.0079612
40
0.1828557
50
115.8257947
51
147.9881944
0
ARC
8
DEFAULT_255_2_778
10
9.8318656
20
6.9872753
40
0.2725547
50
154.4350593
51
183.8939541
0
ARC
8
DEFAULT_255_2_778
10
8.8129194
20
6.9743801
40
0.7470418
50
353.7964318
51
359.5694189
0
ARC
8
DEFAULT_255_2_778
10
9.0496455
20
6.9880058
40
0.5146637
50
338.7663933
51
349.4363699
0
ARC
8
DEFAULT_255_2_778
10
-15.5806095
20
15.7723221
40
26.664297
50
340.3326613
51
340.340382
0
ARC
8
DEFAULT_255_2_778
10
10.4751659
20
6.4520186
40
1.008305
50
159.9185526
51
162.5457507
0
ARC
8
DEFAULT_255_2_778
10
9.5744087
20
7.0234578
40
0.2758606
50
226.8334749
51
257.1988206
0
ARC
8
DEFAULT_255_2_778
10
8.8910354
20
6.8073606
40
0.4948754
50
359.954948
51
1.7245651
0
ARC
8
DEFAULT_255_2_778
10
8.2663946
20
6.8123211
40
1.1195289
50
357.9758126
51
359.7262166
0
LINE
8
DEFAULT_255_2_778
10
9.3852249
20
6.7727778
11
9.3852201
21
6.77262
0
ARC
8
DEFAULT_255_2_778
10
10.5092741
20
6.7328404
40
1.1247576
50
177.9731789
51
179.7238144
0
ARC
8
DEFAULT_255_2_778
10
9.7473255
20
6.7344057
40
0.3628164
50
179.3909971
51
190.8429117
0
ARC
8
DEFAULT_255_2_778
10
10.4308211
20
6.8986467
40
1.0655086
50
192.6032721
51
198.2400676
0
ARC
8
DEFAULT_255_2_778
10
5.6476307
20
5.3992875
40
3.9473181
50
16.854893
51
17.1787618
0
ARC
8
DEFAULT_255_2_778
10
8.5529672
20
6.2722961
40
0.9136869
50
12.7891812
51
17.2871402
0
ARC
8
DEFAULT_255_2_778
10
5.7249514
20
2.7289822
40
5.2783075
50
45.2036837
51
45.3916222
0
ARC
8
DEFAULT_255_2_778
10
-81.8148287
20
-86.1696824
40
130.0428264
50
45.4392538
51
45.4587423
0
ARC
8
DEFAULT_255_2_778
10
10.0197439
20
7.2102755
40
0.9292242
50
209.1852145
51
228.1812723
0
ARC
8
DEFAULT_255_2_778
10
9.9010239
20
7.1249037
40
0.7841223
50
183.5107209
51
207.9691186
0
ARC
8
DEFAULT_255_2_778
10
9.6820994
20
7.097519
40
0.5641038
50
180.005459
51
182.0959739
0
ARC
8
DEFAULT_255_2_778
10
9.6623239
20
7.0975389
40
0.5443283
50
177.5662044
51
180.0077547
0
ARC
8
DEFAULT_255_2_778
10
8.7223338
20
9.1378379
40
0.6486464
50
328.9065437
51
347.4852057
0
ARC
8
DEFAULT_255_2_778
10
5.4966618
20
10.0342195
40
3.9957979
50
344.9591821
51
345.4838776
0
ARC
8
DEFAULT_255_2_778
10
-17.3543955
20
15.9698921
40
27.6051813
50
345.4454466
51
345.4832043
0
ARC
8
DEFAULT_255_2_778
10
11.1352959
20
8.6128286
40
1.8192044
50
162.3024147
51
166.0863703
0
ARC
8
DEFAULT_255_2_778
10
10.5006018
20
9.0583447
40
1.1036639
50
174.4098909
51
179.0636814
0
ARC
8
DEFAULT_255_2_778
10
13.6012102
20
8.9890322
40
4.2050323
50
178.8097569
51
179.5214092
0
ARC
8
DEFAULT_255_2_778
10
8.6273054
20
8.9923987
40
0.7696748
50
346.3180088
51
2.3647566
0
ARC
8
DEFAULT_255_2_778
10
9.1473217
20
8.8786046
40
0.2378239
50
325.1056061
51
343.3206257
0
ARC
8
DEFAULT_255_2_778
10
9.1185306
20
8.9363318
40
0.2960768
50
271.5547091
51
319.1193353
0
LINE
8
DEFAULT_255_2_778
10
9.1265636
20
8.6403639
11
9.1252009
21
8.6401347
0
ARC
8
DEFAULT_255_2_778
10
9.2359495
20
7.8810276
40
0.7671433
50
98.300506
51
105.6436519
0
ARC
8
DEFAULT_255_2_778
10
9.4888888
20
7.9874341
40
0.7818223
50
119.2609548
51
126.0234208
0
ARC
8
DEFAULT_255_2_778
10
14.4378383
20
-0.5197888
40
10.6237264
50
120.0436264
51
120.1198382
0
ARC
8
DEFAULT_255_2_778
10
8.9275353
20
9.0702876
40
0.4377815
50
295.9308678
51
323.1358287
0
ARC
8
DEFAULT_255_2_778
10
7.8099508
20
6.4321273
40
0.1508519
50
97.7346624
51
126.1388834
0
ARC
8
DEFAULT_255_2_778
10
7.8568123
20
6.1724892
40
0.414594
50
89.3408343
51
99.3229804
0
ARC
8
DEFAULT_255_2_778
10
7.8430266
20
5.3373409
40
1.2498528
50
82.948981
51
89.149351
0
ARC
8
DEFAULT_255_2_778
10
7.4461531
20
1.6946237
40
4.9140272
50
83.0128465
51
83.5702524
0
ARC
8
DEFAULT_255_2_778
10
5.5756325
20
-13.7060241
40
20.427851
50
83.0163117
51
83.059996
0
ARC
8
DEFAULT_255_2_778
10
8.4154185
20
9.2680406
40
2.7211634
50
262.4820213
51
265.4232892
0
ARC
8
DEFAULT_255_2_778
10
8.1752355
20
6.3819773
40
0.3499466
50
166.62068
51
173.3210276
0
ARC
8
DEFAULT_255_2_778
10
2.2040066
20
7.1938378
40
5.6762847
50
352.1626379
51
352.1918569
0
ARC
8
DEFAULT_255_2_778
10
7.6700295
20
6.4276931
40
0.157438
50
326.2187496
51
357.1301194
0
ARC
8
DEFAULT_255_2_778
10
7.6502512
20
6.4789207
40
0.2048103
50
291.2860609
51
317.3484191
0
ARC
8
DEFAULT_255_2_778
10
-11.2973337
20
48.3661917
40
46.1779311
50
294.2763906
51
294.3259428
0
ARC
8
DEFAULT_255_2_778
10
7.9122898
20
5.7862336
40
0.5346408
50
114.7798725
51
115.6585329
0
ARC
8
DEFAULT_255_2_778
10
7.3099837
20
6.2806895
40
0.3710148
50
358.0637527
51
0.0247382
0
ARC
8
DEFAULT_255_2_778
10
7.2633063
20
6.2808049
40
0.4176922
50
0.0061427
51
0.7789682
0
ARC
8
DEFAULT_255_2_778
10
6.8362918
20
6.2636423
40
0.8449769
50
1.5489921
51
6.4415951
0
ARC
8
DEFAULT_255_2_778
10
8.4350345
20
6.4475592
40
0.7643136
50
181.1320633
51
186.6958949
0
ARC
8
DEFAULT_255_2_778
10
7.8130997
20
6.4448732
40
0.1427705
50
130.1794079
51
184.9884166
0
ARC
8
DEFAULT_255_2_778
10
4.5449468
20
2.7440068
40
9.541394
50
62.3516759
51
62.785224
0
ARC
8
DEFAULT_255_2_778
10
10.5851932
20
14.2858715
40
3.4854741
50
242.4404314
51
243.2763804
0
ARC
8
DEFAULT_255_2_778
10
9.3777778
20
11.8409684
40
0.7590518
50
241.6913985
51
254.7800397
0
ARC
8
DEFAULT_255_2_778
10
9.2340097
20
11.3413491
40
0.2393332
50
256.5908358
51
268.0549921
0
ARC
8
DEFAULT_255_2_778
10
9.231097
20
11.3141996
40
0.2121098
50
268.5924226
51
269.9895868
0
ARC
8
DEFAULT_255_2_778
10
9.2361575
20
11.2358955
40
0.1339027
50
267.8176481
51
307.1339714
0
ARC
8
DEFAULT_255_2_778
10
9.1443742
20
11.346194
40
0.2773215
50
308.4949917
51
318.1990159
0
ARC
8
DEFAULT_255_2_778
10
17.4013137
20
3.6176447
40
11.0323733
50
136.811976
51
136.8603646
0
ARC
8
DEFAULT_255_2_778
10
9.6099051
20
10.9372927
40
0.3420668
50
131.1783583
51
137.5560356
0
ARC
8
DEFAULT_255_2_778
10
18.2557314
20
13.8897075
40
9.2713651
50
196.8983694
51
198.7048589
0
ARC
8
DEFAULT_255_2_778
10
12.3199473
20
11.8399973
40
2.9920021
50
197.9793635
51
208.921035
0
ARC
8
DEFAULT_255_2_778
10
9.8862664
20
10.4850999
40
0.2067946
50
206.4302787
51
222.1100333
0
ARC
8
DEFAULT_255_2_778
10
9.8545253
20
10.4647954
40
0.169746
50
224.2103858
51
241.9387302
0
ARC
8
DEFAULT_255_2_778
10
9.7126883
20
10.1964828
40
0.1337516
50
36.8513057
51
62.3906884
0
ARC
8
DEFAULT_255_2_778
10
9.6918593
20
10.1829277
40
0.1585569
50
31.3841223
51
36.2567656
0
ARC
8
DEFAULT_255_2_778
10
9.6365612
20
10.1499013
40
0.2229646
50
24.6963798
51
31.2290907
0
ARC
8
DEFAULT_255_2_778
10
9.5694901
20
10.1177227
40
0.2973481
50
23.6395512
51
24.9299962
0
ARC
8
DEFAULT_255_2_778
10
9.2901909
20
10.0111983
40
0.5960988
50
12.8081678
51
22.2545198
0
ARC
8
DEFAULT_255_2_778
10
7.0983478
20
9.490937
40
2.8488198
50
10.5150078
51
13.2388087
0
ARC
8
DEFAULT_255_2_778
10
198.2560023
20
46.4401844
40
191.8471656
50
190.9462125
51
190.9524984
0
ARC
8
DEFAULT_255_2_778
10
12.2193382
20
10.4116989
40
2.354062
50
190.3154581
51
194.3057305
0
ARC
8
DEFAULT_255_2_778
10
10.6997727
20
10.0346763
40
0.7885212
50
195.0430479
51
197.4854918
0
ARC
8
DEFAULT_255_2_778
10
11.5814549
20
10.3439051
40
1.7226375
50
198.4842312
51
206.769674
0
LINE
8
DEFAULT_255_2_778
10
10.0434422
20
9.5680205
11
10.0440406
21
9.5667675
0
ARC
8
DEFAULT_255_2_778
10
7.2415511
20
8.2071333
40
3.1148921
50
23.6979226
51
25.8804481
0
ARC
8
DEFAULT_255_2_778
10
10.2768346
20
10.2592258
40
0.5945721
50
198.8962597
51
205.7460396
0
ARC
8
DEFAULT_255_2_778
10
10.0652505
20
10.1851773
40
0.3704132
50
187.051259
51
198.6588033
0
ARC
8
DEFAULT_255_2_778
10
10.6507769
20
10.2641899
40
0.9612327
50
186.560007
51
187.4409332
0
ARC
8
DEFAULT_255_2_778
10
13.7779715
20
10.6293644
40
4.1096755
50
186.576856
51
186.6369825
0
ARC
8
DEFAULT_255_2_778
10
9.2084811
20
10.1128491
40
0.4890106
50
5.3752853
51
14.3913651
0
ARC
8
DEFAULT_255_2_778
10
9.1596925
20
10.0927267
40
0.5413197
50
15.1709265
51
22.199372
0
ARC
8
DEFAULT_255_2_778
10
7.4645151
20
9.4028328
40
2.3715052
50
22.1574617
51
25.1943771
0
ARC
8
DEFAULT_255_2_778
10
-0.1580071
20
5.8060584
40
10.8000051
50
25.2462291
51
26.5793717
0
LINE
8
DEFAULT_255_2_778
10
9.5006037
20
10.6383818
11
9.4999018
21
10.6398
0
ARC
8
DEFAULT_255_2_778
10
20.9508335
20
16.3473003
40
12.7945066
50
205.5549336
51
206.4930924
0
ARC
8
DEFAULT_255_2_778
10
-4.3122947
20
113.6529286
40
103.7362087
50
277.5888589
51
277.6002813
0
ARC
8
DEFAULT_255_2_778
10
9.1580494
20
12.5218652
40
1.7119886
50
276.2467553
51
277.7018633
0
ARC
8
DEFAULT_255_2_778
10
9.2769201
20
11.4070113
40
0.5908282
50
270.5689448
51
276.5515447
0
ARC
8
DEFAULT_255_2_778
10
9.2778399
20
11.0152749
40
0.1991243
50
255.2036152
51
271.4235983
0
ARC
8
DEFAULT_255_2_778
10
9.2485589
20
10.886074
40
0.0668941
50
197.9383242
51
251.1867877
0
ARC
8
DEFAULT_255_2_778
10
8.7640401
20
10.6696615
40
0.4641966
50
24.9498527
51
27.263916
0
ARC
8
DEFAULT_255_2_778
10
9.0858586
20
10.8375947
40
0.1012186
50
26.2138015
51
51.6316144
0
ARC
8
DEFAULT_255_2_778
10
9.0617859
20
10.7859703
40
0.1571891
50
56.4378078
51
80.811128
0
ARC
8
DEFAULT_255_2_778
10
9.1316882
20
11.2051121
40
0.2677446
50
237.9703509
51
260.3675855
0
ARC
8
DEFAULT_255_2_778
10
9.0961065
20
11.1344017
40
0.1890695
50
234.8523974
51
235.7464897
0
ARC
8
DEFAULT_255_2_778
10
9.0985048
20
11.1378105
40
0.1932376
50
231.9438391
51
234.852794
0
ARC
8
DEFAULT_255_2_778
10
9.1413422
20
11.1501134
40
0.2308172
50
182.7851563
51
225.4395312
0
ARC
8
DEFAULT_255_2_778
10
9.5697416
20
11.2323641
40
0.6655397
50
187.0143202
51
188.0731258
0
ARC
8
DEFAULT_255_2_778
10
10.2038246
20
11.2998016
40
1.3031544
50
183.1076946
51
186.552671
0
ARC
8
DEFAULT_255_2_778
10
8.4082249
20
9.4324018
40
0.4824093
50
89.8093345
51
94.8919338
0
ARC
8
DEFAULT_255_2_778
10
8.3985123
20
8.8194276
40
1.0954394
50
84.5732366
51
89.4080198
0
ARC
8
DEFAULT_255_2_778
10
8.0153427
20
4.2694009
40
5.6615208
50
84.795012
51
85.0677054
0
ARC
8
DEFAULT_255_2_778
10
8.6695092
20
11.2265416
40
1.3264333
50
263.9171497
51
268.9187056
0
ARC
8
DEFAULT_255_2_778
10
8.6451414
20
10.355144
40
0.4547999
50
269.9164226
51
272.9675581
0
ARC
8
DEFAULT_255_2_778
10
8.6143055
20
10.69983
40
0.800725
50
273.894233
51
285.2175729
0
ARC
8
DEFAULT_255_2_778
10
8.6687879
20
10.5713898
40
0.6627559
50
283.587029
51
283.6490926
0
ARC
8
DEFAULT_255_2_778
10
9.1677995
20
8.562361
40
1.4073322
50
101.1236695
51
104.0903721
0
ARC
8
DEFAULT_255_2_778
10
9.904563
20
10.0493467
40
1.0138427
50
183.9679774
51
186.0066752
0
ARC
8
DEFAULT_255_2_778
10
11.9669829
20
10.1946546
40
3.0813747
50
183.2681007
51
184.0096717
0
ARC
8
DEFAULT_255_2_778
10
6.3678177
20
9.8960734
40
2.5257942
50
2.789397
51
5.7455567
0
ARC
8
DEFAULT_255_2_778
10
8.3596613
20
10.1133972
40
0.5224716
50
3.899956
51
26.2983036
0
ARC
8
DEFAULT_255_2_778
10
8.6545627
20
10.2503686
40
0.1975646
50
28.5783072
51
53.3887889
0
ARC
8
DEFAULT_255_2_778
10
8.7023906
20
10.3000982
40
0.1294179
50
57.2582657
51
79.3184267
0
ARC
8
DEFAULT_255_2_778
10
8.6341423
20
9.9871557
40
0.4496792
50
78.1637685
51
88.0369206
0
ARC
8
DEFAULT_255_2_778
10
8.608519
20
9.5466253
40
0.8908909
50
87.3604803
51
90.0767255
0
ARC
8
DEFAULT_255_2_778
10
8.6110736
20
9.0641993
40
1.3733212
50
90.1563518
51
93.6566831
0
ARC
8
DEFAULT_255_2_778
10
8.6540748
20
8.3824181
40
2.056457
50
93.6408352
51
97.3703914
0
ARC
8
DEFAULT_255_2_778
10
8.6451515
20
8.4369532
40
2.0012285
50
97.3173194
51
98.4553448
0
ARC
8
DEFAULT_255_2_778
10
8.5712222
20
8.9275048
40
1.5051387
50
98.4174418
51
100.0111235
0
ARC
8
DEFAULT_255_2_778
10
8.4462136
20
9.6313369
40
0.790292
50
99.9566365
51
102.0008702
0
ARC
8
DEFAULT_255_2_778
10
8.3735701
20
9.9788386
40
0.4352825
50
102.1586951
51
102.5904925
0
ARC
8
DEFAULT_255_2_778
10
8.6149008
20
8.9446415
40
1.4972498
50
102.9766806
51
111.1167216
0
ARC
8
DEFAULT_255_2_778
10
9.2098768
20
7.3178834
40
3.2292693
50
110.5658357
51
112.1302478
0
ARC
8
DEFAULT_255_2_778
10
10.5458302
20
4.0429333
40
6.7662261
50
112.1625632
51
113.1426633
0
ARC
8
DEFAULT_255_2_778
10
4.3282494
20
18.4786215
40
8.9515617
50
292.057376
51
293.4224023
0
ARC
8
DEFAULT_255_2_778
10
6.7167241
20
12.6340205
40
2.6378488
50
291.0289027
51
291.6488834
0
ARC
8
DEFAULT_255_2_778
10
13.8801142
20
1.3573604
40
10.7862986
50
124.2096965
51
125.1951663
0
ARC
8
DEFAULT_255_2_778
10
8.667911
20
9.0838676
40
1.4665525
50
107.7182073
51
125.5227651
0
ARC
8
DEFAULT_255_2_778
10
8.4914583
20
9.5717043
40
0.9483583
50
104.3286561
51
106.5329759
0
ARC
8
DEFAULT_255_2_778
10
8.5816451
20
9.225272
40
1.3063346
50
103.5885401
51
104.4008059
0
ARC
8
DEFAULT_255_2_778
10
8.7066277
20
8.6906009
40
1.8554081
50
100.2083277
51
103.4608296
0
ARC
8
DEFAULT_255_2_778
10
8.7616366
20
8.4070283
40
2.1442445
50
96.7079593
51
100.3120342
0
ARC
8
DEFAULT_255_2_778
10
8.6908739
20
9.049625
40
1.4977886
50
91.4278127
51
96.8909107
0
ARC
8
DEFAULT_255_2_778
10
8.6727905
20
9.5544326
40
0.9927024
50
90.0120898
51
91.1104121
0
ARC
8
DEFAULT_255_2_778
10
8.6763928
20
9.871089
40
0.6760568
50
83.9962454
51
90.3230476
0
ARC
8
DEFAULT_255_2_778
10
8.712199
20
10.2089471
40
0.3363067
50
75.7140218
51
84.0425839
0
ARC
8
DEFAULT_255_2_778
10
8.7700861
20
10.4063232
40
0.1309586
50
37.2654793
51
78.9498782
0
ARC
8
DEFAULT_255_2_778
10
7.7829714
20
9.648295
40
1.3755466
50
35.1825436
51
37.4971172
0
ARC
8
DEFAULT_255_2_778
10
8.7936985
20
10.3573771
40
0.1409255
50
36.2228069
51
36.3278197
0
ARC
8
DEFAULT_255_2_778
10
8.3245205
20
10.0194596
40
0.7191228
50
26.2651754
51
35.8528496
0
ARC
8
DEFAULT_255_2_778
10
8.3694706
20
10.0435211
40
0.6681677
50
20.1015178
51
26.1206269
0
ARC
8
DEFAULT_255_2_778
10
7.8719981
20
9.8975441
40
1.1859911
50
5.9897346
51
18.4641158
0
ARC
8
DEFAULT_255_2_778
10
15.6535267
20
10.9057945
40
6.6609978
50
187.6306552
51
188.6338294
0
ARC
8
DEFAULT_255_2_778
10
11.8705326
20
10.3429705
40
2.8364055
50
188.8651959
51
189.0307836
0
ARC
8
DEFAULT_255_2_778
10
9.5840708
20
10.2320252
40
0.6137916
50
212.9973913
51
216.6267789
0
ARC
8
DEFAULT_255_2_778
10
11.1351759
20
11.3916635
40
2.5504592
50
216.7450631
51
217.6570594
0
ARC
8
DEFAULT_255_2_778
10
8.7266517
20
9.5229542
40
0.4980467
50
28.4413939
51
38.5744094
0
ARC
8
DEFAULT_255_2_778
10
8.7288045
20
9.5579936
40
0.4803903
50
8.3953069
51
24.8866745
0
ARC
8
DEFAULT_255_2_778
10
8.2063881
20
9.4553619
40
1.0125082
50
5.7585693
51
9.8247606
0
ARC
8
DEFAULT_255_2_778
10
9.3584373
20
9.6488383
40
0.1713668
50
194.2289525
51
212.4243743
0
ARC
8
DEFAULT_255_2_778
10
6.2044784
20
8.6856047
40
3.1266103
50
17.1337962
51
17.1621281
0
ARC
8
DEFAULT_255_2_778
10
9.0708901
20
9.5840303
40
0.1233715
50
11.295102
51
57.583064
0
ARC
8
DEFAULT_255_2_778
10
9.0418184
20
9.5321129
40
0.1828128
50
58.6143093
51
69.1496301
0
ARC
8
DEFAULT_255_2_778
10
9.0113376
20
9.4336965
40
0.2857081
50
70.4621835
51
90.742833
0
ARC
8
DEFAULT_255_2_778
10
9.0003395
20
9.2117786
40
0.5076544
50
89.176744
51
90.005116
0
ARC
8
DEFAULT_255_2_778
10
9.0293588
20
8.5292521
40
1.1905356
50
91.3989065
51
98.926842
0
ARC
8
DEFAULT_255_2_778
10
10.9365093
20
-5.6177648
40
15.4652634
50
97.7738721
51
97.8228063
0
ARC
8
DEFAULT_255_2_778
10
8.4355495
20
12.4734679
40
2.7980549
50
276.3266702
51
278.1358796
0
ARC
8
DEFAULT_255_2_778
10
8.3264513
20
9.1120677
40
0.7149128
50
53.3474043
51
54.2749066
0
ARC
8
DEFAULT_255_2_778
10
8.6001968
20
9.4469486
40
0.2835182
50
1.3840493
51
57.3331079
0
ARC
8
DEFAULT_255_2_778
10
8.2982605
20
9.4085449
40
0.5871181
50
1.4648559
51
4.4204204
0
ARC
8
DEFAULT_255_2_778
10
8.6222705
20
9.4165827
40
0.2630085
50
359.999381
51
1.5188226
0
ARC
8
DEFAULT_255_2_778
10
8.5844533
20
9.4314674
40
0.3011939
50
273.8518716
51
357.1667982
0
ARC
8
DEFAULT_255_2_778
10
8.5292945
20
10.0612547
40
0.9333508
50
270.8848919
51
274.6331574
0
ARC
8
DEFAULT_255_2_778
10
8.5342612
20
9.854816
40
0.7268621
50
270.0044155
51
270.7447448
0
ARC
8
DEFAULT_255_2_778
10
8.5198923
20
9.5068732
40
0.3791938
50
246.7903723
51
272.1801203
0
ARC
8
DEFAULT_255_2_778
10
8.5029261
20
9.4226702
40
0.295643
50
207.5992006
51
243.3792168
0
ARC
8
DEFAULT_255_2_778
10
8.7595702
20
9.5852591
40
0.5989381
50
205.0087732
51
210.0095386
0
ARC
8
DEFAULT_255_2_778
10
8.4269052
20
9.42481
40
0.2296813
50
178.0008436
51
203.8189078
0
ARC
8
DEFAULT_255_2_778
10
8.6732634
20
9.432552
40
0.4758999
50
178.3236434
51
179.9674468
0
ARC
8
DEFAULT_255_2_778
10
9.2418708
20
9.4082848
40
1.0450017
50
175.0328883
51
177.9056878
0
ARC
8
DEFAULT_255_2_778
10
7.3881825
20
9.5746063
40
0.8161427
50
354.6680162
51
359.0973821
0
ARC
8
DEFAULT_255_2_778
10
7.88622
20
9.5619121
40
0.3180039
50
359.9707234
51
1.683373
0
ARC
8
DEFAULT_255_2_778
10
7.8750139
20
14.2725642
40
4.7128132
50
273.9870871
51
274.003943
0
ARC
8
DEFAULT_255_2_778
10
7.8870934
20
14.0953261
40
4.535164
50
273.973331
51
273.9905411
0
ARC
8
DEFAULT_255_2_778
10
7.9327128
20
13.4181751
40
3.85648
50
273.9744156
51
273.9943018
0
ARC
8
DEFAULT_255_2_778
10
8.5538687
20
4.4639179
40
5.1192963
50
93.963597
51
93.9793668
0
ARC
8
DEFAULT_255_2_778
10
8.5377143
20
4.6690382
40
4.9135498
50
93.9574374
51
93.9746353
0
ARC
8
DEFAULT_255_2_778
10
8.5467885
20
4.5130172
40
5.0698248
50
93.9547199
51
93.9705493
0
ARC
8
DEFAULT_255_2_778
10
8.5321349
20
4.6971141
40
4.8851556
50
93.9486062
51
93.964721
0
ARC
8
DEFAULT_255_2_778
10
8.5380082
20
4.5805327
40
5.0018645
50
93.9395043
51
93.9554101
0
ARC
8
DEFAULT_255_2_778
10
18.7439301
20
-143.4856964
40
153.4194141
50
93.9434547
51
93.9442181
0
ARC
8
DEFAULT_255_2_778
10
7.932928
20
13.306696
40
3.7452515
50
273.9299963
51
273.9502561
0
ARC
8
DEFAULT_255_2_778
10
7.9426223
20
13.1563759
40
3.5946204
50
273.9193557
51
273.9400549
0
ARC
8
DEFAULT_255_2_778
10
8.5255349
20
4.6480891
40
4.9336109
50
93.919217
51
93.9340067
0
ARC
8
DEFAULT_255_2_778
10
7.9594501
20
12.881699
40
3.3194361
50
273.9101031
51
273.9316607
0
ARC
8
DEFAULT_255_2_778
10
47.6455647
20
-568.8573448
40
579.7717255
50
93.9026166
51
93.9062792
0
ARC
8
DEFAULT_255_2_778
10
8.5707243
20
3.3744733
40
6.2073466
50
93.8972123
51
94.2015094
0
ARC
8
DEFAULT_255_2_778
10
8.2012572
20
8.2865304
40
1.2814503
50
93.8172111
51
97.128392
0
ARC
8
DEFAULT_255_2_778
10
8.0732508
20
9.2610551
40
0.2986354
50
95.9608447
51
114.6647313
0
ARC
8
DEFAULT_255_2_778
10
8.1234895
20
9.1803204
40
0.3931515
50
116.4085611
51
127.289938
0
ARC
8
DEFAULT_255_2_778
10
8.65371
20
8.4563361
40
1.2904814
50
126.5443643
51
128.9967394
0
ARC
8
DEFAULT_255_2_778
10
11.3298562
20
5.1385946
40
5.5530103
50
128.914984
51
129.6341227
0
ARC
8
DEFAULT_255_2_778
10
10.2025721
20
11.0527332
40
2.9177625
50
214.1419354
51
215.9960969
0
ARC
8
DEFAULT_255_2_778
10
8.9173512
20
10.1254051
40
1.3329365
50
216.2153951
51
217.4561134
0
ARC
8
DEFAULT_255_2_778
10
8.3907334
20
9.7051485
40
0.6594514
50
216.2967094
51
238.9154935
0
ARC
8
DEFAULT_255_2_778
10
8.5209951
20
9.9097332
40
0.9019331
50
238.5388176
51
240.543641
0
ARC
8
DEFAULT_255_2_778
10
8.5950633
20
10.0406882
40
1.0523835
50
240.5384694
51
242.1902072
0
ARC
8
DEFAULT_255_2_778
10
8.5026997
20
9.7626684
40
0.7648917
50
238.5914752
51
262.7134119
0
ARC
8
DEFAULT_255_2_778
10
8.0023071
20
5.4687062
40
3.5581864
50
83.4563519
51
83.4905779
0
ARC
8
DEFAULT_255_2_778
10
7.4688946
20
0.8131802
40
8.244171
50
83.4456339
51
83.4605681
0
ARC
8
DEFAULT_255_2_778
10
7.2722442
20
-0.8952275
40
9.9638593
50
83.4312118
51
83.443579
0
ARC
8
DEFAULT_255_2_778
10
7.6130236
20
2.0700236
40
6.9790905
50
83.4083348
51
83.4257069
0
ARC
8
DEFAULT_255_2_778
10
15.9373019
20
74.0379864
40
65.4686927
50
263.4014581
51
263.4032649
0
ARC
8
DEFAULT_255_2_778
10
10.702773
20
28.4605854
40
19.5917332
50
263.2977375
51
263.5028684
0
ARC
8
DEFAULT_255_2_778
10
8.8413338
20
12.0633785
40
3.0892144
50
263.39313
51
265.8317804
0
ARC
8
DEFAULT_255_2_778
10
8.7217857
20
10.4286432
40
1.4501139
50
265.8480282
51
269.763093
0
ARC
8
DEFAULT_255_2_778
10
8.7210966
20
9.6819641
40
0.7034425
50
269.5677481
51
276.7285331
0
ARC
8
DEFAULT_255_2_778
10
8.7489681
20
9.4115313
40
0.4316254
50
277.2602912
51
278.7712538
0
ARC
8
DEFAULT_255_2_778
10
8.7670398
20
9.426338
40
0.4439592
50
276.1739836
51
315.4802623
0
ARC
8
DEFAULT_255_2_778
10
8.8380516
20
9.361014
40
0.3475397
50
314.9504369
51
346.4449109
0
ARC
8
DEFAULT_255_2_778
10
6.9217408
20
9.9491489
40
2.3515175
50
343.4561776
51
344.669531
0
ARC
8
DEFAULT_255_2_778
10
10.0104689
20
9.1096702
40
0.8492795
50
160.142599
51
165.1423797
0
ARC
8
DEFAULT_255_2_778
10
6.6440563
20
9.6049854
40
2.5759474
50
353.1551816
51
355.3945687
0
ARC
8
DEFAULT_255_2_778
10
8.5918383
20
9.3562905
40
0.6125869
50
339.6248962
51
354.53812
0
ARC
8
DEFAULT_255_2_778
10
8.9479395
20
9.2355825
40
0.2369869
50
334.5259332
51
337.0065508
0
ARC
8
DEFAULT_255_2_778
10
8.7850855
20
9.3169081
40
0.4190003
50
296.048426
51
334.0643903
0
ARC
8
DEFAULT_255_2_778
10
8.7075718
20
9.536054
40
0.6504685
50
268.0719036
51
293.7053062
0
ARC
8
DEFAULT_255_2_778
10
8.6989357
20
10.6178141
40
1.731911
50
248.6776191
51
269.5616866
0
ARC
8
DEFAULT_255_2_778
10
8.3864259
20
9.7596319
40
0.8191061
50
241.0010328
51
247.2134342
0
ARC
8
DEFAULT_255_2_778
10
8.5809971
20
10.1181558
40
1.2270134
50
236.2032182
51
241.1706639
0
ARC
8
DEFAULT_255_2_778
10
8.4768095
20
9.9857172
40
1.0590793
50
222.5502529
51
236.9018072
0
ARC
8
DEFAULT_255_2_778
10
8.1357243
20
9.6556459
40
0.5847346
50
218.8837695
51
221.3249346
0
ARC
8
DEFAULT_255_2_778
10
7.992075
20
9.5439346
40
0.402802
50
208.831826
51
219.3412688
0
ARC
8
DEFAULT_255_2_778
10
7.8633411
20
9.470856
40
0.2547921
50
202.1105054
51
208.395803
0
ARC
8
DEFAULT_255_2_778
10
7.9780512
20
9.4952973
40
0.3708346
50
178.4941035
51
198.9365341
0
ARC
8
DEFAULT_255_2_778
10
8.9707017
20
9.4893036
40
1.3634481
50
175.4993594
51
179.3385813
0
LINE
8
DEFAULT_255_2_778
10
7.611458
20
9.5962937
11
7.6114652
21
9.5964017
0
ARC
8
DEFAULT_255_2_778
10
6.2505997
20
9.7035573
40
1.3650778
50
355.4977783
51
359.3368598
0
ARC
8
DEFAULT_255_2_778
10
7.0285127
20
9.6881977
40
0.5870735
50
359.9571076
51
2.1140165
0
ARC
8
DEFAULT_255_2_778
10
8.2869851
20
8.699241
40
1.2135285
50
119.2040317
51
123.6137221
0
ARC
8
DEFAULT_255_2_778
10
7.9905454
20
9.233417
40
0.6026165
50
110.6045778
51
119.3825042
0
ARC
8
DEFAULT_255_2_778
10
7.9376676
20
9.3656263
40
0.4602655
50
104.3141022
51
110.2350262
0
ARC
8
DEFAULT_255_2_778
10
7.9961933
20
9.095078
40
0.7369547
50
95.3796746
51
103.5225415
0
ARC
8
DEFAULT_255_2_778
10
8.2307722
20
7.0761662
40
2.7693205
50
95.9516406
51
96.2954777
0
ARC
8
DEFAULT_255_2_778
10
6.0888381
20
28.1548818
40
18.4179538
50
275.7797876
51
276.002813
0
ARC
8
DEFAULT_255_2_778
10
7.7019609
20
12.7638966
40
2.9426697
50
276.1054199
51
277.5788269
0
ARC
8
DEFAULT_255_2_778
10
7.7413354
20
12.4555939
40
2.6318676
50
277.6143451
51
277.8761618
0
ARC
8
DEFAULT_255_2_778
10
7.9553872
20
10.6954482
40
0.8594891
50
279.8207162
51
287.6628998
0
ARC
8
DEFAULT_255_2_778
10
10.0461802
20
3.7926935
40
6.3530591
50
106.4810137
51
106.7413565
0
ARC
8
DEFAULT_255_2_778
10
8.4266766
20
9.3104149
40
0.6027183
50
95.9798021
51
107.659863
0
ARC
8
DEFAULT_255_2_778
10
7.7414836
20
10.775092
40
0.5415657
50
171.1410166
51
176.7543459
0
ARC
8
DEFAULT_255_2_778
10
7.4361073
20
10.8206355
40
0.2328273
50
162.5940815
51
170.6417927
0
ARC
8
DEFAULT_255_2_778
10
9.6877807
20
10.1427195
40
2.5843245
50
163.1323988
51
163.1858286
0
ARC
8
DEFAULT_255_2_778
10
6.9918269
20
10.9636598
40
0.2338725
50
342.3090342
51
349.7773984
0
ARC
8
DEFAULT_255_2_778
10
7.1361231
20
10.6071605
40
0.3264864
50
74.7522808
51
83.9055648
0
ARC
8
DEFAULT_255_2_778
10
7.1459014
20
10.6893178
40
0.2437573
50
84.1407683
51
89.9154894
0
ARC
8
DEFAULT_255_2_778
10
7.1507316
20
10.7236315
40
0.2094911
50
91.2228117
51
147.7604515
0
ARC
8
DEFAULT_255_2_778
10
7.4892925
20
10.4467826
40
0.6457671
50
143.003137
51
149.6489947
0
ARC
8
DEFAULT_255_2_778
10
8.0939357
20
10.0880378
40
1.3488199
50
149.4768024
51
152.6173394
0
ARC
8
DEFAULT_255_2_778
10
9.8145977
20
9.1936098
40
3.2880663
50
152.5681034
51
154.0125887
0
ARC
8
DEFAULT_255_2_778
10
7.0307584
20
10.5490439
40
0.1917898
50
153.588856
51
175.9530782
0
ARC
8
DEFAULT_255_2_778
10
7.2919493
20
10.530572
40
0.4536332
50
175.9539962
51
179.705766
0
ARC
8
DEFAULT_255_2_778
10
6.6806085
20
10.5250241
40
0.1579102
50
340.8226587
51
2.8594158
0
ARC
8
DEFAULT_255_2_778
10
6.7378072
20
10.5112578
40
0.0995317
50
321.3939324
51
337.4894672
0
ARC
8
DEFAULT_255_2_778
10
6.6902518
20
10.5603014
40
0.167519
50
284.4972007
51
318.4332245
0
ARC
8
DEFAULT_255_2_778
10
6.8358993
20
10.0516174
40
0.3616872
50
106.6631902
51
123.4048237
0
ARC
8
DEFAULT_255_2_778
10
6.774177
20
10.1599486
40
0.2374097
50
125.3638971
51
126.3122034
0
ARC
8
DEFAULT_255_2_778
10
7.1138456
20
9.7553966
40
0.7653068
50
128.8687034
51
139.9982753
0
ARC
8
DEFAULT_255_2_778
10
5.7536572
20
10.9028052
40
1.0142085
50
311.9228007
51
319.7384029
0
ARC
8
DEFAULT_255_2_778
10
6.2192883
20
10.40305
40
0.3315039
50
309.4185139
51
309.7531816
0
ARC
8
DEFAULT_255_2_778
10
5.5959221
20
11.240476
40
1.3751803
50
292.7738127
51
307.327307
0
ARC
8
DEFAULT_255_2_778
10
-6.0020773
20
36.6448178
40
29.3011441
50
294.2327111
51
294.4556056
0
ARC
8
DEFAULT_255_2_778
10
7.6700746
20
6.2860915
40
3.9942062
50
114.3316146
51
115.3513007
0
ARC
8
DEFAULT_255_2_778
10
7.2216423
20
8.1458165
40
2.1573034
50
123.3255997
51
125.7942524
0
ARC
8
DEFAULT_255_2_778
10
2.3604479
20
15.5066358
40
6.6638629
50
303.4788419
51
304.4112447
0
ARC
8
DEFAULT_255_2_778
10
5.4801559
20
10.9818776
40
1.1680076
50
303.592233
51
313.1379738
0
ARC
8
DEFAULT_255_2_778
10
5.9743655
20
10.4409529
40
0.4354682
50
314.3527485
51
320.6134451
0
ARC
8
DEFAULT_255_2_778
10
6.114459
20
10.3270932
40
0.2549444
50
320.4120599
51
330.8532154
0
ARC
8
DEFAULT_255_2_778
10
6.1681749
20
10.2950397
40
0.1924274
50
331.3988506
51
331.8155127
0
ARC
8
DEFAULT_255_2_778
10
6.0664574
20
10.3414116
40
0.3040711
50
333.1664392
51
350.1067082
0
ARC
8
DEFAULT_255_2_778
10
2.9810665
20
11.0530834
40
3.4700704
50
347.2825047
51
347.3908139
0
ARC
8
DEFAULT_255_2_778
10
10.8850517
20
9.2891745
40
4.6283473
50
167.2242752
51
167.4412106
0
ARC
8
DEFAULT_255_2_778
10
6.6063554
20
10.2809207
40
0.2372015
50
140.8576904
51
172.3089927
0
ARC
8
DEFAULT_255_2_778
10
4.3004463
20
12.5242792
40
2.9809223
50
315.3848361
51
316.7314182
0
ARC
8
DEFAULT_255_2_778
10
6.7645155
20
10.1922153
40
0.4118299
50
134.2505844
51
135.4556681
0
ARC
8
DEFAULT_255_2_778
10
6.5946828
20
10.3755407
40
0.1621274
50
99.6926319
51
136.4682981
0
ARC
8
DEFAULT_255_2_778
10
6.5465281
20
10.6081109
40
0.075688
50
285.9969329
51
11.1520933
0
ARC
8
DEFAULT_255_2_778
10
4.0756056
20
10.829027
40
2.5535265
50
355.3665299
51
355.4587168
0
ARC
8
DEFAULT_255_2_778
10
7.2886986
20
10.579065
40
0.669291
50
173.3629056
51
175.906195
0
ARC
8
DEFAULT_255_2_778
10
6.8122766
20
10.635867
40
0.1895016
50
161.577432
51
173.7729881
0
ARC
8
DEFAULT_255_2_778
10
6.9130974
20
10.592081
40
0.2991495
50
142.6247026
51
159.7230416
0
ARC
8
DEFAULT_255_2_778
10
7.2048039
20
10.3891277
40
0.6543517
50
143.5531985
51
144.0077197
0
ARC
8
DEFAULT_255_2_778
10
4.7898263
20
12.2653406
40
2.4040475
50
321.7758832
51
324.5775593
0
ARC
8
DEFAULT_255_2_778
10
8.0700063
20
9.9930264
40
1.5867799
50
143.6440505
51
146.364583
0
ARC
8
DEFAULT_255_2_778
10
7.10476
20
10.7260759
40
0.3753073
50
113.6532325
51
146.4180266
0
ARC
8
DEFAULT_255_2_778
10
7.057233
20
10.7464973
40
0.3393788
50
87.9523261
51
107.6758979
0
ARC
8
DEFAULT_255_2_778
10
7.0687718
20
10.1954802
40
0.8901794
50
88.6242719
51
89.9621793
0
ARC
8
DEFAULT_255_2_778
10
7.0350545
20
9.0569777
40
2.0291732
50
86.9827731
51
88.4443063
0
ARC
8
DEFAULT_255_2_778
10
7.2247588
20
12.5117884
40
1.4308538
50
266.6787157
51
269.3869131
0
ARC
8
DEFAULT_255_2_778
10
7.2145137
20
11.3641772
40
0.2832061
50
268.9751931
51
279.5811669
0
ARC
8
DEFAULT_255_2_778
10
7.2375326
20
11.2114543
40
0.128811
50
280.7920393
51
285.3757681
0
ARC
8
DEFAULT_255_2_778
10
7.2587481
20
11.1520997
40
0.0661241
50
281.2839248
51
321.8560741
0
ARC
8
DEFAULT_255_2_778
10
7.239186
20
11.1562684
40
0.0845433
50
327.833291
51
349.315407
0
ARC
8
DEFAULT_255_2_778
10
7.7319457
20
11.0386916
40
0.4221653
50
164.9733571
51
166.0319942
0
ARC
8
DEFAULT_255_2_778
10
7.3879412
20
11.1353349
40
0.0649999
50
121.1369357
51
168.6332802
0
ARC
8
DEFAULT_255_2_778
10
7.3985494
20
11.1195611
40
0.0839917
50
121.002985
51
121.7668699
0
ARC
8
DEFAULT_255_2_778
10
7.4458458
20
11.0130865
40
0.2001289
50
94.7151898
51
116.9044743
0
ARC
8
DEFAULT_255_2_778
10
7.6021299
20
9.9129912
40
1.3109765
50
96.2781576
51
97.5713505
0
ARC
8
DEFAULT_255_2_778
10
7.2306833
20
13.2805174
40
2.0769736
50
276.3046896
51
277.1213604
0
ARC
8
DEFAULT_255_2_778
10
7.4609849
20
11.5234977
40
0.3051449
50
275.1109633
51
293.1167493
0
ARC
8
DEFAULT_255_2_778
10
7.3243138
20
11.7340305
40
0.5541054
50
297.5717659
51
326.9598633
0
ARC
8
DEFAULT_255_2_778
10
20.490046
20
2.1151649
40
15.7519258
50
143.3923022
51
143.7387824
0
ARC
8
DEFAULT_255_2_778
10
3.6470271
20
11.3060714
40
4.2032395
50
1.0855032
51
2.7611749
0
ARC
8
DEFAULT_255_2_778
10
5.4720581
20
11.3462231
40
2.3777818
50
0.0181909
51
0.9512808
0
ARC
8
DEFAULT_255_2_778
10
6.4202967
20
11.3369991
40
1.429578
50
353.0206265
51
0.3999477
0
ARC
8
DEFAULT_255_2_778
10
6.750125
20
11.3029197
40
1.0980703
50
342.210838
51
352.6944409
0
ARC
8
DEFAULT_255_2_778
10
6.5589558
20
11.3621312
40
1.2981908
50
339.0450292
51
342.3001988
0
ARC
8
DEFAULT_255_2_778
10
6.9207144
20
11.1580301
40
0.8894744
50
296.5497275
51
342.9919729
0
ARC
8
DEFAULT_255_2_778
10
6.8792786
20
11.2009869
40
0.9465905
50
284.7693283
51
297.6311789
0
ARC
8
DEFAULT_255_2_778
10
8.2900396
20
6.4658155
40
3.9948607
50
107.0219611
51
107.1111494
0
ARC
8
DEFAULT_255_2_778
10
7.4477282
20
9.1808369
40
1.1522042
50
106.8030159
51
109.633408
0
ARC
8
DEFAULT_255_2_778
10
7.3808988
20
10.0186499
40
0.4047327
50
132.2792169
51
142.318084
0
LINE
8
DEFAULT_255_2_778
10
7.1086174
20
10.3181014
11
7.1093851
21
10.3188396
0
ARC
8
DEFAULT_255_2_778
10
6.9400631
20
10.522248
40
0.26466
50
309.7747939
51
339.4047084
0
ARC
8
DEFAULT_255_2_778
10
6.9551205
20
10.5086407
40
0.245891
50
341.1388161
51
345.2301063
0
ARC
8
DEFAULT_255_2_778
10
6.7670157
20
10.5470435
40
0.4377045
50
346.6467403
51
357.5238149
0
ARC
8
DEFAULT_255_2_778
10
5.9508196
20
10.5986695
40
1.255475
50
356.7792447
51
0.2269688
0
ARC
8
DEFAULT_255_2_778
10
5.0512845
20
10.6034308
40
2.1550004
50
0.0056381
51
0.3367052
0
ARC
8
DEFAULT_255_2_778
10
2.8920632
20
10.5809427
40
4.3143278
50
0.4668376
51
1.4176832
0
ARC
8
DEFAULT_255_2_778
10
11.4770504
20
10.7972688
40
4.2733855
50
180.5786707
51
181.4694521
0
ARC
8
DEFAULT_255_2_778
10
8.5775683
20
10.7627876
40
1.3737129
50
180.0072766
51
180.3619519
0
ARC
8
DEFAULT_255_2_778
10
7.9281812
20
10.7652212
40
0.7243303
50
177.5481664
51
180.2062988
0
ARC
8
DEFAULT_255_2_778
10
7.5599124
20
10.779673
40
0.3557829
50
175.7961395
51
177.3362756
0
ARC
8
DEFAULT_255_2_778
10
11.3864044
20
11.133432
40
1.4491434
50
272.0982266
51
273.6035573
0
ARC
8
DEFAULT_255_2_778
10
11.3058489
20
13.4172523
40
3.7343832
50
271.5523953
51
272.0504262
0
ARC
8
DEFAULT_255_2_778
10
11.4072683
20
9.217502
40
0.4667378
50
90.0308028
51
99.0826087
0
ARC
8
DEFAULT_255_2_778
10
11.3729274
20
9.4708968
40
0.2111869
50
100.7351279
51
103.3512885
0
ARC
8
DEFAULT_255_2_778
10
11.3816893
20
9.4461362
40
0.2373184
50
104.0290777
51
121.3903747
0
ARC
8
DEFAULT_255_2_778
10
11.5271979
20
9.1920552
40
0.5300643
50
120.5114927
51
125.3012653
0
ARC
8
DEFAULT_255_2_778
10
11.7626439
20
9.4305027
40
0.3876057
50
185.8081021
51
188.8823783
0
ARC
8
DEFAULT_255_2_778
10
11.7616681
20
9.4304077
40
0.3866253
50
180.0009006
51
185.8087288
0
ARC
8
DEFAULT_255_2_778
10
11.7608681
20
9.4304643
40
0.3858253
50
138.413895
51
180.0093161
0
ARC
8
DEFAULT_255_2_778
10
12.4601673
20
6.7818463
40
3.299459
50
109.8686343
51
113.4474529
0
ARC
8
DEFAULT_255_2_778
10
11.7431727
20
8.7883449
40
1.1687423
50
93.9193443
51
110.242349
0
ARC
8
DEFAULT_255_2_778
10
11.703989
20
9.3268123
40
0.6288601
50
89.7809588
51
93.7110044
0
ARC
8
DEFAULT_255_2_778
10
11.6955521
20
8.3324765
40
1.6232276
50
86.3309893
51
89.6173389
0
ARC
8
DEFAULT_255_2_778
10
11.4851491
20
4.704251
40
5.2575279
50
86.0357518
51
86.5730057
0
ARC
8
DEFAULT_255_2_778
10
12.1926408
20
14.6732383
40
4.7365483
50
265.8349118
51
266.8577704
0
ARC
8
DEFAULT_255_2_778
10
12.0724548
20
12.7954402
40
2.8550366
50
267.2004244
51
267.2241052
0
ARC
8
DEFAULT_255_2_778
10
13.0542815
20
9.1605203
40
1.3667726
50
141.4356593
51
145.036584
0
ARC
8
DEFAULT_255_2_778
10
0.1081847
20
19.369941
40
15.1206284
50
321.7678765
51
321.9184156
0
ARC
8
DEFAULT_255_2_778
10
11.6011297
20
10.3995703
40
0.5420893
50
318.9815216
51
341.1307923
0
ARC
8
DEFAULT_255_2_778
10
10.619651
20
10.3970921
40
1.5043972
50
353.4027939
51
359.2045956
0
ARC
8
DEFAULT_255_2_778
10
10.6175163
20
10.3971383
40
1.5065323
50
359.2039636
51
359.9994227
0
ARC
8
DEFAULT_255_2_778
10
10.6165784
20
10.3970567
40
1.5074701
50
0.0025243
51
12.4346381
0
ARC
8
DEFAULT_255_2_778
10
11.2641464
20
10.3894707
40
0.8889388
50
21.9430613
51
29.8689728
0
ARC
8
DEFAULT_255_2_778
10
11.544746
20
10.55074
40
0.5652972
50
29.8584702
51
42.9684601
0
ARC
8
DEFAULT_255_2_778
10
11.3706735
20
10.3727519
40
0.8140695
50
43.7843549
51
51.5343782
0
ARC
8
DEFAULT_255_2_778
10
13.1019675
20
12.5550741
40
1.9715922
50
228.0748131
51
231.5905023
0
ARC
8
DEFAULT_255_2_778
10
12.3753697
20
11.7301787
40
0.8724357
50
223.2091406
51
227.3812812
0
ARC
8
DEFAULT_255_2_778
10
12.0818036
20
11.4299397
40
0.4532559
50
186.0163499
51
220.9536624
0
ARC
8
DEFAULT_255_2_778
10
14.2892288
20
11.8555257
40
2.6999558
50
188.2528892
51
190.0916014
0
ARC
8
DEFAULT_255_2_778
10
6.8045297
20
10.7755395
40
4.86226
50
8.1872468
51
9.5228201
0
ARC
8
DEFAULT_255_2_778
10
10.5613112
20
11.3684248
40
1.0597999
50
11.5131786
51
17.9708894
0
ARC
8
DEFAULT_255_2_778
10
-7.5364262
20
5.9029161
40
19.9646144
50
16.8662162
51
16.879025
0
ARC
8
DEFAULT_255_2_778
10
12.9757394
20
12.1466108
40
1.4768764
50
193.6351727
51
197.6149766
0
ARC
8
DEFAULT_255_2_778
10
11.0933402
20
9.0202973
40
2.8139107
50
80.8566154
51
89.9988408
0
ARC
8
DEFAULT_255_2_778
10
11.0934113
20
9.0203518
40
2.8138562
50
90.0002887
51
91.0402974
0
ARC
8
DEFAULT_255_2_778
10
11.0933913
20
9.0222655
40
2.8119425
50
91.0405968
51
93.2252603
0
ARC
8
DEFAULT_255_2_778
10
12.5259084
20
10.2552605
40
2.2381745
50
134.9975408
51
135.2937612
0
ARC
8
DEFAULT_255_2_778
10
90.7751783
20
-69.013827
40
113.6227621
50
134.5888343
51
134.6363148
0
ARC
8
DEFAULT_255_2_778
10
10.7011817
20
12.2722469
40
0.4807751
50
310.0246932
51
347.8495698
0
ARC
8
DEFAULT_255_2_778
10
10.3968322
20
12.2945157
40
0.7841349
50
350.9410949
51
0.0518149
0
ARC
8
DEFAULT_255_2_778
10
10.3851865
20
12.2953645
40
0.7957803
50
359.9899461
51
4.840185
0
ARC
8
DEFAULT_255_2_778
10
10.5570474
20
12.3212674
40
0.6224494
50
3.799098
51
30.7855961
0
ARC
8
DEFAULT_255_2_778
10
9.8768256
20
11.7936614
40
1.4805985
50
34.8563235
51
50.7923128
0
ARC
8
DEFAULT_255_2_778
10
0.7042392
20
1.421462
40
15.3257977
50
48.7324872
51
49.0756501
0
ARC
8
DEFAULT_255_2_778
10
9.675994
20
11.7188342
40
1.6686384
50
50.2231908
51
58.7293221
0
ARC
8
DEFAULT_255_2_778
10
13.4274199
20
17.8535812
40
5.5222213
50
236.2052861
51
238.5010534
0
ARC
8
DEFAULT_255_2_778
10
11.0040388
20
14.2013421
40
1.1392842
50
233.0180181
51
235.3237439
0
ARC
8
DEFAULT_255_2_778
10
9.0862859
20
16.6682788
40
3.5948727
50
290.0488868
51
292.7283975
0
ARC
8
DEFAULT_255_2_778
10
28.9039793
20
-31.6381459
40
48.618752
50
112.2623857
51
112.2746318
0
ARC
8
DEFAULT_255_2_778
10
11.148937
20
11.8733746
40
1.6250209
50
102.9674402
51
114.1217219
0
ARC
8
DEFAULT_255_2_778
10
11.0273127
20
12.2055879
40
1.2747463
50
92.124065
51
100.9905216
0
ARC
8
DEFAULT_255_2_778
10
11.0243074
20
12.2528753
40
1.2273808
50
90.0007925
51
92.0656841
0
ARC
8
DEFAULT_255_2_778
10
11.0146228
20
12.1358301
40
1.3444607
50
69.9242724
51
89.5879997
0
ARC
8
DEFAULT_255_2_778
10
10.7770883
20
11.4489295
40
2.0712006
50
62.4892018
51
70.2751776
0
ARC
8
DEFAULT_255_2_778
10
10.3033505
20
10.5187505
40
3.1150397
50
59.1249754
51
62.6638478
0
ARC
8
DEFAULT_255_2_778
10
10.5137647
20
10.7738275
40
2.7885752
50
43.4235063
51
60.1461753
0
ARC
8
DEFAULT_255_2_778
10
10.7491972
20
10.9888929
40
2.469756
50
39.4807593
51
43.5541729
0
ARC
8
DEFAULT_255_2_778
10
8.418872
20
9.0644992
40
5.4919573
50
37.0600263
51
39.5188935
0
ARC
8
DEFAULT_255_2_778
10
2.9410798
20
4.8943538
40
12.376433
50
36.4928581
51
37.1831509
0
ARC
8
DEFAULT_255_2_778
10
-9.1095776
20
-4.0380181
40
27.3766168
50
36.3458177
51
36.5226033
0
ARC
8
DEFAULT_255_2_778
10
37.5591541
20
30.2042044
40
30.5069366
50
216.1992934
51
216.7563551
0
ARC
8
DEFAULT_255_2_778
10
17.9808509
20
15.5847616
40
6.0725752
50
216.7847201
51
218.716801
0
ARC
8
DEFAULT_255_2_778
10
15.8185358
20
13.8618329
40
3.3078024
50
218.8580824
51
219.9426938
0
ARC
8
DEFAULT_255_2_778
10
24.3207593
20
20.9504661
40
14.3774184
50
219.8476713
51
220.9489942
0
ARC
8
DEFAULT_255_2_778
10
17.0239991
20
14.6041519
40
4.7069461
50
220.8135428
51
224.4879032
0
ARC
8
DEFAULT_255_2_778
10
15.6253499
20
13.2473761
40
2.7584066
50
224.7411865
51
226.7448698
0
ARC
8
DEFAULT_255_2_778
10
15.106159
20
12.6883875
40
1.9955212
50
226.6037721
51
232.2216776
0
ARC
8
DEFAULT_255_2_778
10
14.7249884
20
12.2064901
40
1.3811409
50
232.4729898
51
241.8904164
0
ARC
8
DEFAULT_255_2_778
10
15.50075
20
13.6961573
40
3.060657
50
242.2201122
51
246.0554011
0
ARC
8
DEFAULT_255_2_778
10
8.966226
20
-0.6831755
40
12.7339521
50
65.4286222
51
65.4423179
0
ARC
8
DEFAULT_255_2_778
10
13.0448326
20
8.16072
40
2.9951001
50
62.1723303
51
66.0357704
0
ARC
8
DEFAULT_255_2_778
10
11.6559082
20
9.0241886
40
2.9184543
50
7.8411856
51
12.6709036
0
ARC
8
DEFAULT_255_2_778
10
24.6630695
20
10.9444293
40
10.2298622
50
188.5567067
51
189.0077548
0
ARC
8
DEFAULT_255_2_778
10
15.8124535
20
9.4844764
40
1.2610712
50
186.4524596
51
208.3156903
0
ARC
8
DEFAULT_255_2_778
10
15.4069385
20
9.3019946
40
0.818135
50
210.5362823
51
214.9297384
0
ARC
8
DEFAULT_255_2_778
10
14.2642549
20
12.481801
40
3.6786448
50
277.3707636
51
282.6411493
0
ARC
8
DEFAULT_255_2_778
10
14.6642238
20
10.7955697
40
1.9458732
50
282.0153827
51
305.1603637
0
ARC
8
DEFAULT_255_2_778
10
14.4342124
20
11.1188386
40
2.3426164
50
305.2064537
51
309.7327855
0
ARC
8
DEFAULT_255_2_778
10
14.0851184
20
11.5407266
40
2.8902066
50
309.708817
51
312.8464456
0
ARC
8
DEFAULT_255_2_778
10
13.7752285
20
11.8790482
40
3.3489943
50
312.7974105
51
313.7425364
0
ARC
8
DEFAULT_255_2_778
10
14.6197626
20
10.9908197
40
2.1233669
50
313.8504979
51
316.983995
0
ARC
8
DEFAULT_255_2_778
10
14.1432911
20
11.4363229
40
2.7756687
50
316.9698452
51
319.6493001
0
ARC
8
DEFAULT_255_2_778
10
13.7235034
20
11.7958371
40
3.3283605
50
319.61166
51
321.0166822
0
ARC
8
DEFAULT_255_2_778
10
13.0723784
20
12.3140375
40
4.1605012
50
321.1104177
51
325.1210572
0
ARC
8
DEFAULT_255_2_778
10
12.2686812
20
12.8765533
40
5.141496
50
325.1001421
51
331.1765386
0
ARC
8
DEFAULT_255_2_778
10
12.839747
20
12.5680024
40
4.4924265
50
331.1128503
51
335.1428647
0
ARC
8
DEFAULT_255_2_778
10
13.9187393
20
12.0688744
40
3.3035815
50
335.1311763
51
339.0897919
0
ARC
8
DEFAULT_255_2_778
10
14.9142062
20
11.6893752
40
2.2382302
50
339.0698032
51
343.5522885
0
ARC
8
DEFAULT_255_2_778
10
15.4780517
20
11.5185844
40
1.6491056
50
343.69663
51
345.5635983
0
ARC
8
DEFAULT_255_2_778
10
14.5640981
20
11.7412579
40
2.5897434
50
345.8337537
51
350.2539217
0
ARC
8
DEFAULT_255_2_778
10
13.1477774
20
11.9868649
40
4.0272008
50
350.2211329
51
353.9115876
0
ARC
8
DEFAULT_255_2_778
10
11.5094998
20
12.1631855
40
5.6749387
50
353.8957817
51
357.4999655
0
ARC
8
DEFAULT_255_2_778
10
10.5208254
20
12.2129624
40
6.6648466
50
357.4431967
51
359.9301747
0
ARC
8
DEFAULT_255_2_778
10
10.2901628
20
12.2142349
40
6.8955106
50
359.921937
51
359.9999999
0
ARC
8
DEFAULT_255_2_778
10
10.8268604
20
12.2209169
40
6.3588166
50
359.9397925
51
4.4413934
0
ARC
8
DEFAULT_255_2_778
10
12.4873124
20
12.3491011
40
4.6934244
50
4.4509768
51
7.9727092
0
ARC
8
DEFAULT_255_2_778
10
14.0067586
20
12.5632625
40
3.1589607
50
7.9483678
51
11.9613126
0
ARC
8
DEFAULT_255_2_778
10
14.8622407
20
12.7389889
40
2.28564
50
12.0963952
51
13.7913108
0
ARC
8
DEFAULT_255_2_778
10
13.4880712
20
12.4034486
40
3.7001813
50
13.764736
51
17.5193923
0
ARC
8
DEFAULT_255_2_778
10
14.4106017
20
12.6955984
40
2.732497
50
17.5007212
51
23.3805728
0
ARC
8
DEFAULT_255_2_778
10
14.4549398
20
12.7046559
40
2.6882214
50
23.5783902
51
30.7283518
0
ARC
8
DEFAULT_255_2_778
10
12.9516794
20
11.8128293
40
4.4361186
50
30.7089163
51
33.9484264
0
ARC
8
DEFAULT_255_2_778
10
9.0222528
20
9.1925318
40
9.1590567
50
33.8187397
51
34.7793741
0
ARC
8
DEFAULT_255_2_778
10
-3.2443889
20
0.6776184
40
24.0913788
50
34.7714093
51
35.1656237
0
ARC
8
DEFAULT_255_2_778
10
34.4522995
20
31.5996213
40
24.7925785
50
223.2650475
51
223.4384872
0
ARC
8
DEFAULT_255_2_778
10
260.9192083
20
244.6452954
40
335.719772
50
223.232769
51
223.2519664
0
ARC
8
DEFAULT_255_2_778
10
13.1496543
20
11.9394113
40
4.1979633
50
40.9248967
51
56.0594175
0
ARC
8
DEFAULT_255_2_778
10
14.3431945
20
13.5545305
40
2.1934223
50
58.3693822
51
59.3104503
0
ARC
8
DEFAULT_255_2_778
10
14.0239133
20
12.9179241
40
2.9042621
50
60.3038274
51
79.5244463
0
ARC
8
DEFAULT_255_2_778
10
13.708508
20
11.5375811
40
4.3193495
50
78.7394057
51
83.4776137
0
ARC
8
DEFAULT_255_2_778
10
13.5834591
20
10.3992982
40
5.4644718
50
83.5306645
51
89.053043
0
ARC
8
DEFAULT_255_2_778
10
13.5558225
20
9.4717481
40
6.392364
50
88.9427652
51
90.0047376
0
ARC
8
DEFAULT_255_2_778
10
13.5553172
20
9.2577209
40
6.6063912
50
90.0002019
51
90.2405015
0
ARC
8
DEFAULT_255_2_778
10
13.5375692
20
13.5568335
40
2.3072419
50
90.2478967
51
110.7964097
0
ARC
8
DEFAULT_255_2_778
10
13.6757019
20
13.3124327
40
2.5851104
50
111.7352873
51
124.4173655
0
ARC
8
DEFAULT_255_2_778
10
45.8425218
20
-37.2144724
40
62.4808789
50
122.5620151
51
122.6142378
0
ARC
8
DEFAULT_255_2_778
10
10.4719775
20
17.897641
40
3.0064089
50
293.431573
51
304.3093056
0
ARC
8
DEFAULT_255_2_778
10
11.4800268
20
15.5619332
40
0.4624755
50
278.2721832
51
293.9124325
0
ARC
8
DEFAULT_255_2_778
10
11.5024468
20
15.4347167
40
0.3333796
50
270.0688495
51
277.604772
0
ARC
8
DEFAULT_255_2_778
10
11.505315
20
15.4300238
40
0.3286958
50
241.2839219
51
269.5698569
0
ARC
8
DEFAULT_255_2_778
10
11.9456
20
15.4189796
40
0.659328
50
204.8640898
51
224.9477289
0
ARC
8
DEFAULT_255_2_778
10
11.8713096
20
15.3791486
40
0.5791195
50
227.3518725
51
250.4079025
0
ARC
8
DEFAULT_255_2_778
10
12.1350451
20
16.0313301
40
1.2823241
50
249.0773709
51
254.1346563
0
ARC
8
DEFAULT_255_2_778
10
11.9296286
20
15.3248931
40
0.5466595
50
254.6029142
51
263.1473482
0
ARC
8
DEFAULT_255_2_778
10
12.0208119
20
16.0382009
40
1.2657628
50
262.9018885
51
267.8500786
0
ARC
8
DEFAULT_255_2_778
10
12.0666481
20
17.0663233
40
2.2948923
50
267.6694567
51
270.086198
0
ARC
8
DEFAULT_255_2_778
10
12.0598156
20
18.723292
40
3.9518718
50
270.1491164
51
272.7633118
0
ARC
8
DEFAULT_255_2_778
10
11.9776724
20
20.6574094
40
5.8877109
50
272.6543537
51
273.3654686
0
ARC
8
DEFAULT_255_2_778
10
11.8144321
20
23.2870559
40
8.5224097
50
273.4231928
51
274.8263854
0
ARC
8
DEFAULT_255_2_778
10
11.4733
20
27.4710862
40
12.7203116
50
274.771847
51
275.0683423
0
ARC
8
DEFAULT_255_2_778
10
11.1656801
20
30.944904
40
16.2077233
50
275.0666681
51
275.2531015
0
ARC
8
DEFAULT_255_2_778
10
12.4667399
20
16.7654752
40
1.9687308
50
275.3290522
51
279.6927677
0
ARC
8
DEFAULT_255_2_778
10
12.1327575
20
18.6597064
40
3.8921658
50
279.8442817
51
281.9934312
0
ARC
8
DEFAULT_255_2_778
10
-4.9128681
20
100.9173521
40
87.8973195
50
281.719942
51
281.7353104
0
ARC
8
DEFAULT_255_2_778
10
13.6525851
20
11.6979136
40
3.2334128
50
98.2741088
51
102.2843609
0
ARC
8
DEFAULT_255_2_778
10
13.4708284
20
12.8431022
40
2.0740428
50
93.0756129
51
97.8580204
0
ARC
8
DEFAULT_255_2_778
10
13.4874146
20
12.5278599
40
2.389721
50
89.9497439
51
93.0671827
0
ARC
8
DEFAULT_255_2_778
10
13.4893585
20
12.2029785
40
2.7146013
50
89.2606579
51
89.9967872
0
ARC
8
DEFAULT_255_2_778
10
13.5007139
20
13.2237306
40
1.6937887
50
78.1060048
51
89.1991957
0
ARC
8
DEFAULT_255_2_778
10
13.4686729
20
13.0706946
40
1.8501426
50
69.8281558
51
78.1118225
0
ARC
8
DEFAULT_255_2_778
10
13.418305
20
12.9295989
40
1.9999532
50
65.2992615
51
69.867591
0
ARC
8
DEFAULT_255_2_778
10
13.3744369
20
12.8332021
40
2.1058616
50
62.5529185
51
65.3109049
0
ARC
8
DEFAULT_255_2_778
10
13.3184796
20
12.7256273
40
2.2271198
50
60.3683887
51
62.5510082
0
ARC
8
DEFAULT_255_2_778
10
13.2568881
20
12.6163354
40
2.352571
50
60.3197153
51
60.3805563
0
ARC
8
DEFAULT_255_2_778
10
13.1635891
20
12.3999122
40
2.5869297
50
49.162924
51
60.8979189
0
ARC
8
DEFAULT_255_2_778
10
13.4579886
20
12.7743613
40
2.111237
50
33.4720041
51
48.5625625
0
ARC
8
DEFAULT_255_2_778
10
13.0559636
20
12.4907021
40
2.6030772
50
31.9048223
51
33.7996873
0
ARC
8
DEFAULT_255_2_778
10
13.2000914
20
12.6230853
40
2.4110293
50
14.2643616
51
31.0442753
0
ARC
8
DEFAULT_255_2_778
10
12.6033974
20
12.4780659
40
3.0250659
50
0.6191314
51
14.1417251
0
ARC
8
DEFAULT_255_2_778
10
12.3493093
20
12.4469208
40
3.2795986
50
0.0117947
51
1.1152556
0
ARC
8
DEFAULT_255_2_778
10
13.5491477
20
12.420067
40
2.0799424
50
346.1711633
51
0.7583576
0
ARC
8
DEFAULT_255_2_778
10
13.8398844
20
12.3648211
40
1.7844984
50
344.5006372
51
345.6623167
0
ARC
8
DEFAULT_255_2_778
10
13.2560667
20
12.5153442
40
2.3873337
50
344.2316847
51
344.7637532
0
ARC
8
DEFAULT_255_2_778
10
14.085041
20
12.2318249
40
1.5132572
50
319.7723149
51
346.0333985
0
ARC
8
DEFAULT_255_2_778
10
14.6907448
20
11.7390791
40
0.7327367
50
276.2645769
51
318.6011894
0
ARC
8
DEFAULT_255_2_778
10
14.6845486
20
11.8158227
40
0.8097013
50
269.9464732
51
276.1078339
0
ARC
8
DEFAULT_255_2_778
10
14.684384
20
11.9027921
40
0.8966705
50
265.348096
51
269.9621858
0
ARC
8
DEFAULT_255_2_778
10
14.6904442
20
11.9823228
40
0.9764307
50
262.7243854
51
265.3721437
0
ARC
8
DEFAULT_255_2_778
10
14.6288097
20
11.4527337
40
0.4433399
50
246.9908849
51
261.9579661
0
ARC
8
DEFAULT_255_2_778
10
14.7700707
20
11.7956674
40
0.8142162
50
238.2082696
51
247.2739403
0
ARC
8
DEFAULT_255_2_778
10
15.0805151
20
12.3009772
40
1.4072682
50
231.8393658
51
238.3037815
0
ARC
8
DEFAULT_255_2_778
10
15.4113126
20
12.735131
40
1.9530415
50
230.4295954
51
232.0784568
0
ARC
8
DEFAULT_255_2_778
10
15.9289614
20
13.3449594
40
2.752899
50
225.116629
51
230.2100357
0
ARC
8
DEFAULT_255_2_778
10
16.8361238
20
14.2685416
40
4.0474619
50
222.502155
51
225.2436867
0
ARC
8
DEFAULT_255_2_778
10
17.6438748
20
15.0101955
40
5.1440526
50
219.9994369
51
222.513902
0
ARC
8
DEFAULT_255_2_778
10
18.0352292
20
15.3425823
40
5.6575024
50
218.5621395
51
220.0305317
0
ARC
8
DEFAULT_255_2_778
10
17.7936055
20
15.1510269
40
5.3491606
50
217.4489011
51
218.5710926
0
ARC
8
DEFAULT_255_2_778
10
16.9560339
20
14.5110088
40
4.2950506
50
216.3170227
51
217.4646508
0
LINE
8
DEFAULT_255_2_778
10
13.4952866
20
11.9672538
11
13.4941054
21
11.9688578
0
LINE
8
DEFAULT_255_2_778
10
13.4941054
20
11.9688578
11
13.4929287
21
11.9704558
0
ARC
8
DEFAULT_255_2_778
10
-5.0317446
20
-1.6664412
40
23.002793
50
36.3585598
51
36.3634844
0
LINE
8
DEFAULT_255_2_778
10
13.4917565
20
11.972048
11
13.4905887
21
11.9736343
0
LINE
8
DEFAULT_255_2_778
10
13.4905887
20
11.9736343
11
13.4894254
21
11.9752147
0
ARC
8
DEFAULT_255_2_778
10
19.9811128
20
16.753875
40
8.0608684
50
216.3436276
51
216.3575243
0
LINE
8
DEFAULT_255_2_778
10
13.4882666
20
11.9767893
11
13.4871121
21
11.9783581
0
ARC
8
DEFAULT_255_2_778
10
19.8839083
20
16.6860986
40
7.9424065
50
216.3373179
51
216.3513168
0
LINE
8
DEFAULT_255_2_778
10
13.4859621
20
11.9799212
11
13.4848164
21
11.9814784
0
LINE
8
DEFAULT_255_2_778
10
13.4848164
20
11.9814784
11
13.4836751
21
11.9830299
0
ARC
8
DEFAULT_255_2_778
10
-90.0192118
20
-63.676134
40
128.2074751
50
36.1662819
51
36.3895752
0
ARC
8
DEFAULT_255_2_778
10
6.7406529
20
7.7731604
40
7.9275069
50
35.5811744
51
44.1161086
0
ARC
8
DEFAULT_255_2_778
10
9.5704625
20
10.4131638
40
4.0588392
50
45.1682931
51
47.6527518
0
ARC
8
DEFAULT_255_2_778
10
11.0796751
20
12.0362849
40
1.8427223
50
48.3384374
51
82.0937068
0
ARC
8
DEFAULT_255_2_778
10
11.1338979
20
12.3097669
40
1.5644642
50
82.68295
51
84.9067366
0
ARC
8
DEFAULT_255_2_778
10
10.8804137
20
9.5617112
40
4.3241813
50
84.7938636
51
86.1081094
0
ARC
8
DEFAULT_255_2_778
10
10.9482592
20
10.5670558
40
3.3165501
50
86.0986448
51
87.851839
0
ARC
8
DEFAULT_255_2_778
10
10.9763287
20
11.3188838
40
2.5641983
50
87.8489003
51
89.9562148
0
ARC
8
DEFAULT_255_2_778
10
10.9719015
20
12.0743821
40
1.8087105
50
89.7976834
51
95.4696193
0
ARC
8
DEFAULT_255_2_778
10
10.9146715
20
12.6535964
40
1.2266797
50
95.387414
51
105.4104178
0
ARC
8
DEFAULT_255_2_778
10
10.8977089
20
12.7409943
40
1.1379373
50
105.7564139
51
118.1486979
0
ARC
8
DEFAULT_255_2_778
10
11.1694405
20
12.2330797
40
1.7139716
50
118.1479745
51
124.6127055
0
ARC
8
DEFAULT_255_2_778
10
11.9299656
20
11.116859
40
3.0646419
50
124.4608461
51
127.342937
0
ARC
8
DEFAULT_255_2_778
10
13.5458294
20
8.98967
40
5.7359584
50
127.286231
51
128.7056815
0
ARC
8
DEFAULT_255_2_778
10
18.0366616
20
3.3800345
40
12.9217485
50
128.6909874
51
129.3870722
0
ARC
8
DEFAULT_255_2_778
10
10.6494428
20
15.998449
40
2.7540315
50
252.8442721
51
255.1333431
0
ARC
8
DEFAULT_255_2_778
10
-2.0387313
20
-30.6250177
40
45.5651457
50
74.7470843
51
74.7545413
0
ARC
8
DEFAULT_255_2_778
10
9.611677
20
11.9754219
40
1.4007402
50
67.0045853
51
76.083679
0
ARC
8
DEFAULT_255_2_778
10
9.1856481
20
11.0516754
40
2.4177163
50
47.4597084
51
66.2626506
0
ARC
8
DEFAULT_255_2_778
10
9.0109374
20
10.8836826
40
2.6596603
50
44.5458071
51
47.1334276
0
ARC
8
DEFAULT_255_2_778
10
10.0687836
20
11.9225194
40
1.1770228
50
39.1660729
51
44.6280121
0
ARC
8
DEFAULT_255_2_778
10
10.5318497
20
12.2881216
40
0.5871645
50
6.0734918
51
40.0443954
0
ARC
8
DEFAULT_255_2_778
10
10.1130936
20
12.2269395
40
1.0101786
50
1.3621862
51
7.011238
0
ARC
8
DEFAULT_255_2_778
10
10.8082984
20
12.2416807
40
0.3148249
50
359.9991952
51
1.6878904
0
ARC
8
DEFAULT_255_2_778
10
10.6441787
20
12.278109
40
0.4803283
50
313.6489831
51
355.6499564
0
ARC
8
DEFAULT_255_2_778
10
9.5699663
20
13.2064446
40
1.8984323
50
313.3424106
51
317.7724268
0
ARC
8
DEFAULT_255_2_778
10
6.012544
20
16.9070952
40
7.0316054
50
313.3732513
51
313.7271894
0
ARC
8
DEFAULT_255_2_778
10
9.660922
20
13.0585733
40
1.7286392
50
308.4470131
51
313.0741698
0
ARC
8
DEFAULT_255_2_778
10
8.7047862
20
14.2298225
40
3.2405238
50
308.7032632
51
308.8105019
0
ARC
8
DEFAULT_255_2_778
10
8.5349698
20
14.4420003
40
3.5122902
50
308.6047894
51
308.7008458
0
ARC
8
DEFAULT_255_2_778
10
8.2618698
20
14.7845994
40
3.95042
50
308.5169084
51
308.5998006
0
ARC
8
DEFAULT_255_2_778
10
8.3253463
20
14.7052931
40
3.8488391
50
308.4243218
51
308.5127705
0
ARC
8
DEFAULT_255_2_778
10
8.2966126
20
14.7411466
40
3.8947853
50
308.337795
51
308.4276857
0
ARC
8
DEFAULT_255_2_778
10
7.9884193
20
15.1304476
40
4.3913115
50
308.2638171
51
308.3411181
0
ARC
8
DEFAULT_255_2_778
10
7.7691598
20
15.4083548
40
4.7452989
50
308.195384
51
308.2644466
0
ARC
8
DEFAULT_255_2_778
10
7.1461881
20
16.2003213
40
5.7529222
50
308.1392922
51
308.1942789
0
ARC
8
DEFAULT_255_2_778
10
7.4022691
20
15.8740951
40
5.338192
50
308.0827319
51
308.139921
0
ARC
8
DEFAULT_255_2_778
10
6.8254799
20
16.6100772
40
6.2732617
50
308.0362316
51
308.0831893
0
ARC
8
DEFAULT_255_2_778
10
6.4779997
20
17.0539085
40
6.836936
50
307.9964376
51
308.0380067
0
ARC
8
DEFAULT_255_2_778
10
14.6526961
20
6.5143363
40
6.5013731
50
127.5890096
51
128.7352023
0
ARC
8
DEFAULT_255_2_778
10
11.4058353
20
10.5816006
40
1.2971451
50
129.2774382
51
129.6009894
0
ARC
8
DEFAULT_255_2_778
10
-39.5238987
20
66.6617454
40
74.4592621
50
312.2658125
51
312.2905024
0
ARC
8
DEFAULT_255_2_778
10
10.7775532
20
11.2743018
40
0.3615802
50
127.9387908
51
154.7610906
0
ARC
8
DEFAULT_255_2_778
10
10.5697146
20
11.3856198
40
0.1266934
50
160.2280501
51
179.7492665
0
ARC
8
DEFAULT_255_2_778
10
10.5798024
20
11.3880545
40
0.1367929
50
180.7875479
51
208.6397396
0
ARC
8
DEFAULT_255_2_778
10
10.668835
20
11.4340355
40
0.2369826
50
208.0792816
51
221.2590476
0
ARC
8
DEFAULT_255_2_778
10
10.822019
20
11.5939376
40
0.4579883
50
223.6598113
51
239.1144137
0
ARC
8
DEFAULT_255_2_778
10
21.2912631
20
27.5967128
40
19.58075
50
236.8606774
51
236.9609108
0
ARC
8
DEFAULT_255_2_778
10
10.0339108
20
10.2777568
40
1.0753571
50
53.8023871
51
57.2519194
0
ARC
8
DEFAULT_255_2_778
10
10.5845461
20
11.0428347
40
0.1329714
50
10.8898794
51
50.5779915
0
ARC
8
DEFAULT_255_2_778
10
10.4481712
20
11.0053596
40
0.2741928
50
359.5413025
51
13.1966247
0
ARC
8
DEFAULT_255_2_778
10
10.345426
20
11.0043895
40
0.3769312
50
349.8331756
51
359.8137831
0
ARC
8
DEFAULT_255_2_778
10
10.3810499
20
10.9886553
40
0.3392141
50
317.0023926
51
351.3871465
0
ARC
8
DEFAULT_255_2_778
10
10.5053751
20
10.8835749
40
0.1768014
50
299.4070858
51
314.4310661
0
ARC
8
DEFAULT_255_2_778
10
10.3549299
20
11.1569203
40
0.4888076
50
276.7553392
51
299.0372827
0
ARC
8
DEFAULT_255_2_778
10
10.3599906
20
11.1243673
40
0.4558869
50
270.0228002
51
276.6049846
0
ARC
8
DEFAULT_255_2_778
10
10.3543261
20
11.0620702
40
0.3936331
50
227.7158358
51
270.8509376
0
ARC
8
DEFAULT_255_2_778
10
9.1954504
20
16.6335038
40
5.9304271
50
278.6706302
51
278.8450506
0
ARC
8
DEFAULT_255_2_778
10
9.9969173
20
11.6442327
40
0.8776034
50
277.2276041
51
287.3667922
0
ARC
8
DEFAULT_255_2_778
10
10.2279944
20
10.9440133
40
0.1408042
50
282.6672131
51
3.489377
0
ARC
8
DEFAULT_255_2_778
10
10.1094413
20
10.9525149
40
0.2590962
50
0.0150847
51
1.954981
0
ARC
8
DEFAULT_255_2_778
10
10.1946386
20
10.93487
40
0.1757549
50
8.6666797
51
59.2281709
0
ARC
8
DEFAULT_255_2_778
10
9.8967774
20
10.5478453
40
0.6632164
50
54.2183813
51
66.2440984
0
ARC
8
DEFAULT_255_2_778
10
9.7572673
20
10.2613088
40
0.9817515
50
65.528532
51
65.8526657
0
ARC
8
DEFAULT_255_2_778
10
9.6119871
20
9.9430716
40
1.331576
50
65.7501829
51
72.6812003
0
ARC
8
DEFAULT_255_2_778
10
8.955988
20
7.8185864
40
3.5550323
50
72.7807349
51
74.8738523
0
ARC
8
DEFAULT_255_2_778
10
11.0176709
20
15.3710226
40
4.2737699
50
253.666864
51
254.6126692
0
ARC
8
DEFAULT_255_2_778
10
10.1356823
20
12.4085505
40
1.182895
50
243.9428921
51
254.3102391
0
ARC
8
DEFAULT_255_2_778
10
10.0641536
20
12.2386199
40
0.9988706
50
234.446596
51
243.3471009
0
ARC
8
DEFAULT_255_2_778
10
10.1276315
20
12.3321515
40
1.1118789
50
234.3052243
51
234.5878441
0
ARC
8
DEFAULT_255_2_778
10
10.2778658
20
12.5490359
40
1.3756829
50
230.6171485
51
234.4940654
0
ARC
8
DEFAULT_255_2_778
10
9.9115604
20
12.1049019
40
0.7999817
50
224.2168963
51
230.711932
0
ARC
8
DEFAULT_255_2_778
10
9.7526499
20
11.9471066
40
0.5760516
50
220.3168875
51
223.9908901
0
ARC
8
DEFAULT_255_2_778
10
9.7427624
20
11.9255043
40
0.554627
50
192.3537733
51
219.2761471
0
ARC
8
DEFAULT_255_2_778
10
11.0294617
20
12.3016081
40
1.8942402
50
194.2073634
51
195.1409392
0
ARC
8
DEFAULT_255_2_778
10
13.4775296
20
12.9141469
40
4.4177734
50
193.1902094
51
194.1161813
0
ARC
8
DEFAULT_255_2_778
10
-15.2493796
20
6.1668147
40
25.0909006
50
13.2228362
51
13.4074542
0
ARC
8
DEFAULT_255_2_778
10
8.6330035
20
17.0345969
40
5.0770274
50
275.2820987
51
275.9317978
0
LINE
8
DEFAULT_255_2_778
10
9.100392
20
11.9791291
11
9.098388
21
11.97894
0
ARC
8
DEFAULT_255_2_778
10
9.215114
20
10.3995093
40
1.5837381
50
94.2266929
51
102.4949954
0
ARC
8
DEFAULT_255_2_778
10
9.1549579
20
10.7461863
40
1.2323645
50
103.2516297
51
108.3400651
0
ARC
8
DEFAULT_255_2_778
10
9.2044079
20
10.6754534
40
1.3152961
50
109.415288
51
117.547227
0
ARC
8
DEFAULT_255_2_778
10
11.7064889
20
5.6368627
40
6.9407236
50
116.624066
51
117.0288296
0
ARC
8
DEFAULT_255_2_778
10
7.682972
20
13.4316956
40
1.8316606
50
291.3047653
51
298.3360389
0
ARC
8
DEFAULT_255_2_778
10
8.173075
20
12.2079964
40
0.5136597
50
282.469764
51
289.9655807
0
ARC
8
DEFAULT_255_2_778
10
7.4212823
20
15.7193771
40
4.1046086
50
280.4786908
51
282.1328675
0
ARC
8
DEFAULT_255_2_778
10
7.7648552
20
13.8500387
40
2.2039613
50
277.709314
51
280.5341491
0
ARC
8
DEFAULT_255_2_778
10
7.9015268
20
12.8247396
40
1.1695973
50
272.7276735
51
277.812422
0
ARC
8
DEFAULT_255_2_778
10
7.9218476
20
12.4643662
40
0.8086711
50
270.0324368
51
272.5046338
0
ARC
8
DEFAULT_255_2_778
10
7.9209368
20
12.325677
40
0.6699832
50
261.5637544
51
270.1170451
0
ARC
8
DEFAULT_255_2_778
10
7.9324858
20
12.4046589
40
0.7498048
50
259.8968779
51
261.5762298
0
ARC
8
DEFAULT_255_2_778
10
8.0648866
20
13.0673577
40
1.425523
50
254.8258654
51
259.3302769
0
ARC
8
DEFAULT_255_2_778
10
12.8802845
20
31.5579865
40
20.5328211
50
255.2396071
51
255.362976
0
ARC
8
DEFAULT_255_2_778
10
7.4331359
20
10.8430804
40
0.8863577
50
75.9052866
51
88.0349546
0
ARC
8
DEFAULT_255_2_778
10
7.4177174
20
10.5952697
40
1.1345723
50
87.6858923
51
90.0191893
0
ARC
8
DEFAULT_255_2_778
10
7.4417211
20
9.9897
40
1.7403129
50
90.8028029
51
102.1861913
0
ARC
8
DEFAULT_255_2_778
10
8.0989306
20
6.954445
40
4.845904
50
102.2061827
51
107.9375643
0
ARC
8
DEFAULT_255_2_778
10
14.5580233
20
-13.8501638
40
26.6298225
50
107.3732453
51
107.7648709
0
ARC
8
DEFAULT_255_2_778
10
-47.649652
20
180.9933061
40
177.9032532
50
287.6911869
51
287.698019
0
ARC
8
DEFAULT_255_2_778
10
-10.2256417
20
63.6615761
40
54.7476953
50
287.6555353
51
287.6926189
0
ARC
8
DEFAULT_255_2_778
10
6.3222426
20
11.6916899
40
0.2069668
50
275.5266676
51
285.9125581
0
ARC
8
DEFAULT_255_2_778
10
6.2468294
20
12.3380277
40
0.8576587
50
273.2437248
51
276.3827682
0
ARC
8
DEFAULT_255_2_778
10
6.1001654
20
14.787268
40
3.3112828
50
272.3833175
51
273.3794268
0
ARC
8
DEFAULT_255_2_778
10
6.5468725
20
3.7571667
40
7.7278631
50
92.2916541
51
93.1487942
0
ARC
8
DEFAULT_255_2_778
10
6.2472383
20
9.21148
40
2.2653259
50
93.1593952
51
96.3938316
0
ARC
8
DEFAULT_255_2_778
10
6.0978152
20
10.4501391
40
1.017786
50
95.7996747
51
106.9659208
0
ARC
8
DEFAULT_255_2_778
10
5.9879785
20
10.8468389
40
0.6063948
50
107.9771348
51
109.1568654
0
ARC
8
DEFAULT_255_2_778
10
6.3849216
20
9.6463854
40
1.870727
50
108.5757387
51
113.6087393
0
ARC
8
DEFAULT_255_2_778
10
6.8483149
20
8.5822927
40
3.0313412
50
113.5794576
51
117.9110149
0
ARC
8
DEFAULT_255_2_778
10
7.2180495
20
7.865912
40
3.8374717
50
117.7824306
51
118.9770055
0
ARC
8
DEFAULT_255_2_778
10
7.4888692
20
7.3847392
40
4.389611
50
119.0267182
51
124.6537525
0
ARC
8
DEFAULT_255_2_778
10
7.0949499
20
7.9545448
40
3.6968983
50
124.6531509
51
126.994641
0
ARC
8
DEFAULT_255_2_778
10
6.5467532
20
8.6803046
40
2.7873681
50
126.971592
51
129.6368694
0
ARC
8
DEFAULT_255_2_778
10
6.2019384
20
9.1015394
40
2.2430121
50
129.7178713
51
129.9257269
0
ARC
8
DEFAULT_255_2_778
10
5.5221703
20
9.9230967
40
1.1767226
50
130.2165115
51
136.4852583
0
ARC
8
DEFAULT_255_2_778
10
5.977104
20
9.4882658
40
1.8060395
50
136.4187156
51
141.1150011
0
ARC
8
DEFAULT_255_2_778
10
6.5934753
20
8.9892744
40
2.5990746
50
141.0822452
51
144.890097
0
ARC
8
DEFAULT_255_2_778
10
7.3495466
20
8.4557277
40
3.5244469
50
144.8638241
51
147.9834937
0
ARC
8
DEFAULT_255_2_778
10
7.9553257
20
8.0720116
40
4.2415183
50
147.9269056
51
149.182103
0
ARC
8
DEFAULT_255_2_778
10
8.7677559
20
7.5955043
40
5.1833581
50
149.2593976
51
152.852353
0
ARC
8
DEFAULT_255_2_778
10
9.98707
20
6.9679542
40
6.5546869
50
152.8343424
51
156.2102845
0
ARC
8
DEFAULT_255_2_778
10
10.9918538
20
6.5230537
40
7.653561
50
156.1969034
51
159.7042665
0
ARC
8
DEFAULT_255_2_778
10
11.5061268
20
6.3302214
40
8.2027924
50
159.686968
51
164.03091
0
ARC
8
DEFAULT_255_2_778
10
11.4174191
20
6.3551024
40
8.1106629
50
164.0274881
51
165.5342654
0
ARC
8
DEFAULT_255_2_778
10
5.2181361
20
8.2350554
40
1.6606884
50
174.9529003
51
178.5380658
0
ARC
8
DEFAULT_255_2_778
10
5.7454505
20
8.2199822
40
2.1882162
50
178.4957804
51
180.0375423
0
ARC
8
DEFAULT_255_2_778
10
7.293333
20
8.2250049
40
3.7361038
50
180.0990149
51
181.363955
0
ARC
8
DEFAULT_255_2_778
10
16.8725302
20
8.4315958
40
13.3175218
50
181.2715256
51
181.3849292
0
ARC
8
DEFAULT_255_2_778
10
-2.447515
20
7.9512318
40
6.0085044
50
0.788977
51
1.5114998
0
ARC
8
DEFAULT_255_2_778
10
1.3927437
20
8.0090577
40
2.1678191
50
0.0193271
51
0.6583907
0
ARC
8
DEFAULT_255_2_778
10
2.8707327
20
7.9881532
40
0.6901692
50
346.0610644
51
1.7964286
0
ARC
8
DEFAULT_255_2_778
10
3.2201227
20
7.9100671
40
0.3323634
50
311.1343381
51
344.6168112
0
ARC
8
DEFAULT_255_2_778
10
3.149628
20
7.9828506
40
0.4335864
50
307.584659
51
311.8235467
0
ARC
8
DEFAULT_255_2_778
10
3.7249785
20
7.2695171
40
0.4830724
50
130.0586844
51
160.3140733
0
ARC
8
DEFAULT_255_2_778
10
4.3254475
20
7.0148025
40
1.1348716
50
158.4179088
51
165.527564
0
ARC
8
DEFAULT_255_2_778
10
5.5632179
20
6.6896922
40
2.414621
50
165.3980651
51
168.3091757
0
ARC
8
DEFAULT_255_2_778
10
-25.2417073
20
13.040916
40
29.0382248
50
348.1319186
51
348.353664
0
ARC
8
DEFAULT_255_2_778
10
1.9258363
20
7.3310467
40
1.2771366
50
344.7034579
51
348.1571518
0
ARC
8
DEFAULT_255_2_778
10
2.7741791
20
7.0971926
40
0.3971576
50
336.7721964
51
344.9579402
0
ARC
8
DEFAULT_255_2_778
10
2.9807341
20
7.0103563
40
0.173106
50
329.1750492
51
336.2210693
0
ARC
8
DEFAULT_255_2_778
10
2.9487749
20
7.0266216
40
0.2088991
50
309.3855589
51
329.8357423
0
ARC
8
DEFAULT_255_2_778
10
2.9112624
20
7.0875252
40
0.2799406
50
293.0221239
51
307.4096002
0
ARC
8
DEFAULT_255_2_778
10
3.3366909
20
6.0874667
40
0.8068467
50
113.0530349
51
120.0405897
0
ARC
8
DEFAULT_255_2_778
10
3.1981737
20
6.3493067
40
0.5109581
50
121.2932684
51
131.8704669
0
ARC
8
DEFAULT_255_2_778
10
3.3234579
20
6.2065062
40
0.700919
50
131.7054689
51
136.8744721
0
ARC
8
DEFAULT_255_2_778
10
2.0174597
20
7.4341585
40
1.0915005
50
312.2723743
51
316.7047928
0
ARC
8
DEFAULT_255_2_778
10
1.854292
20
7.6093096
40
1.3308635
50
312.2503424
51
312.3981004
0
ARC
8
DEFAULT_255_2_778
10
1.8155405
20
7.6517493
40
1.3883333
50
312.1102896
51
312.2565008
0
ARC
8
DEFAULT_255_2_778
10
1.7384886
20
7.7366987
40
1.5030215
50
311.9804294
51
312.117826
0
ARC
8
DEFAULT_255_2_778
10
1.6559153
20
7.828385
40
1.6264099
50
311.859593
51
311.9824001
0
ARC
8
DEFAULT_255_2_778
10
1.540472
20
7.9572375
40
1.799413
50
311.7529341
51
311.8594633
0
ARC
8
DEFAULT_255_2_778
10
1.500496
20
8.0021371
40
1.8595299
50
311.6516055
51
311.7505752
0
ARC
8
DEFAULT_255_2_778
10
1.2980508
20
8.2299572
40
2.1643021
50
311.5661757
51
311.6478428
0
ARC
8
DEFAULT_255_2_778
10
4.187089
20
4.9212921
40
2.228295
50
130.6996381
51
132.8838284
0
ARC
8
DEFAULT_255_2_778
10
2.8391922
20
6.3650723
40
0.2531761
50
131.7208981
51
166.3018328
0
ARC
8
DEFAULT_255_2_778
10
3.1036175
20
6.2998759
40
0.5255198
50
166.222872
51
176.5090977
0
ARC
8
DEFAULT_255_2_778
10
3.7502704
20
6.2505887
40
1.174015
50
176.0297959
51
180.2269711
0
ARC
8
DEFAULT_255_2_778
10
4.3495131
20
6.2461554
40
1.7732485
50
180.0070232
51
180.6721392
0
ARC
8
DEFAULT_255_2_778
10
3.5241282
20
4.785187
40
1.7240344
50
121.2988442
51
123.3480191
0
ARC
8
DEFAULT_255_2_778
10
3.3241164
20
5.1443414
40
1.3133351
50
107.2557467
51
121.9828075
0
ARC
8
DEFAULT_255_2_778
10
3.1186372
20
5.786015
40
0.6396175
50
92.8273922
51
106.7284625
0
ARC
8
DEFAULT_255_2_778
10
3.0931082
20
6.2488896
40
0.1760672
50
90.0070319
51
91.959928
0
ARC
8
DEFAULT_255_2_778
10
3.0912956
20
6.2383161
40
0.1866493
50
67.9732244
51
89.4502132
0
ARC
8
DEFAULT_255_2_778
10
2.949186
20
5.8633179
40
0.58764
50
66.1980142
51
68.8412578
0
ARC
8
DEFAULT_255_2_778
10
4.9766164
20
10.5293077
40
4.4997992
50
246.5557818
51
246.6485789
0
ARC
8
DEFAULT_255_2_778
10
3.28287
20
6.5776729
40
0.2008071
50
243.4242003
51
267.9330743
0
ARC
8
DEFAULT_255_2_778
10
3.2723366
20
6.5667147
40
0.1897468
50
270.9937786
51
292.5103342
0
ARC
8
DEFAULT_255_2_778
10
3.1928468
20
6.7681407
40
0.4062757
50
291.9909986
51
302.9262132
0
ARC
8
DEFAULT_255_2_778
10
2.9621078
20
7.1331282
40
0.8380692
50
302.6037716
51
308.6501809
0
ARC
8
DEFAULT_255_2_778
10
2.5099428
20
7.7035308
40
1.5659478
50
308.5358838
51
312.4551573
0
ARC
8
DEFAULT_255_2_778
10
1.818886
20
8.4654896
40
2.5946014
50
312.3565295
51
314.6122008
0
ARC
8
DEFAULT_255_2_778
10
4.1115537
20
6.104871
40
0.6964959
50
107.095562
51
132.4912126
0
ARC
8
DEFAULT_255_2_778
10
4.5867225
20
4.7024298
40
2.1770584
50
101.1532304
51
108.1984414
0
ARC
8
DEFAULT_255_2_778
10
7.3354488
20
-8.2977145
40
15.4644426
50
101.4509746
51
101.8281051
0
ARC
8
DEFAULT_255_2_778
10
3.5717958
20
10.4014735
40
3.6098098
50
281.07637
51
284.2385959
0
ARC
8
DEFAULT_255_2_778
10
4.1227723
20
8.1940916
40
1.33475
50
284.6196991
51
288.2463337
0
ARC
8
DEFAULT_255_2_778
10
3.3121051
20
10.6562992
40
3.9269784
50
288.2314742
51
290.9763799
0
ARC
8
DEFAULT_255_2_778
10
3.6663335
20
9.7222137
40
2.927991
50
291.0474865
51
296.0074729
0
ARC
8
DEFAULT_255_2_778
10
3.7196372
20
9.6089884
40
2.8028586
50
296.0430831
51
302.3135221
0
ARC
8
DEFAULT_255_2_778
10
3.6672795
20
9.6895837
40
2.8989607
50
302.3365856
51
309.1267058
0
ARC
8
DEFAULT_255_2_778
10
3.5097386
20
9.88147
40
3.1472312
50
309.1471918
51
316.2081653
0
ARC
8
DEFAULT_255_2_778
10
3.3580271
20
10.0320535
40
3.3609573
50
316.1449259
51
317.238634
0
ARC
8
DEFAULT_255_2_778
10
3.3157505
20
10.0712334
40
3.4185973
50
317.2375973
51
317.7606802
0
ARC
8
DEFAULT_255_2_778
10
3.4597865
20
9.9648627
40
3.2405062
50
317.4411057
51
329.8007844
0
ARC
8
DEFAULT_255_2_778
10
3.5447376
20
9.8883724
40
3.1286966
50
330.2289107
51
344.9375464
0
ARC
8
DEFAULT_255_2_778
10
2.2892789
20
10.2384507
40
4.4320128
50
344.7850972
51
351.5611011
0
ARC
8
DEFAULT_255_2_778
10
0.7919465
20
10.4797633
40
5.9485773
50
351.3784866
51
353.5086144
0
ARC
8
DEFAULT_255_2_778
10
17.8857224
20
10.9392616
40
11.2404822
50
185.7799484
51
186.0546371
0
ARC
8
DEFAULT_255_2_778
10
4.036642
20
9.4614921
40
2.6872295
50
3.6754022
51
6.2416183
0
ARC
8
DEFAULT_255_2_778
10
4.8827911
20
9.5223116
40
1.8389331
50
359.9804347
51
3.4743484
0
ARC
8
DEFAULT_255_2_778
10
4.5904998
20
9.5237673
40
2.1312254
50
356.8088079
51
359.9439819
0
ARC
8
DEFAULT_255_2_778
10
3.9096013
20
9.5620583
40
2.8131995
50
354.0475389
51
356.8021403
0
ARC
8
DEFAULT_255_2_778
10
2.8493498
20
9.6717967
40
3.8791147
50
351.851179
51
354.0594269
0
ARC
8
DEFAULT_255_2_778
10
1.8628487
20
9.8086856
40
4.8750605
50
351.1284391
51
351.9020053
0
ARC
8
DEFAULT_255_2_778
10
-3.2311252
20
10.6482338
40
10.0376641
50
349.7833157
51
350.8777868
0
LINE
8
DEFAULT_255_2_778
10
6.6473816
20
8.86784
11
6.6471151
21
8.8663233
0
ARC
8
DEFAULT_255_2_778
10
11.0288048
20
8.050213
40
4.457044
50
169.4492884
51
173.7294321
0
ARC
8
DEFAULT_255_2_778
10
8.6794666
20
8.3224988
40
2.0920685
50
174.1143154
51
179.8434552
0
ARC
8
DEFAULT_255_2_778
10
8.1830801
20
8.3228419
40
1.5956831
50
179.8070755
51
190.8196653
0
ARC
8
DEFAULT_255_2_778
10
8.1017479
20
8.3115502
40
1.5136829
50
190.9777573
51
200.4484001
0
ARC
8
DEFAULT_255_2_778
10
8.2428515
20
8.3649084
40
1.664537
50
200.472477
51
207.8481391
0
ARC
8
DEFAULT_255_2_778
10
5.0688918
20
5.8974229
40
2.3133692
50
35.2585232
51
37.7042109
0
ARC
8
DEFAULT_255_2_778
10
-26.1890955
20
-18.3003909
40
41.8430532
50
37.7423734
51
37.9741123
0
ARC
8
DEFAULT_255_2_778
10
12.7453227
20
12.0511691
40
7.5240551
50
217.5457698
51
217.7398706
0
ARC
8
DEFAULT_255_2_778
10
10.1341286
20
10.052432
40
4.2357108
50
216.1163405
51
217.633915
0
ARC
8
DEFAULT_255_2_778
10
8.1217813
20
8.5981604
40
1.7529428
50
210.4580034
51
216.4869669
0
ARC
8
DEFAULT_255_2_778
10
7.1982557
20
8.0548356
40
0.6814479
50
201.3762711
51
210.4407471
0
ARC
8
DEFAULT_255_2_778
10
-12.5481597
20
20.3300661
40
22.5027187
50
327.0272037
51
327.4169087
0
ARC
8
DEFAULT_255_2_778
10
-2.1413017
20
13.5787188
40
10.0977446
50
326.3449656
51
327.0275726
0
ARC
8
DEFAULT_255_2_778
10
1.9363227
20
10.8583573
40
5.1959749
50
324.7580371
51
326.3958616
0
ARC
8
DEFAULT_255_2_778
10
3.7921896
20
9.5455995
40
2.9227455
50
321.8809302
51
324.782871
0
ARC
8
DEFAULT_255_2_778
10
4.4387059
20
9.0392459
40
2.1015411
50
315.7882797
51
321.8610381
0
ARC
8
DEFAULT_255_2_778
10
4.0122204
20
9.4614443
40
2.7016412
50
312.0781105
51
315.6774686
0
ARC
8
DEFAULT_255_2_778
10
2.7528349
20
10.8470655
40
4.5740662
50
310.5440257
51
312.1556685
0
ARC
8
DEFAULT_255_2_778
10
0.5378306
20
13.4306263
40
7.9771563
50
309.7023514
51
310.5713121
0
ARC
8
DEFAULT_255_2_778
10
-4.1165081
20
19.0332348
40
15.2608427
50
309.1965842
51
309.7097899
0
ARC
8
DEFAULT_255_2_778
10
8.8150884
20
6.929747
40
3.2986197
50
175.1897953
51
179.3896989
0
ARC
8
DEFAULT_255_2_778
10
7.7715918
20
6.9527571
40
2.2549685
50
179.6919094
51
179.9990466
0
ARC
8
DEFAULT_255_2_778
10
6.8953059
20
6.9233695
40
1.3789964
50
178.7773244
51
197.7678407
0
ARC
8
DEFAULT_255_2_778
10
5.0847899
20
6.3388376
40
0.5235524
50
0.4396018
51
18.2221791
0
ARC
8
DEFAULT_255_2_778
10
4.853089
20
6.3264192
40
0.7554167
50
359.9904738
51
1.2466618
0
ARC
8
DEFAULT_255_2_778
10
4.1282063
20
6.3534489
40
1.4805486
50
351.7728384
51
358.9490564
0
ARC
8
DEFAULT_255_2_778
10
7.6986607
20
5.8500751
40
2.1252304
50
172.1160919
51
175.5019791
0
ARC
8
DEFAULT_255_2_778
10
6.2217466
20
5.9736079
40
0.6432189
50
176.1545548
51
179.8450344
0
ARC
8
DEFAULT_255_2_778
10
5.9025538
20
5.9700659
40
0.3240669
50
179.0661475
51
193.2510404
0
ARC
8
DEFAULT_255_2_778
10
5.7798983
20
5.944391
40
0.1988165
50
194.1512357
51
201.3980501
0
ARC
8
DEFAULT_255_2_778
10
5.7530435
20
5.9301521
40
0.1686532
50
200.2226639
51
224.3319361
0
ARC
8
DEFAULT_255_2_778
10
5.7602048
20
5.9516316
40
0.1890699
50
227.4729694
51
253.7716423
0
ARC
8
DEFAULT_255_2_778
10
6.347025
20
7.5958517
40
1.9345672
50
250.6919522
51
251.0430712
0
ARC
8
DEFAULT_255_2_778
10
5.6858912
20
5.6150422
40
0.1546585
50
31.7052489
51
77.802911
0
ARC
8
DEFAULT_255_2_778
10
5.6566746
20
5.6086531
40
0.1831415
50
15.8113524
51
28.6005041
0
ARC
8
DEFAULT_255_2_778
10
5.4458564
20
5.5524556
40
0.4013094
50
3.8040053
51
15.3301226
0
ARC
8
DEFAULT_255_2_778
10
4.8230965
20
5.5025763
40
1.0260413
50
359.6692299
51
4.276052
0
ARC
8
DEFAULT_255_2_778
10
2.0803927
20
5.516074
40
3.7687781
50
358.1557387
51
359.7047459
0
ARC
8
DEFAULT_255_2_778
10
19.1722434
20
5.0244967
40
13.3301689
50
178.4082255
51
178.5316935
0
ARC
8
DEFAULT_255_2_778
10
8.8257144
20
5.2834619
40
2.9804079
50
178.4117523
51
179.8545124
0
ARC
8
DEFAULT_255_2_778
10
6.7219598
20
5.277046
40
0.8767552
50
179.0861234
51
188.4918275
0
ARC
8
DEFAULT_255_2_778
10
6.161095
20
5.1941479
40
0.309799
50
188.6458157
51
204.1392498
0
ARC
8
DEFAULT_255_2_778
10
6.0102324
20
5.1247715
40
0.1437659
50
203.4961595
51
240.2507295
0
ARC
8
DEFAULT_255_2_778
10
6.0349853
20
5.198891
40
0.2209291
50
244.2186763
51
272.6982641
0
ARC
8
DEFAULT_255_2_778
10
6.0508844
20
5.6411855
40
0.6630016
50
269.5248114
51
270.0040935
0
ARC
8
DEFAULT_255_2_778
10
6.0460297
20
6.3871193
40
1.4089437
50
270.1993486
51
271.4409206
0
ARC
8
DEFAULT_255_2_778
10
6.1166815
20
3.5936833
40
1.3853856
50
90.2264525
51
91.4568554
0
ARC
8
DEFAULT_255_2_778
10
6.120778
20
4.7723099
40
0.2069696
50
72.1532362
51
92.6507755
0
ARC
8
DEFAULT_255_2_778
10
6.1519193
20
4.8848155
40
0.0904633
50
60.1201568
51
69.0881865
0
ARC
8
DEFAULT_255_2_778
10
6.0339123
20
4.6840876
40
0.3233064
50
29.9333436
51
59.7087532
0
ARC
8
DEFAULT_255_2_778
10
5.2892548
20
4.1921677
40
1.2153281
50
31.9453942
51
32.5140791
0
ARC
8
DEFAULT_255_2_778
10
10.1418279
20
7.1825701
40
4.4846908
50
211.5616726
51
212.2472832
0
ARC
8
DEFAULT_255_2_778
10
6.1990574
20
4.7130861
40
0.16826
50
356.8295773
51
27.0685507
0
ARC
8
DEFAULT_255_2_778
10
4.8780056
20
4.6723674
40
1.4893856
50
0.3300057
51
1.2085228
0
ARC
8
DEFAULT_255_2_778
10
10.277106
20
4.7119238
40
3.9098622
50
180.4539613
51
180.5831674
0
ARC
8
DEFAULT_255_2_778
10
6.5418252
20
4.6515547
40
0.1755885
50
173.2709544
51
215.011473
0
ARC
8
DEFAULT_255_2_778
10
6.4619038
20
4.6114693
40
0.0880991
50
223.5120436
51
242.1787125
0
ARC
8
DEFAULT_255_2_778
10
6.5549041
20
4.8487108
40
0.3425076
50
246.9474571
51
272.6328769
0
ARC
8
DEFAULT_255_2_778
10
6.7693629
20
11.3663161
40
6.8626291
50
268.3406192
51
268.4313826
0
ARC
8
DEFAULT_255_2_778
10
6.1608083
20
-10.7317938
40
15.2438588
50
88.4056247
51
88.4185647
0
ARC
8
DEFAULT_255_2_778
10
6.6024676
20
4.1265928
40
0.3799748
50
68.7173628
51
92.6430069
0
ARC
8
DEFAULT_255_2_778
10
6.6518135
20
4.3208922
40
0.1826718
50
354.9058496
51
60.9956461
0
ARC
8
DEFAULT_255_2_778
10
6.4902894
20
4.3050627
40
0.3434746
50
354.5550527
51
359.9348773
0
ARC
8
DEFAULT_255_2_778
10
6.4405428
20
4.3099391
40
0.3934594
50
347.7795067
51
354.5355364
0
ARC
8
DEFAULT_255_2_778
10
6.5728863
20
4.296878
40
0.2617947
50
313.7617244
51
344.4403498
0
ARC
8
DEFAULT_255_2_778
10
-3.0293358
20
12.8860032
40
13.1441867
50
318.0102689
51
318.0995118
0
ARC
8
DEFAULT_255_2_778
10
6.988603
20
3.8451078
40
0.350582
50
135.0993415
51
156.7934004
0
ARC
8
DEFAULT_255_2_778
10
7.0377295
20
3.8333959
40
0.4004409
50
158.023126
51
172.7580757
0
ARC
8
DEFAULT_255_2_778
10
6.8825484
20
3.8581555
40
0.2434279
50
173.9350461
51
179.9421461
0
ARC
8
DEFAULT_255_2_778
10
6.8634119
20
3.8582927
40
0.2242913
50
179.9722382
51
187.146447
0
ARC
8
DEFAULT_255_2_778
10
6.9169406
20
3.869898
40
0.2788902
50
188.1441058
51
209.2555572
0
ARC
8
DEFAULT_255_2_778
10
7.0780888
20
3.9484565
40
0.4579896
50
207.9774186
51
209.6550368
0
ARC
8
DEFAULT_255_2_778
10
7.0190075
20
3.9550161
40
0.4113781
50
214.5262166
51
249.8066025
0
ARC
8
DEFAULT_255_2_778
10
7.6778952
20
5.3467062
40
1.9498554
50
245.7484226
51
248.4657585
0
ARC
8
DEFAULT_255_2_778
10
7.1664084
20
4.1362654
40
0.6369391
50
251.2989703
51
266.8668038
0
ARC
8
DEFAULT_255_2_778
10
10.6167592
20
37.5861375
40
34.263569
50
264.1619877
51
264.1668228
0
ARC
8
DEFAULT_255_2_778
10
6.6374565
20
-1.4254865
40
4.9504836
50
83.8620909
51
84.237953
0
ARC
8
DEFAULT_255_2_778
10
7.138578
20
2.9879476
40
0.5094512
50
64.6264957
51
86.8275371
0
ARC
8
DEFAULT_255_2_778
10
6.9600956
20
2.778674
40
0.7783189
50
39.1697901
51
59.3491433
0
ARC
8
DEFAULT_255_2_778
10
6.6340761
20
2.4780014
40
1.2212881
50
35.0403612
51
40.4452149
0
ARC
8
DEFAULT_255_2_778
10
6.689841
20
2.5172684
40
1.1530854
50
34.089245
51
35.0337946
0
ARC
8
DEFAULT_255_2_778
10
7.3417649
20
2.9333226
40
0.3805635
50
359.9942395
51
37.2270039
0
ARC
8
DEFAULT_255_2_778
10
7.3406262
20
2.9332901
40
0.3817023
50
356.1940685
51
359.9991297
0
ARC
8
DEFAULT_255_2_778
10
7.1673463
20
2.9339956
40
0.5547519
50
342.7421211
51
357.3093701
0
ARC
8
DEFAULT_255_2_778
10
6.904409
20
3.0101555
40
0.8284629
50
330.6153938
51
343.1069557
0
ARC
8
DEFAULT_255_2_778
10
6.3646339
20
3.3407001
40
1.4611655
50
327.3584006
51
329.7069079
0
ARC
8
DEFAULT_255_2_778
10
7.824748
20
2.3854866
40
0.2840612
50
143.9701751
51
176.2468051
0
ARC
8
DEFAULT_255_2_778
10
7.7382465
20
2.4058503
40
0.1969586
50
180.51473
51
206.0882257
0
ARC
8
DEFAULT_255_2_778
10
7.8524534
20
2.4603224
40
0.3234868
50
205.8578497
51
219.9831651
0
ARC
8
DEFAULT_255_2_778
10
7.9969586
20
2.5758612
40
0.5084708
50
219.4959297
51
225.2498287
0
ARC
8
DEFAULT_255_2_778
10
8.6112626
20
3.1828737
40
1.3720703
50
224.8772801
51
228.4899291
0
ARC
8
DEFAULT_255_2_778
10
8.1373253
20
2.6446435
40
0.6549219
50
228.3315714
51
234.4954388
0
ARC
8
DEFAULT_255_2_778
10
8.0050658
20
2.4647233
40
0.431654
50
234.9170838
51
243.364763
0
ARC
8
DEFAULT_255_2_778
10
6.376195
20
-0.7006266
40
3.1282405
50
62.5157902
51
62.6878319
0
ARC
8
DEFAULT_255_2_778
10
7.6040639
20
1.6585686
40
0.4686424
50
61.0023382
51
62.5782407
0
ARC
8
DEFAULT_255_2_778
10
7.7191263
20
1.8648983
40
0.2323998
50
48.124423
51
61.1539196
0
ARC
8
DEFAULT_255_2_778
10
7.5743097
20
1.7037139
40
0.4490845
50
41.6706863
51
48.0942125
0
ARC
8
DEFAULT_255_2_778
10
7.3594319
20
1.5051159
40
0.7416514
50
41.4077287
51
42.0946061
0
ARC
8
DEFAULT_255_2_778
10
6.6417252
20
1.9104319
40
1.2768087
50
3.827109
51
12.0326248
0
ARC
8
DEFAULT_255_2_778
10
1.7348036
20
0.9706454
40
6.2726957
50
11.0844504
51
11.1903372
0
ARC
8
DEFAULT_255_2_778
10
9.2127294
20
2.4869852
40
1.3578183
50
185.3107941
51
192.7213437
0
ARC
8
DEFAULT_255_2_778
10
8.3442387
20
2.392254
40
0.4844881
50
180.0663371
51
183.662173
0
ARC
8
DEFAULT_255_2_778
10
8.182164
20
2.3967411
40
0.3224527
50
158.6272443
51
180.8970106
0
ARC
8
DEFAULT_255_2_778
10
8.1872185
20
2.3656433
40
0.3395771
50
109.6001905
51
154.0469811
0
ARC
8
DEFAULT_255_2_778
10
10.4073625
20
-2.4034774
40
5.5987464
50
113.9110636
51
114.6383429
0
ARC
8
DEFAULT_255_2_778
10
7.9086635
20
3.2503131
40
0.5826257
50
293.1898339
51
301.9598167
0
ARC
8
DEFAULT_255_2_778
10
8.0716754
20
2.9771782
40
0.2646808
50
303.3181872
51
305.184294
0
ARC
8
DEFAULT_255_2_778
10
7.734031
20
3.4128215
40
0.8156681
50
306.9362002
51
322.72746
0
ARC
8
DEFAULT_255_2_778
10
-13.7969571
20
21.0001761
40
28.6162513
50
320.8128666
51
320.9017493
0
ARC
8
DEFAULT_255_2_778
10
9.8670399
20
1.7756477
40
1.8725584
50
138.9960566
51
141.0318915
0
ARC
8
DEFAULT_255_2_778
10
9.8162257
20
2.9900528
40
1.3624131
50
179.4027701
51
180.0082881
0
ARC
8
DEFAULT_255_2_778
10
10.1328828
20
2.9903927
40
1.6790703
50
180.0183243
51
180.7990645
0
ARC
8
DEFAULT_255_2_778
10
12.2410946
20
3.029942
40
3.7876423
50
180.9525236
51
182.038668
0
ARC
8
DEFAULT_255_2_778
10
5.6142862
20
2.7861145
40
2.8436567
50
0.3592773
51
2.198475
0
ARC
8
DEFAULT_255_2_778
10
7.7894616
20
2.7956927
40
0.6684763
50
352.5445011
51
0.7073932
0
ARC
8
DEFAULT_255_2_778
10
5.9099684
20
3.0998357
40
2.5721918
50
350.4527046
51
351.2592094
0
ARC
8
DEFAULT_255_2_778
10
9.4570399
20
2.4824982
40
1.0283457
50
169.3124746
51
175.4304733
0
ARC
8
DEFAULT_255_2_778
10
8.7725054
20
2.5455215
40
0.3410667
50
176.8227333
51
179.9267649
0
ARC
8
DEFAULT_255_2_778
10
8.5668367
20
2.5323514
40
0.1360795
50
174.2616447
51
248.3931938
0
ARC
8
DEFAULT_255_2_778
10
8.6429966
20
2.7093634
40
0.3287462
50
247.4125463
51
263.2314116
0
ARC
8
DEFAULT_255_2_778
10
8.6809998
20
2.9364762
40
0.5588629
50
262.106578
51
263.7323109
0
ARC
8
DEFAULT_255_2_778
10
8.6458046
20
2.6203363
40
0.2407707
50
263.8443216
51
270.0325231
0
ARC
8
DEFAULT_255_2_778
10
8.6428005
20
2.6827281
40
0.3031787
50
270.5935475
51
286.2182544
0
ARC
8
DEFAULT_255_2_778
10
8.4056266
20
3.3797306
40
1.0392119
50
288.0415554
51
298.3595217
0
ARC
8
DEFAULT_255_2_778
10
9.993367
20
0.2524643
40
2.4684932
50
115.160171
51
116.3101966
0
ARC
8
DEFAULT_255_2_778
10
8.1474737
20
2.9574634
40
0.9251168
50
321.8339807
51
329.415339
0
LINE
8
DEFAULT_255_2_778
10
8.8748221
20
2.3857948
11
8.8744818
21
2.3853415
0
ARC
8
DEFAULT_255_2_778
10
9.2140378
20
2.0787437
40
0.4574937
50
137.9199331
51
168.5893766
0
ARC
8
DEFAULT_255_2_778
10
9.3101826
20
2.0899771
40
0.5503359
50
171.717639
51
175.5641492
0
ARC
8
DEFAULT_255_2_778
10
9.3097007
20
2.0900125
40
0.5498526
50
175.5639486
51
180.0004937
0
ARC
8
DEFAULT_255_2_778
10
9.3102022
20
2.0900253
40
0.5503541
50
180.0018254
51
214.581836
0
ARC
8
DEFAULT_255_2_778
10
9.5511086
20
2.305747
40
0.8720946
50
217.2681297
51
236.2640727
0
ARC
8
DEFAULT_255_2_778
10
11.3395785
20
4.8167241
40
3.9545823
50
234.9195493
51
237.1235619
0
ARC
8
DEFAULT_255_2_778
10
5.9899358
20
-3.3733931
40
5.8279633
50
56.4660114
51
56.6612285
0
ARC
8
DEFAULT_255_2_778
10
9.6176872
20
2.0926087
40
0.7323649
50
236.125675
51
244.3773614
0
ARC
8
DEFAULT_255_2_778
10
9.7088825
20
2.3120146
40
0.9697141
50
245.1249853
51
250.5507537
0
LINE
8
DEFAULT_255_2_778
10
9.3859952
20
1.3976356
11
9.3868376
21
1.3973246
0
ARC
8
DEFAULT_255_2_778
10
9.0621116
20
0.4816542
40
0.9715449
50
65.3909447
51
70.4738707
0
ARC
8
DEFAULT_255_2_778
10
8.5959755
20
1.3355607
40
0.8712071
50
359.9632717
51
1.9334327
0
ARC
8
DEFAULT_255_2_778
10
7.9087686
20
1.3440207
40
1.5584399
50
356.2295079
51
359.6684345
0
ARC
8
DEFAULT_255_2_778
10
2.5802032
20
1.6624816
40
6.8964907
50
356.1863482
51
356.5006391
0
ARC
8
DEFAULT_255_2_778
10
11.451551
20
1.0504314
40
1.996028
50
175.5936665
51
179.3215709
0
ARC
8
DEFAULT_255_2_778
10
10.1190488
20
1.0698899
40
0.663399
50
179.639371
51
186.8510591
0
ARC
8
DEFAULT_255_2_778
10
10.1425476
20
1.0652069
40
0.686212
50
186.2287756
51
214.934588
0
ARC
8
DEFAULT_255_2_778
10
10.1871106
20
1.1621468
40
0.7801248
50
218.9003262
51
241.5593242
0
ARC
8
DEFAULT_255_2_778
10
127.8034126
20
187.9649227
40
221.524626
50
237.8175375
51
237.8213504
0
ARC
8
DEFAULT_255_2_778
10
6.9737063
20
-4.0759822
40
5.3663783
50
57.4578671
51
57.8664388
0
ARC
8
DEFAULT_255_2_778
10
8.7863706
20
-0.0448318
40
1.18163
50
24.6424442
51
31.7577139
0
ARC
8
DEFAULT_255_2_778
10
43.9230946
20
20.7144312
40
39.6296126
50
210.53237
51
210.5399251
0
ARC
8
DEFAULT_255_2_778
10
10.2773289
20
0.9209053
40
0.5951055
50
190.6084096
51
214.7620278
0
ARC
8
DEFAULT_255_2_778
10
9.9469475
20
0.8374696
40
0.2558893
50
180.0355806
51
185.8588255
0
ARC
8
DEFAULT_255_2_778
10
9.9345406
20
0.837335
40
0.2434824
50
179.1248599
51
180.0057236
0
ARC
8
DEFAULT_255_2_778
10
10.0982413
20
0.8510795
40
0.4072781
50
147.7257085
51
181.4105563
0
ARC
8
DEFAULT_255_2_778
10
10.2093237
20
0.7712943
40
0.5438624
50
136.1126171
51
146.8677588
0
ARC
8
DEFAULT_255_2_778
10
10.4579001
20
0.5388583
40
0.8841602
50
131.7732285
51
136.4240845
0
ARC
8
DEFAULT_255_2_778
10
10.2965238
20
0.7038332
40
0.6537012
50
120.3643014
51
130.8573785
0
ARC
8
DEFAULT_255_2_778
10
11.2548117
20
-0.9309281
40
2.5486312
50
115.6987328
51
120.3749272
0
ARC
8
DEFAULT_255_2_778
10
20.663748
20
-19.8470969
40
23.6754234
50
116.2900991
51
116.3654119
0
ARC
8
DEFAULT_255_2_778
10
-47.3307783
20
117.7332016
40
129.7898634
50
296.3010571
51
296.3062236
0
ARC
8
DEFAULT_255_2_778
10
8.8641376
20
4.1425452
40
3.0592341
50
295.6419679
51
299.6522348
0
ARC
8
DEFAULT_255_2_778
10
9.9889533
20
2.1606246
40
0.7803782
50
299.8732002
51
307.9613018
0
ARC
8
DEFAULT_255_2_778
10
9.5784461
20
2.6665967
40
1.4318687
50
308.4581539
51
312.9551111
0
ARC
8
DEFAULT_255_2_778
10
10.0579805
20
2.1550781
40
0.7307319
50
312.7666366
51
322.0593935
0
ARC
8
DEFAULT_255_2_778
10
10.1227786
20
2.0991959
40
0.6452839
50
322.4350403
51
322.5853866
0
ARC
8
DEFAULT_255_2_778
10
10.0734306
20
2.1287642
40
0.7024742
50
323.1153798
51
335.0276638
0
ARC
8
DEFAULT_255_2_778
10
9.2636298
20
2.5335398
40
1.6076517
50
334.1348025
51
334.9267137
0
ARC
8
DEFAULT_255_2_778
10
10.2756765
20
2.0392476
40
0.4818719
50
337.1663458
51
355.727145
0
ARC
8
DEFAULT_255_2_778
10
9.674546
20
2.1155181
40
1.0874637
50
354.0793523
51
356.1000066
0
ARC
8
DEFAULT_255_2_778
10
8.1717472
20
2.2003352
40
2.592611
50
356.4887962
51
359.0845198
0
ARC
8
DEFAULT_255_2_778
10
12.818333
20
2.1233007
40
2.0546145
50
176.8780807
51
179.0068841
0
ARC
8
DEFAULT_255_2_778
10
11.3914272
20
2.1970654
40
0.6258223
50
174.4994436
51
176.5068098
0
ARC
8
DEFAULT_255_2_778
10
9.6310316
20
1.8394312
40
1.2116982
50
3.5639673
51
20.1609784
0
ARC
8
DEFAULT_255_2_778
10
10.5288323
20
1.8828648
40
0.3131821
50
359.8752455
51
5.8441353
0
ARC
8
DEFAULT_255_2_778
10
10.2917026
20
1.8924538
40
0.5504068
50
345.5918875
51
358.9307589
0
ARC
8
DEFAULT_255_2_778
10
9.938703
20
1.9696727
40
0.9116115
50
344.4399844
51
346.4118512
0
ARC
8
DEFAULT_255_2_778
10
9.3890293
20
2.1347062
40
1.4854544
50
337.8593288
51
343.9950089
0
ARC
8
DEFAULT_255_2_778
10
7.5314594
20
2.8721356
40
3.484015
50
336.7898729
51
338.1394272
0
ARC
8
DEFAULT_255_2_778
10
16.8239007
20
-1.123053
40
6.6308774
50
156.7064973
51
157.2905296
0
ARC
8
DEFAULT_255_2_778
10
10.3820283
20
2.1212562
40
0.7576738
50
295.4054768
51
318.0950919
0
ARC
8
DEFAULT_255_2_778
10
10.427827
20
2.0790796
40
0.6954187
50
318.1611135
51
334.3705474
0
ARC
8
DEFAULT_255_2_778
10
10.4738916
20
2.0551514
40
0.6435386
50
334.5173381
51
337.140461
0
ARC
8
DEFAULT_255_2_778
10
11.0273607
20
1.7525987
40
0.0657597
50
354.7113729
51
53.0537072
0
ARC
8
DEFAULT_255_2_778
10
10.3307241
20
1.6964288
40
0.763762
50
0.8413129
51
3.7617447
0
ARC
8
DEFAULT_255_2_778
10
12.6107833
20
1.7328959
40
1.5165898
50
180.9540756
51
183.4237399
0
ARC
8
DEFAULT_255_2_778
10
11.9698148
20
1.6983896
40
0.8747131
50
183.6748734
51
186.8175691
0
ARC
8
DEFAULT_255_2_778
10
12.021719
20
0.6369577
40
1.3282266
50
127.1181094
51
133.8663372
0
ARC
8
DEFAULT_255_2_778
10
4.6007888
20
10.1705556
40
10.7532894
50
307.9933232
51
308.2468786
0
ARC
8
DEFAULT_255_2_778
10
10.1464768
20
3.1398424
40
1.7986519
50
308.1532746
51
310.4321218
0
ARC
8
DEFAULT_255_2_778
10
6.6632662
20
7.2127535
40
7.157881
50
310.511039
51
310.9322734
0
ARC
8
DEFAULT_255_2_778
10
11.0938833
20
2.1445697
40
0.4269939
50
307.3393323
51
336.1406568
0
ARC
8
DEFAULT_255_2_778
10
11.1948357
20
2.0800375
40
0.3091011
50
339.513016
51
0.7006371
0
ARC
8
DEFAULT_255_2_778
10
10.8188782
20
2.0642571
40
0.6853147
50
1.6355502
51
15.5567757
0
ARC
8
DEFAULT_255_2_778
10
11.07661
20
2.1256592
40
0.4206755
50
16.9147046
51
35.4113002
0
ARC
8
DEFAULT_255_2_778
10
9.3825444
20
1.0118876
40
2.4478428
50
33.6819019
51
35.9356164
0
ARC
8
DEFAULT_255_2_778
10
15.5437689
20
5.4364083
40
5.1375117
50
215.1717345
51
215.5626659
0
ARC
8
DEFAULT_255_2_778
10
12.1830092
20
3.0825995
40
1.0345337
50
209.5774688
51
215.8265717
0
ARC
8
DEFAULT_255_2_778
10
11.4532943
20
2.6654
40
0.1939969
50
198.7829396
51
208.7957905
0
ARC
8
DEFAULT_255_2_778
10
11.4663444
20
2.6680803
40
0.2072217
50
179.3740815
51
198.3227449
0
ARC
8
DEFAULT_255_2_778
10
11.8569778
20
2.6470338
40
0.598297
50
166.7942985
51
177.7671375
0
ARC
8
DEFAULT_255_2_778
10
10.6579066
20
2.9231623
40
0.6321676
50
347.256403
51
358.5401099
0
ARC
8
DEFAULT_255_2_778
10
10.9301133
20
2.9070992
40
0.3597558
50
359.9932015
51
1.8246085
0
ARC
8
DEFAULT_255_2_778
10
11.4851588
20
3.9196283
40
1.0199801
50
252.3072226
51
258.9513086
0
LINE
8
DEFAULT_255_2_778
10
11.1751736
20
2.9478934
11
11.1748041
21
2.9480035
0
ARC
8
DEFAULT_255_2_778
10
10.9585382
20
2.3308535
40
0.6539458
50
70.6881744
51
87.798342
0
ARC
8
DEFAULT_255_2_778
10
10.9835915
20
2.5935832
40
0.3907333
50
89.9898528
51
98.0629763
0
ARC
8
DEFAULT_255_2_778
10
11.0049226
20
2.5674956
40
0.419918
50
100.4461629
51
118.7602722
0
ARC
8
DEFAULT_255_2_778
10
11.8075001
20
0.9843018
40
2.194738
50
117.2413694
51
119.5605008
0
ARC
8
DEFAULT_255_2_778
10
9.0539787
20
5.876341
40
3.4190079
50
298.4428316
51
299.2531555
0
ARC
8
DEFAULT_255_2_778
10
10.3949182
20
3.3606281
40
0.568616
50
284.1456639
51
300.3687447
0
ARC
8
DEFAULT_255_2_778
10
10.4857647
20
3.0368118
40
0.2325893
50
270.9415427
51
281.9391513
0
ARC
8
DEFAULT_255_2_778
10
10.4870058
20
3.0355226
40
0.2312832
50
270.000897
51
270.6393636
0
ARC
8
DEFAULT_255_2_778
10
10.5126052
20
3.1379485
40
0.3346893
50
227.3356353
51
265.6139478
0
ARC
8
DEFAULT_255_2_778
10
5.0111844
20
-4.1908179
40
8.830937
50
53.3241836
51
53.4374613
0
ARC
8
DEFAULT_255_2_778
10
10.0112803
20
2.5850585
40
0.4104494
50
50.6059442
51
69.877495
0
ARC
8
DEFAULT_255_2_778
10
9.8711766
20
1.9490369
40
1.0594469
50
74.601825
51
86.3457114
0
ARC
8
DEFAULT_255_2_778
10
10.0752586
20
4.6396325
40
1.6390014
50
260.4482931
51
265.2207355
0
ARC
8
DEFAULT_255_2_778
10
10.0253643
20
2.7721385
40
0.3353023
50
113.6791356
51
131.4771167
0
ARC
8
DEFAULT_255_2_778
10
10.3124978
20
2.1502467
40
1.0202386
50
105.8404319
51
114.4203842
0
ARC
8
DEFAULT_255_2_778
10
10.7738286
20
0.5604285
40
2.6756273
50
101.2278262
51
106.0515016
0
ARC
8
DEFAULT_255_2_778
10
11.606497
20
-3.5670415
40
6.8862421
50
98.9687975
51
101.3365646
0
ARC
8
DEFAULT_255_2_778
10
14.4308214
20
-21.1401163
40
24.6848113
50
98.6205257
51
99.0853409
0
ARC
8
DEFAULT_255_2_778
10
7.199074
20
26.571454
40
23.5717127
50
278.6170812
51
279.0469055
0
ARC
8
DEFAULT_255_2_778
10
9.3103286
20
13.2150639
40
10.0495083
50
279.1336127
51
279.1972894
0
ARC
8
DEFAULT_255_2_778
10
12.0646693
20
-3.6640196
40
7.0528449
50
90.9008236
51
99.3684636
0
ARC
8
DEFAULT_255_2_778
10
11.9632203
20
2.6817358
40
0.706281
50
89.9942838
51
90.7653104
0
ARC
8
DEFAULT_255_2_778
10
11.9404007
20
1.9155385
40
1.4726562
50
83.1353352
51
89.1093926
0
ARC
8
DEFAULT_255_2_778
10
11.1598279
20
-5.5044809
40
8.9334818
50
83.6353643
51
83.8530203
0
ARC
8
DEFAULT_255_2_778
10
12.4163456
20
5.5075956
40
2.1501968
50
262.8886054
51
266.9972679
0
ARC
8
DEFAULT_255_2_778
10
12.3302103
20
4.0779633
40
0.7181015
50
267.8851654
51
269.9458435
0
ARC
8
DEFAULT_255_2_778
10
12.334366
20
3.7500275
40
0.3901952
50
269.2900995
51
279.5967171
0
ARC
8
DEFAULT_255_2_778
10
12.3610625
20
3.5759855
40
0.214155
50
280.3169671
51
285.8316761
0
ARC
8
DEFAULT_255_2_778
10
12.3888518
20
3.5018949
40
0.1354509
50
283.0716533
51
315.2720945
0
ARC
8
DEFAULT_255_2_778
10
12.3600487
20
3.5044117
40
0.1587648
50
321.9570614
51
353.0873484
0
ARC
8
DEFAULT_255_2_778
10
12.9144484
20
3.4136537
40
0.403206
50
159.4553425
51
169.7641891
0
ARC
8
DEFAULT_255_2_778
10
11.8826452
20
3.8199657
40
0.7058025
50
337.9637795
51
353.8349606
0
ARC
8
DEFAULT_255_2_778
10
11.8114201
20
3.8270988
40
0.7773818
50
353.8760338
51
0.0823196
0
ARC
8
DEFAULT_255_2_778
10
11.6955151
20
3.8278475
40
0.893286
50
0.0236134
51
2.6254713
0
ARC
8
DEFAULT_255_2_778
10
10.6828759
20
3.7291271
40
1.9100987
50
4.1923909
51
13.7190445
0
ARC
8
DEFAULT_255_2_778
10
-68.0845814
20
-13.222829
40
82.4803647
50
12.1820984
51
12.1975385
0
ARC
8
DEFAULT_255_2_778
10
18.8257536
20
57.2583593
40
53.4262988
50
263.1387587
51
263.2366318
0
ARC
8
DEFAULT_255_2_778
10
11.5256496
20
-2.6981779
40
6.9734806
50
82.4395306
51
86.9259873
0
ARC
8
DEFAULT_255_2_778
10
11.768583
20
1.1228696
40
3.1451295
50
87.6123714
51
89.9579237
0
ARC
8
DEFAULT_255_2_778
10
11.7669393
20
1.784017
40
2.4839843
50
89.90881
51
94.2862747
0
ARC
8
DEFAULT_255_2_778
10
11.7593572
20
2.2727237
40
1.9962879
50
95.1176343
51
102.6055271
0
ARC
8
DEFAULT_255_2_778
10
13.07576
20
-3.8374031
40
8.2465672
50
102.2665665
51
103.7615396
0
ARC
8
DEFAULT_255_2_778
10
7.0383397
20
21.1192546
40
17.430031
50
283.2572718
51
283.5228351
0
ARC
8
DEFAULT_255_2_778
10
10.3363755
20
6.9330553
40
2.8658971
50
276.783463
51
284.1187979
0
ARC
8
DEFAULT_255_2_778
10
10.540751
20
5.3954665
40
1.3151047
50
271.9886265
51
275.8541735
0
ARC
8
DEFAULT_255_2_778
10
10.5353346
20
5.7681029
40
1.6877214
50
269.9789755
51
271.7334106
0
ARC
8
DEFAULT_255_2_778
10
10.5390402
20
6.2023343
40
2.1219571
50
265.1572072
51
269.8832221
0
ARC
8
DEFAULT_255_2_778
10
10.558068
20
6.4642404
40
2.3845367
50
260.7047515
51
265.2329133
0
ARC
8
DEFAULT_255_2_778
10
10.4566591
20
5.9349288
40
1.8458533
50
249.6932796
51
261.1573811
0
ARC
8
DEFAULT_255_2_778
10
10.1592603
20
5.1179802
40
0.9764792
50
239.2768564
51
249.4231631
0
ARC
8
DEFAULT_255_2_778
10
10.4239706
20
5.4503551
40
1.3986346
50
217.9311888
51
236.9104228
0
ARC
8
DEFAULT_255_2_778
10
11.4257375
20
6.303704
40
2.7139484
50
214.8331229
51
219.1405046
0
ARC
8
DEFAULT_255_2_778
10
12.4668173
20
7.032573
40
3.9848097
50
212.9642014
51
214.8851323
0
ARC
8
DEFAULT_255_2_778
10
14.0427321
20
8.0642924
40
5.8683986
50
213.0030885
51
213.043723
0
ARC
8
DEFAULT_255_2_778
10
14.4402088
20
8.3224515
40
6.3423543
50
212.9670762
51
213.0031203
0
ARC
8
DEFAULT_255_2_778
10
15.0694121
20
8.730274
40
7.0921649
50
212.9343214
51
212.965226
0
ARC
8
DEFAULT_255_2_778
10
15.0454789
20
8.7140416
40
7.0632527
50
212.8848393
51
212.9293583
0
ARC
8
DEFAULT_255_2_778
10
15.7959365
20
9.1987734
40
7.956646
50
212.844841
51
212.8819401
0
ARC
8
DEFAULT_255_2_778
10
15.9709348
20
9.3113377
40
8.1647205
50
212.8084853
51
212.8424336
0
ARC
8
DEFAULT_255_2_778
10
16.5148665
20
9.6619202
40
8.8118448
50
212.7736664
51
212.8080941
0
ARC
8
DEFAULT_255_2_778
10
16.6447987
20
9.7460762
40
8.9666494
50
212.7407541
51
212.7763795
0
ARC
8
DEFAULT_255_2_778
10
2.1980581
20
0.4866611
40
8.1927728
50
32.5657817
51
33.0591326
0
ARC
8
DEFAULT_255_2_778
10
10.4470017
20
5.8567813
40
1.6501571
50
209.6037503
51
213.0906123
0
ARC
8
DEFAULT_255_2_778
10
11.9739356
20
6.7259654
40
3.4071451
50
207.2189904
51
209.6276229
0
ARC
8
DEFAULT_255_2_778
10
13.9066828
20
7.7339384
40
5.5869222
50
206.8266219
51
207.3454435
0
ARC
8
DEFAULT_255_2_778
10
16.7191537
20
9.1493545
40
8.7354729
50
205.9500317
51
206.786202
0
ARC
8
DEFAULT_255_2_778
10
18.3453748
20
9.9508583
40
10.5484637
50
205.9781929
51
205.9993487
0
ARC
8
DEFAULT_255_2_778
10
18.1922837
20
9.8769301
40
10.3784581
50
205.9601738
51
205.9815042
0
ARC
8
DEFAULT_255_2_778
10
18.0410921
20
9.8050178
40
10.2110428
50
205.9472382
51
205.9687441
0
ARC
8
DEFAULT_255_2_778
10
26.9255329
20
14.1272557
40
20.0910744
50
205.9341643
51
205.9450062
0
ARC
8
DEFAULT_255_2_778
10
20.5986867
20
11.0508925
40
13.0559488
50
205.919398
51
205.9359468
0
ARC
8
DEFAULT_255_2_778
10
20.4037736
20
10.9562699
40
12.8392818
50
205.9031231
51
205.9198141
0
ARC
8
DEFAULT_255_2_778
10
-1835.3654278
20
-884.4672771
40
2047.661344
50
25.7567706
51
25.76317
0
ARC
8
DEFAULT_255_2_778
10
3.7042825
20
3.1130104
40
5.6093946
50
25.7886831
51
27.1715317
0
ARC
8
DEFAULT_255_2_778
10
6.7542399
20
4.6738522
40
2.1832566
50
27.2814561
51
28.6446781
0
ARC
8
DEFAULT_255_2_778
10
-130.3912032
20
-70.3099697
40
158.4888742
50
28.6671744
51
28.6956537
0
ARC
8
DEFAULT_255_2_778
10
5.5692241
20
4.1240221
40
3.4867693
50
28.53369
51
30.0275843
0
ARC
8
DEFAULT_255_2_778
10
7.8306276
20
5.4330398
40
0.8738283
50
29.9172406
51
34.4347233
0
ARC
8
DEFAULT_255_2_778
10
8.1648144
20
5.6605975
40
0.4695261
50
34.5919724
51
43.72307
0
ARC
8
DEFAULT_255_2_778
10
8.0251097
20
5.5238635
40
0.6649999
50
43.9174472
51
48.5305323
0
ARC
8
DEFAULT_255_2_778
10
8.1876674
20
5.6634558
40
0.4537046
50
52.2414535
51
78.9799487
0
LINE
8
DEFAULT_255_2_778
10
8.2743941
20
6.1087942
11
8.2721089
21
6.1094279
0
ARC
8
DEFAULT_255_2_778
10
8.4894135
20
6.957818
40
0.875778
50
248.6298019
51
255.6332625
0
ARC
8
DEFAULT_255_2_778
10
8.2227159
20
6.6809725
40
0.5412639
50
264.4413582
51
270.3348735
0
ARC
8
DEFAULT_255_2_778
10
8.2155413
20
7.7991035
40
1.659418
50
270.3569504
51
272.4486596
0
LINE
8
DEFAULT_255_2_778
10
8.2864386
20
6.1412008
11
8.2881106
21
6.141262
0
ARC
8
DEFAULT_255_2_778
10
8.3565381
20
4.5274111
40
1.6153009
50
90.3374515
51
92.427895
0
ARC
8
DEFAULT_255_2_778
10
8.3642039
20
5.8223203
40
0.3208238
50
62.8733132
51
93.069508
0
ARC
8
DEFAULT_255_2_778
10
8.3652296
20
5.8601024
40
0.287194
50
47.917739
51
59.6168319
0
ARC
8
DEFAULT_255_2_778
10
8.2092545
20
5.6832908
40
0.5229617
50
41.6845518
51
48.2175478
0
ARC
8
DEFAULT_255_2_778
10
7.8221557
20
5.3454695
40
1.0367276
50
34.2554469
51
41.4004242
0
ARC
8
DEFAULT_255_2_778
10
6.6827177
20
4.5658643
40
2.4173432
50
29.9797454
51
34.3265784
0
ARC
8
DEFAULT_255_2_778
10
6.1954608
20
4.2663486
40
2.9891149
50
30.2306105
51
30.2857066
0
ARC
8
DEFAULT_255_2_778
10
5.5151247
20
3.8692499
40
3.7768613
50
30.1742318
51
30.2390899
0
ARC
8
DEFAULT_255_2_778
10
5.3100085
20
3.749581
40
4.0143339
50
30.1190536
51
30.1793139
0
ARC
8
DEFAULT_255_2_778
10
5.0638233
20
3.6068523
40
4.2989012
50
30.0624586
51
30.1180243
0
ARC
8
DEFAULT_255_2_778
10
5.160605
20
3.662555
40
4.1872348
50
30.0098606
51
30.066189
0
ARC
8
DEFAULT_255_2_778
10
4.5265403
20
3.2965413
40
4.9193577
50
29.9604128
51
30.0077506
0
ARC
8
DEFAULT_255_2_778
10
4.9724067
20
3.553734
40
4.4046296
50
29.906163
51
29.9583596
0
ARC
8
DEFAULT_255_2_778
10
4.2044999
20
3.1122762
40
5.2903868
50
29.8612131
51
29.9041146
0
ARC
8
DEFAULT_255_2_778
10
4.3267229
20
3.1827567
40
5.1492986
50
29.8147183
51
29.8582291
0
ARC
8
DEFAULT_255_2_778
10
4.4468171
20
3.2519371
40
5.010704
50
29.7670012
51
29.8111385
0
ARC
8
DEFAULT_255_2_778
10
4.5634563
20
3.3183295
40
4.8764932
50
29.7254839
51
29.7702483
0
ARC
8
DEFAULT_255_2_778
10
4.677852
20
3.3836693
40
4.7447522
50
29.6798427
51
29.7252515
0
ARC
8
DEFAULT_255_2_778
10
4.1749601
20
3.0964872
40
5.3238669
50
29.6452504
51
29.6851913
0
ARC
8
DEFAULT_255_2_778
10
4.3780138
20
3.2117852
40
5.0903622
50
29.5997494
51
29.6478402
0
ARC
8
DEFAULT_255_2_778
10
3.9895559
20
2.9908869
40
5.5372352
50
29.5582499
51
29.6017809
0
ARC
8
DEFAULT_255_2_778
10
3.4902415
20
2.7079504
40
6.1111409
50
29.517519
51
29.5563542
0
ARC
8
DEFAULT_255_2_778
10
3.6634927
20
2.8059985
40
5.9120696
50
29.4783568
51
29.5178787
0
ARC
8
DEFAULT_255_2_778
10
3.2311525
20
2.5614928
40
6.4087597
50
29.4433582
51
29.4792511
0
ARC
8
DEFAULT_255_2_778
10
3.8192991
20
2.8931639
40
5.7335396
50
29.4038217
51
29.4461348
0
ARC
8
DEFAULT_255_2_778
10
3.9945945
20
2.9913795
40
5.5326054
50
29.3658823
51
29.408998
0
ARC
8
DEFAULT_255_2_778
10
3.1390042
20
2.5090654
40
6.5147771
50
29.3354644
51
29.3726635
0
ARC
8
DEFAULT_255_2_778
10
3.0336584
20
2.4493601
40
6.6358649
50
29.3023484
51
29.3392445
0
ARC
8
DEFAULT_255_2_778
10
2.2787222
20
2.0253459
40
7.5017265
50
29.2723229
51
29.3044998
0
ARC
8
DEFAULT_255_2_778
10
2.5285434
20
2.1652709
40
7.215388
50
29.2402323
51
29.2730813
0
ARC
8
DEFAULT_255_2_778
10
-2.3485419
20
-0.5638661
40
12.8041401
50
29.2178796
51
29.2360551
0
ARC
8
DEFAULT_255_2_778
10
0.5824976
20
1.0764748
40
9.4453145
50
29.1881942
51
29.212385
0
ARC
8
DEFAULT_255_2_778
10
0.8987504
20
1.2526461
40
9.0833035
50
29.1662012
51
29.1908978
0
ARC
8
DEFAULT_255_2_778
10
1.2065561
20
1.4246285
40
8.7307097
50
29.1398659
51
29.1650907
0
LINE
8
DEFAULT_255_2_778
10
8.8322515
20
5.6759884
11
8.887653
21
5.5761476
0
ARC
8
DEFAULT_255_2_778
10
11.3179771
20
6.9193185
40
2.7767937
50
208.9281795
51
210.829386
0
ARC
8
DEFAULT_255_2_778
10
9.9744649
20
6.1249098
40
1.216019
50
211.1295779
51
211.2509846
0
ARC
8
DEFAULT_255_2_778
10
5.5011912
20
6.5212005
40
3.5840333
50
343.3461094
51
345.0347595
0
ARC
8
DEFAULT_255_2_778
10
5.4148803
20
6.5489507
40
3.6745856
50
344.9642712
51
345.0042691
0
ARC
8
DEFAULT_255_2_778
10
3.9876701
20
6.9317601
40
5.1522431
50
344.9988604
51
345.0268459
0
ARC
8
DEFAULT_255_2_778
10
4.1904659
20
6.8772631
40
4.9422525
50
345.0297561
51
345.0583792
0
ARC
8
DEFAULT_255_2_778
10
4.3832916
20
6.8258723
40
4.7426962
50
345.0576068
51
345.0868721
0
ARC
8
DEFAULT_255_2_778
10
-2.7176316
20
8.7164837
40
12.0909969
50
345.089347
51
345.1006106
0
ARC
8
DEFAULT_255_2_778
10
-2.2088395
20
8.578497
40
11.5638317
50
345.1131238
51
345.1246802
0
ARC
8
DEFAULT_255_2_778
10
5.4809921
20
6.5357761
40
3.6073112
50
345.1271587
51
345.1635127
0
ARC
8
DEFAULT_255_2_778
10
1.813073
20
7.5080976
40
7.4019179
50
345.1581537
51
345.1755408
0
ARC
8
DEFAULT_255_2_778
10
5.7452457
20
6.46782
40
3.3344668
50
345.1681782
51
345.2060574
0
ARC
8
DEFAULT_255_2_778
10
2.3705261
20
7.3605321
40
6.8252642
50
345.1942531
51
345.2124161
0
ARC
8
DEFAULT_255_2_778
10
4.0866657
20
6.9070452
40
5.0502189
50
345.2174739
51
345.2415674
0
ARC
8
DEFAULT_255_2_778
10
4.2720903
20
6.8591985
40
4.8587233
50
345.2301565
51
345.2547383
0
ARC
8
DEFAULT_255_2_778
10
4.4532991
20
6.8119884
40
4.6714662
50
345.2490192
51
345.2741166
0
ARC
8
DEFAULT_255_2_778
10
-2.9320488
20
8.7527415
40
12.3075571
50
345.2755709
51
345.2849223
0
ARC
8
DEFAULT_255_2_778
10
4.7917487
20
6.7245569
40
4.3219088
50
345.2812245
51
345.3073679
0
ARC
8
DEFAULT_255_2_778
10
5.6889812
20
6.4901869
40
3.3945715
50
345.2928175
51
345.325496
0
ARC
8
DEFAULT_255_2_778
10
-1.5662502
20
8.3915193
40
10.8948012
50
345.3183309
51
345.3283275
0
ARC
8
DEFAULT_255_2_778
10
-2.3877069
20
8.6051592
40
11.7435835
50
345.3350825
51
345.3487327
0
ARC
8
DEFAULT_255_2_778
10
-1.7310412
20
8.4327826
40
11.0646705
50
345.3522421
51
345.3663373
0
ARC
8
DEFAULT_255_2_778
10
19.8591368
20
2.8393249
40
11.2383412
50
165.0462131
51
165.5829395
0
ARC
8
DEFAULT_255_2_778
10
9.9422363
20
5.5038526
40
0.9698507
50
156.1966003
51
165.9522435
0
ARC
8
DEFAULT_255_2_778
10
9.510064
20
5.6852801
40
0.5012876
50
135.1965412
51
155.2330164
0
ARC
8
DEFAULT_255_2_778
10
9.6558901
20
5.544683
40
0.7038375
50
129.0885998
51
135.4409765
0
ARC
8
DEFAULT_255_2_778
10
9.8527206
20
5.3035122
40
1.0151335
50
124.659414
51
129.1287276
0
ARC
8
DEFAULT_255_2_778
10
10.0482078
20
5.0254689
40
1.3550127
50
123.0871841
51
124.7725243
0
ARC
8
DEFAULT_255_2_778
10
10.2312044
20
5.3286526
40
1.2424976
50
137.9560531
51
144.1976564
0
ARC
8
DEFAULT_255_2_778
10
9.9906228
20
5.502002
40
0.9459686
50
144.1888859
51
153.1922662
0
ARC
8
DEFAULT_255_2_778
10
9.9354967
20
5.531933
40
0.8832702
50
153.3124311
51
156.3572144
0
ARC
8
DEFAULT_255_2_778
10
10.386786
20
5.3714892
40
1.361448
50
157.788456
51
171.6815512
0
ARC
8
DEFAULT_255_2_778
10
15.6446411
20
4.3931746
40
6.7087289
50
169.910462
51
170.1110073
0
ARC
8
DEFAULT_255_2_778
10
17.0729172
20
4.1424261
40
8.1588479
50
170.098851
51
170.1117331
0
ARC
8
DEFAULT_255_2_778
10
16.9131794
20
4.1698501
40
7.9967735
50
170.1087609
51
170.1217659
0
ARC
8
DEFAULT_255_2_778
10
0.6020445
20
7.0077912
40
8.5594049
50
350.1257223
51
350.1377445
0
ARC
8
DEFAULT_255_2_778
10
20.3867062
20
3.565358
40
11.522507
50
170.1325371
51
170.1413737
0
ARC
8
DEFAULT_255_2_778
10
-13.4462863
20
9.4388322
40
22.8165249
50
350.1507161
51
350.1566045
0
ARC
8
DEFAULT_255_2_778
10
-14.3347153
20
9.5314556
40
23.707781
50
350.018226
51
350.2974463
0
ARC
8
DEFAULT_255_2_778
10
3.5220476
20
6.4000338
40
5.5785436
50
349.4835874
51
349.9034101
0
ARC
8
DEFAULT_255_2_778
10
4.8733489
20
2.8051057
40
4.8709101
50
31.902292
51
31.9384217
0
ARC
8
DEFAULT_255_2_778
10
4.9003162
20
2.8218136
40
4.8391864
50
31.8668955
51
31.9030891
0
ARC
8
DEFAULT_255_2_778
10
2.7015131
20
1.4557186
40
7.4278057
50
31.8383363
51
31.8618029
0
ARC
8
DEFAULT_255_2_778
10
-0.4941057
20
-0.5261813
40
11.1881122
50
31.8122646
51
31.8277683
0
ARC
8
DEFAULT_255_2_778
10
4.9867652
20
2.8744682
40
4.7379678
50
31.7682185
51
31.804649
0
ARC
8
DEFAULT_255_2_778
10
3.8860406
20
2.1926144
40
6.0327726
50
31.7415305
51
31.7700001
0
ARC
8
DEFAULT_255_2_778
10
3.9259712
20
2.2165677
40
5.9862131
50
31.7190736
51
31.747621
0
ARC
8
DEFAULT_255_2_778
10
3.9624985
20
2.2392216
40
5.9432311
50
31.689831
51
31.7184396
0
ARC
8
DEFAULT_255_2_778
10
2.006329
20
1.0320374
40
8.241903
50
31.6664012
51
31.6869256
0
ARC
8
DEFAULT_255_2_778
10
2.0553109
20
1.0631164
40
8.183898
50
31.6406726
51
31.6612362
0
ARC
8
DEFAULT_255_2_778
10
4.8249521
20
2.7696713
40
4.9307085
50
31.607224
51
31.6411781
0
ARC
8
DEFAULT_255_2_778
10
-2.4259735
20
-1.6930327
40
13.4449114
50
31.5971763
51
31.6095633
0
ARC
8
DEFAULT_255_2_778
10
3.5775959
20
2.0005024
40
6.3961493
50
31.5672897
51
31.5931902
0
ARC
8
DEFAULT_255_2_778
10
-2.2927476
20
-1.6051896
40
13.2854125
50
31.5506634
51
31.5630667
0
ARC
8
DEFAULT_255_2_778
10
3.6732022
20
2.0580343
40
6.2845721
50
31.5243902
51
31.55047
0
ARC
8
DEFAULT_255_2_778
10
3.720935
20
2.0865861
40
6.2289551
50
31.5039193
51
31.53009
0
ARC
8
DEFAULT_255_2_778
10
-2.0657732
20
-1.4599106
40
13.0159744
50
31.4909106
51
31.5033668
0
ARC
8
DEFAULT_255_2_778
10
3.8183118
20
2.1446621
40
6.115583
50
31.4638691
51
31.490235
0
ARC
8
DEFAULT_255_2_778
10
1.4014448
20
0.6651161
40
8.949362
50
31.449138
51
31.467056
0
ARC
8
DEFAULT_255_2_778
10
1.4704786
20
0.7071665
40
8.8685296
50
31.4320903
51
31.4500712
0
ARC
8
DEFAULT_255_2_778
10
1.5391928
20
0.7490178
40
8.7880737
50
31.4148517
51
31.4328959
0
ARC
8
DEFAULT_255_2_778
10
-5.2255934
20
-3.3821225
40
16.7145265
50
31.4039256
51
31.4133595
0
ARC
8
DEFAULT_255_2_778
10
1.6807805
20
0.8344773
40
8.6226965
50
31.3841453
51
31.4023288
0
ARC
8
DEFAULT_255_2_778
10
1.7548365
20
0.8783201
40
8.5366433
50
31.3735207
51
31.391783
0
ARC
8
DEFAULT_255_2_778
10
-4.867121
20
-3.1589262
40
16.2922655
50
31.3621619
51
31.371676
0
ARC
8
DEFAULT_255_2_778
10
126.1514029
20
76.2687662
40
136.9220542
50
211.2093583
51
211.2854568
0
ARC
8
DEFAULT_255_2_778
10
15.0001592
20
8.7290131
40
6.8596957
50
211.3041977
51
212.9396764
0
ARC
8
DEFAULT_255_2_778
10
11.2618839
20
6.2550838
40
2.3775574
50
211.8908362
51
224.6333067
0
ARC
8
DEFAULT_255_2_778
10
10.2016309
20
5.2174355
40
0.8940689
50
225.0491905
51
243.9477535
0
ARC
8
DEFAULT_255_2_778
10
10.0655013
20
4.9681887
40
0.610495
50
245.1520651
51
248.3518909
0
ARC
8
DEFAULT_255_2_778
10
10.1915213
20
5.316254
40
0.9805643
50
249.0105232
51
256.3495246
0
ARC
8
DEFAULT_255_2_778
10
10.5226019
20
6.627293
40
2.3327382
50
256.0467844
51
259.5510519
0
ARC
8
DEFAULT_255_2_778
10
11.063863
20
9.5606149
40
5.3155794
50
259.5478188
51
261.5388984
0
ARC
8
DEFAULT_255_2_778
10
14.4065483
20
31.5373058
40
27.5450074
50
261.3876793
51
261.4986323
0
ARC
8
DEFAULT_255_2_778
10
10.5332549
20
5.9250412
40
1.6421613
50
263.0478355
51
270.0917747
0
ARC
8
DEFAULT_255_2_778
10
10.4661806
20
7.1505321
40
2.8684971
50
271.3924279
51
284.932197
0
ARC
8
DEFAULT_255_2_778
10
7.5615903
20
19.349998
40
15.4081329
50
283.6789459
51
284.5483194
0
ARC
8
DEFAULT_255_2_778
10
15.5582519
20
-11.5150521
40
16.4760022
50
103.8146373
51
104.5033504
0
ARC
8
DEFAULT_255_2_778
10
12.0571214
20
2.6153567
40
1.918507
50
89.0840768
51
103.0448937
0
ARC
8
DEFAULT_255_2_778
10
12.0597785
20
-0.6035704
40
5.1372653
50
86.5242844
51
89.6875966
0
ARC
8
DEFAULT_255_2_778
10
10.6206289
20
-26.1242671
40
30.6984675
50
86.3936947
51
86.7309
0
ARC
8
DEFAULT_255_2_778
10
14.1589494
20
30.5354403
40
26.0716249
50
266.4653407
51
266.6580096
0
ARC
8
DEFAULT_255_2_778
10
12.656715
20
4.8263338
40
0.318668
50
266.8288415
51
270.0868053
0
ARC
8
DEFAULT_255_2_778
10
12.6512631
20
5.0917293
40
0.5840931
50
270.5821696
51
278.3771266
0
ARC
8
DEFAULT_255_2_778
10
12.6005909
20
5.4602658
40
0.9560865
50
278.16379
51
286.0740276
0
ARC
8
DEFAULT_255_2_778
10
12.6872787
20
5.2106436
40
0.6923666
50
284.9002115
51
302.8313361
0
ARC
8
DEFAULT_255_2_778
10
12.9444587
20
4.8153617
40
0.2207956
50
302.3664338
51
331.2773173
0
ARC
8
DEFAULT_255_2_778
10
12.9361933
20
4.8084655
40
0.2249531
50
333.8302064
51
359.9388791
0
ARC
8
DEFAULT_255_2_778
10
12.9359322
20
4.8081594
40
0.2252141
50
0.0168205
51
9.8311419
0
ARC
8
DEFAULT_255_2_778
10
12.9157741
20
4.8033777
40
0.2458961
50
10.1269622
51
33.5997963
0
ARC
8
DEFAULT_255_2_778
10
12.9021375
20
4.7702684
40
0.2763037
50
37.7572139
51
64.1524324
0
ARC
8
DEFAULT_255_2_778
10
12.1673584
20
3.508019
40
1.7361709
50
60.4882436
51
61.3446453
0
ARC
8
DEFAULT_255_2_778
10
47.8215734
20
68.6616932
40
72.5351179
50
241.2940582
51
241.3102803
0
ARC
8
DEFAULT_255_2_778
10
13.185694
20
5.4568891
40
0.4627695
50
227.0339721
51
243.8729557
0
ARC
8
DEFAULT_255_2_778
10
13.5269585
20
5.7251537
40
0.894173
50
212.1795348
51
222.7442902
0
ARC
8
DEFAULT_255_2_778
10
7.3461443
20
1.6252279
40
6.5231188
50
33.7464285
51
33.9292771
0
ARC
8
DEFAULT_255_2_778
10
11.8818621
20
4.6875125
40
1.0504776
50
33.4294942
51
38.4375548
0
ARC
8
DEFAULT_255_2_778
10
11.8289432
20
9.8165242
40
4.5608374
50
271.5949399
51
281.0703268
0
ARC
8
DEFAULT_255_2_778
10
13.1538058
20
2.2990958
40
3.1916911
50
108.9275606
51
112.0443559
0
ARC
8
DEFAULT_255_2_778
10
14.8139942
20
-2.5049772
40
8.2745336
50
108.2198216
51
109.0114289
0
ARC
8
DEFAULT_255_2_778
10
9.2423394
20
14.5154422
40
9.6346472
50
288.0452774
51
289.2676017
0
ARC
8
DEFAULT_255_2_778
10
11.918477
20
6.8121489
40
1.4798428
50
289.8753558
51
296.1233393
0
ARC
8
DEFAULT_255_2_778
10
11.4197428
20
7.8348088
40
2.6176325
50
296.0687373
51
300.8740771
0
ARC
8
DEFAULT_255_2_778
10
10.9578677
20
8.6252313
40
3.5330744
50
300.7251799
51
302.6974728
0
ARC
8
DEFAULT_255_2_778
10
10.8519956
20
8.7922934
40
3.7308557
50
302.6797736
51
303.2534547
0
ARC
8
DEFAULT_255_2_778
10
-2.3151532
20
29.0291533
40
27.8742465
50
303.0773286
51
303.3083948
0
ARC
8
DEFAULT_255_2_778
10
11.6285327
20
7.7997405
40
2.4751506
50
303.4222436
51
304.8113534
0
ARC
8
DEFAULT_255_2_778
10
12.4171297
20
6.6764324
40
1.1027002
50
304.4893713
51
311.7577804
0
ARC
8
DEFAULT_255_2_778
10
12.4867182
20
6.5906012
40
0.992342
50
312.0609866
51
316.4789551
0
ARC
8
DEFAULT_255_2_778
10
17.8015106
20
1.4456168
40
6.4048643
50
134.5439428
51
135.8450404
0
ARC
8
DEFAULT_255_2_778
10
12.5374443
20
6.8361749
40
1.1299505
50
313.0493039
51
327.656229
0
ARC
8
DEFAULT_255_2_778
10
12.7467562
20
6.5987774
40
0.8308413
50
333.7767643
51
2.6856901
0
ARC
8
DEFAULT_255_2_778
10
8.6630918
20
6.7805518
40
4.9156689
50
358.334816
51
358.3761609
0
ARC
8
DEFAULT_255_2_778
10
11.0135769
20
6.7129852
40
2.5642132
50
358.3969964
51
359.9834255
0
ARC
8
DEFAULT_255_2_778
10
11.5232247
20
6.7156262
40
2.0545682
50
359.9056662
51
3.5344559
0
ARC
8
DEFAULT_255_2_778
10
12.5452915
20
6.7936743
40
1.0297416
50
2.7059069
51
15.0610467
0
ARC
8
DEFAULT_255_2_778
10
13.133048
20
6.944206
40
0.4231236
50
16.0586058
51
25.3633153
0
ARC
8
DEFAULT_255_2_778
10
13.2458322
20
6.9948993
40
0.2995064
50
25.8425177
51
60.41123
0
ARC
8
DEFAULT_255_2_778
10
13.1635539
20
6.8603744
40
0.4571435
50
59.7690072
51
67.788343
0
ARC
8
DEFAULT_255_2_778
10
12.9606197
20
6.3469369
40
1.0092149
50
68.1414182
51
73.1364301
0
ARC
8
DEFAULT_255_2_778
10
13.2109903
20
7.1806211
40
0.1387678
50
72.210535
51
89.9257322
0
ARC
8
DEFAULT_255_2_778
10
13.2170699
20
7.1230931
40
0.1963845
50
91.7215412
51
113.3183896
0
ARC
8
DEFAULT_255_2_778
10
13.5477062
20
6.2823321
40
1.0997379
50
111.7980852
51
113.8067083
0
ARC
8
DEFAULT_255_2_778
10
12.9592821
20
7.5875639
40
0.3321527
50
278.1355157
51
295.7902422
0
ARC
8
DEFAULT_255_2_778
10
13.0454945
20
6.9040658
40
0.3568485
50
96.3079655
51
102.0096391
0
ARC
8
DEFAULT_255_2_778
10
13.211837
20
6.1403624
40
1.1384548
50
102.2005426
51
104.5595341
0
ARC
8
DEFAULT_255_2_778
10
12.7984107
20
7.6805565
40
0.4563927
50
271.7323303
51
286.1876254
0
ARC
8
DEFAULT_255_2_778
10
12.8123081
20
7.49916
40
0.2747876
50
251.6063623
51
269.9790524
0
ARC
8
DEFAULT_255_2_778
10
12.830852
20
7.5580368
40
0.3365092
50
244.8401365
51
251.77351
0
ARC
8
DEFAULT_255_2_778
10
13.0519664
20
8.0213372
40
0.8498657
50
234.9843187
51
244.62668
0
ARC
8
DEFAULT_255_2_778
10
13.2052983
20
8.2462832
40
1.1220827
50
228.647076
51
235.1628361
0
ARC
8
DEFAULT_255_2_778
10
13.3479343
20
8.4072826
40
1.3371767
50
219.7335207
51
228.6171351
0
ARC
8
DEFAULT_255_2_778
10
13.4440451
20
8.4900859
40
1.4640194
50
215.5082547
51
219.8212707
0
ARC
8
DEFAULT_255_2_778
10
13.305706
20
8.3729591
40
1.283465
50
206.6003288
51
214.8388491
0
ARC
8
DEFAULT_255_2_778
10
15.6164384
20
9.5460314
40
3.8748961
50
203.7856883
51
206.8109058
0
ARC
8
DEFAULT_255_2_778
10
249.3891486
20
113.7979694
40
259.8399877
50
204.0034279
51
204.0309727
0
ARC
8
DEFAULT_255_2_778
10
9.1045223
20
6.839625
40
3.1750327
50
23.3359323
51
29.2218824
0
ARC
8
DEFAULT_255_2_778
10
3.614693
20
3.4510572
40
9.6244713
50
30.8724853
51
37.9726467
0
ARC
8
DEFAULT_255_2_778
10
139.3036904
20
105.6345961
40
160.2387011
50
216.8550528
51
216.9228909
0
ARC
8
DEFAULT_255_2_778
10
39.9495722
20
31.1406742
40
36.0590563
50
216.7127272
51
216.8314723
0
ARC
8
DEFAULT_255_2_778
10
3.1320662
20
7.6085518
40
8.154044
50
14.0236113
51
14.0452685
0
ARC
8
DEFAULT_255_2_778
10
1.8930861
20
7.2974511
40
9.4314844
50
14.0520359
51
14.0703189
0
ARC
8
DEFAULT_255_2_778
10
20.4067008
20
11.9720628
40
9.6632011
50
193.6576591
51
194.2687856
0
LINE
8
DEFAULT_255_2_778
10
11.0167374
20
9.6903866
11
11.0166866
21
9.6905982
0
ARC
8
DEFAULT_255_2_778
10
12.9212019
20
10.1657613
40
1.9628954
50
187.4784679
51
194.0088945
0
ARC
8
DEFAULT_255_2_778
10
12.1343426
20
10.0504594
40
1.1677829
50
185.3708
51
186.8941787
0
ARC
8
DEFAULT_255_2_778
10
13.7111401
20
10.213705
40
2.7529783
50
180.3173096
51
185.681722
0
ARC
8
DEFAULT_255_2_778
10
13.0084779
20
10.1983854
40
2.0502739
50
179.84194
51
179.9979471
0
ARC
8
DEFAULT_255_2_778
10
12.3318505
20
10.2225497
40
1.3737635
50
163.1327756
51
180.7719528
0
ARC
8
DEFAULT_255_2_778
10
12.851068
20
10.0348266
40
1.9253313
50
160.9189316
51
162.2699189
0
ARC
8
DEFAULT_255_2_778
10
11.5868324
20
10.5299978
40
0.571305
50
119.2060822
51
166.4110869
0
ARC
8
DEFAULT_255_2_778
10
11.4671495
20
10.674065
40
0.3886585
50
111.1864554
51
114.1622849
0
ARC
8
DEFAULT_255_2_778
10
11.4804167
20
10.6387743
40
0.4263589
50
97.9606227
51
111.1348878
0
ARC
8
DEFAULT_255_2_778
10
11.4725711
20
10.6984815
40
0.3661409
50
90.167569
51
98.0387131
0
ARC
8
DEFAULT_255_2_778
10
11.4756114
20
10.8300536
40
0.2346031
50
71.362269
51
91.0040815
0
ARC
8
DEFAULT_255_2_778
10
11.4952908
20
10.896664
40
0.1652179
50
3.5048152
51
70.4466468
0
ARC
8
DEFAULT_255_2_778
10
11.5306014
20
10.9068603
40
0.1295984
50
346.0666327
51
359.9575106
0
ARC
8
DEFAULT_255_2_778
10
11.5068722
20
10.9167504
40
0.1550596
50
313.589539
51
344.6308305
0
ARC
8
DEFAULT_255_2_778
10
11.4414518
20
10.9969894
40
0.2584051
50
300.8401117
51
311.8287587
0
ARC
8
DEFAULT_255_2_778
10
9.2076593
20
14.5130357
40
4.4239341
50
302.2743711
51
302.3355968
0
ARC
8
DEFAULT_255_2_778
10
11.6870275
20
10.5701091
40
0.2339097
50
120.0414848
51
134.497026
0
ARC
8
DEFAULT_255_2_778
10
11.8675978
20
10.3927325
40
0.4870074
50
135.0241072
51
166.5808378
0
ARC
8
DEFAULT_255_2_778
10
11.3160506
20
15.3082962
40
4.8031731
50
270.9285263
51
271.4712836
0
ARC
8
DEFAULT_255_2_778
10
11.5357597
20
6.7889763
40
3.7189796
50
90.6114531
51
91.4850768
0
ARC
8
DEFAULT_255_2_778
10
11.5112939
20
8.74238
40
1.7654298
50
90.0095304
51
90.494021
0
ARC
8
DEFAULT_255_2_778
10
11.5250134
20
9.8710705
40
0.6368936
50
80.5988569
51
91.2607443
0
ARC
8
DEFAULT_255_2_778
10
11.5850725
20
10.2783119
40
0.2254286
50
75.1922863
51
78.7511175
0
ARC
8
DEFAULT_255_2_778
10
11.5755774
20
10.2243468
40
0.2800662
50
29.0712601
51
76.1359362
0
ARC
8
DEFAULT_255_2_778
10
11.4894609
20
10.1716574
40
0.3809583
50
19.760267
51
29.7041001
0
ARC
8
DEFAULT_255_2_778
10
10.0141523
20
8.1358959
40
2.8369454
50
49.7284065
51
51.5182212
0
ARC
8
DEFAULT_255_2_778
10
11.4552914
20
9.9475416
40
0.5220072
50
51.6068507
51
57.7991888
0
ARC
8
DEFAULT_255_2_778
10
11.5859447
20
10.1540258
40
0.2776601
50
57.9073066
51
86.851471
0
ARC
8
DEFAULT_255_2_778
10
11.5605012
20
9.9260763
40
0.5068266
50
85.3946865
51
88.6110224
0
ARC
8
DEFAULT_255_2_778
10
11.5672449
20
10.2349419
40
0.1978895
50
88.3952728
51
90.0187307
0
ARC
8
DEFAULT_255_2_778
10
11.6006395
20
9.7623035
40
0.6713623
50
92.8566831
51
103.1114124
0
LINE
8
DEFAULT_255_2_778
10
11.4483441
20
10.416164
11
11.4481422
21
10.4161242
0
ARC
8
DEFAULT_255_2_778
10
11.1499704
20
11.8694129
40
1.4835615
50
279.0092304
51
281.5944932
0
ARC
8
DEFAULT_255_2_778
10
12.7346748
20
10.0012292
40
1.411135
50
163.4093311
51
166.7966802
0
LINE
8
DEFAULT_255_2_778
10
11.3608422
20
10.3235427
11
11.3606079
21
10.3225878
0
ARC
8
DEFAULT_255_2_778
10
10.7680358
20
10.4372955
40
0.6035724
50
334.0788684
51
349.0444144
0
ARC
8
DEFAULT_255_2_778
10
11.2056406
20
10.2381273
40
0.1235289
50
293.8534529
51
328.4293327
0
ARC
8
DEFAULT_255_2_778
10
10.3374055
20
11.8589382
40
1.9619111
50
297.7179899
51
297.9050687
0
ARC
8
DEFAULT_255_2_778
10
11.2891938
20
10.0213082
40
0.1082266
50
111.2720451
51
159.6252318
0
ARC
8
DEFAULT_255_2_778
10
11.3434882
20
10.0043182
40
0.165066
50
160.6582923
51
160.8180467
0
ARC
8
DEFAULT_255_2_778
10
11.6202452
20
9.9231329
40
0.4533566
50
162.6200236
51
178.295108
0
ARC
8
DEFAULT_255_2_778
10
11.9368622
20
9.8980947
40
0.7707365
50
177.1348049
51
180.0278512
0
ARC
8
DEFAULT_255_2_778
10
11.9942642
20
9.8977699
40
0.8281384
50
180.003447
51
181.1149798
0
ARC
8
DEFAULT_255_2_778
10
11.9894932
20
9.8970117
40
0.8233538
50
181.0686863
51
187.8151658
0
ARC
8
DEFAULT_255_2_778
10
15.3969403
20
18.2539565
40
8.9964068
50
247.9928538
51
248.1862043
0
ARC
8
DEFAULT_255_2_778
10
11.9230703
20
9.5810221
40
0.3463821
50
65.7872074
51
67.7990407
0
ARC
8
DEFAULT_255_2_778
10
11.9481978
20
9.6430813
40
0.2794885
50
53.9255444
51
65.2674909
0
ARC
8
DEFAULT_255_2_778
10
11.714458
20
9.3019443
40
0.692951
50
53.3717711
51
54.9139129
0
ARC
8
DEFAULT_255_2_778
10
10.9143246
20
8.1329056
40
2.1092342
50
52.8004657
51
54.8753845
0
ARC
8
DEFAULT_255_2_778
10
12.0080612
20
9.5729839
40
0.3008971
50
27.2838335
51
52.9030183
0
ARC
8
DEFAULT_255_2_778
10
12.0178274
20
9.581406
40
0.2883724
50
23.4479265
51
26.6861181
0
ARC
8
DEFAULT_255_2_778
10
11.8914296
20
9.5389868
40
0.4213655
50
5.997089
51
21.900419
0
ARC
8
DEFAULT_255_2_778
10
11.5773398
20
9.494465
40
0.738477
50
359.9397044
51
6.8864682
0
ARC
8
DEFAULT_255_2_778
10
11.6720069
20
9.4918387
40
0.6438121
50
354.9918763
51
0.164571
0
ARC
8
DEFAULT_255_2_778
10
11.9654029
20
9.466854
40
0.3493558
50
351.5726041
51
354.8732452
0
ARC
8
DEFAULT_255_2_778
10
12.2565254
20
9.2180214
40
0.204999
50
74.5934649
51
84.8119971
0
ARC
8
DEFAULT_255_2_778
10
12.3204222
20
9.8361571
40
0.4164542
50
259.9941392
51
263.7469565
0
ARC
8
DEFAULT_255_2_778
10
12.2645066
20
9.5352324
40
0.1104262
50
231.3818882
51
261.4366473
0
ARC
8
DEFAULT_255_2_778
10
12.3234561
20
9.5866078
40
0.1878809
50
210.594072
51
227.1104004
0
ARC
8
DEFAULT_255_2_778
10
41.350772
20
28.2102805
40
34.6758161
50
212.6311333
51
212.6725563
0
ARC
8
DEFAULT_255_2_778
10
11.9817358
20
9.4184644
40
0.1909917
50
29.3552948
51
55.5466354
0
ARC
8
DEFAULT_255_2_778
10
12.0030427
20
9.435499
40
0.1650819
50
58.3008039
51
82.8336982
0
ARC
8
DEFAULT_255_2_778
10
11.9703785
20
9.170746
40
0.431842
50
82.9158039
51
86.8268556
0
ARC
8
DEFAULT_255_2_778
10
12.0262234
20
10.1773846
40
0.5763443
50
263.1504121
51
266.8230541
0
ARC
8
DEFAULT_255_2_778
10
11.5686848
20
9.4504836
40
0.4184373
50
0.0227022
51
21.6932743
0
ARC
8
DEFAULT_255_2_778
10
11.5716864
20
9.4506416
40
0.4154354
50
357.5344003
51
0.0010818
0
ARC
8
DEFAULT_255_2_778
10
11.5718097
20
9.4506263
40
0.4153117
50
352.3102386
51
357.5357736
0
ARC
8
DEFAULT_255_2_778
10
11.725451
20
9.4212056
40
0.259258
50
272.2847721
51
354.2106388
0
ARC
8
DEFAULT_255_2_778
10
11.7075125
20
9.4051012
40
0.2445872
50
269.6509903
51
276.638201
0
ARC
8
DEFAULT_255_2_778
10
11.7136781
20
9.7460396
40
0.585571
50
262.1502312
51
269.2509252
0
ARC
8
DEFAULT_255_2_778
10
11.8297348
20
10.6622656
40
1.5090962
50
260.4560507
51
262.5361815
0
ARC
8
DEFAULT_255_2_778
10
9.587986
20
-2.5311525
40
11.8734218
50
80.3441109
51
80.6153455
0
ARC
8
DEFAULT_255_2_778
10
12.2258708
20
9.5270704
40
0.7814359
50
206.0944722
51
212.8866058
0
ARC
8
DEFAULT_255_2_778
10
10.8893658
20
8.6641889
40
0.8094166
50
26.4450387
51
32.809373
0
ARC
8
DEFAULT_255_2_778
10
11.9635978
20
6.3500909
40
2.6973032
50
95.279161
51
97.445207
0
ARC
8
DEFAULT_255_2_778
10
10.8989147
20
17.330231
40
8.3343709
50
275.6222183
51
275.712287
0
ARC
8
DEFAULT_255_2_778
10
11.6841852
20
9.6880649
40
0.6523225
50
273.8918654
51
284.7055073
0
ARC
8
DEFAULT_255_2_778
10
11.7839558
20
9.2765511
40
0.2291
50
286.6967939
51
294.4243399
0
ARC
8
DEFAULT_255_2_778
10
11.5470346
20
9.7090233
40
0.7217778
50
297.3544141
51
306.4252927
0
ARC
8
DEFAULT_255_2_778
10
12.2689996
20
8.7264214
40
0.4975454
50
111.3715779
51
126.1342091
0
ARC
8
DEFAULT_255_2_778
10
12.2465955
20
8.728725
40
0.487647
50
98.9435419
51
109.0182057
0
ARC
8
DEFAULT_255_2_778
10
12.3711933
20
7.9345145
40
1.2915716
50
95.8561956
51
98.9264208
0
ARC
8
DEFAULT_255_2_778
10
12.0781748
20
10.8144639
40
1.6032465
50
275.7719346
51
278.8845546
0
ARC
8
DEFAULT_255_2_778
10
13.2335846
20
8.2013617
40
1.372271
50
131.4166369
51
136.7393733
0
ARC
8
DEFAULT_255_2_778
10
11.2348887
20
10.0822459
40
1.372271
50
311.4166369
51
316.7393733
0
ARC
8
DEFAULT_255_2_778
10
12.8807953
20
9.5580343
40
1.1102315
50
238.0927196
51
241.0532475
0
ARC
8
DEFAULT_255_2_778
10
13.2994259
20
10.3272346
40
1.9859602
50
241.2251749
51
243.7804463
0
ARC
8
DEFAULT_255_2_778
10
10.8902407
20
5.3689083
40
3.5267215
50
61.4101072
51
64.2572754
0
ARC
8
DEFAULT_255_2_778
10
11.7582627
20
6.9950274
40
1.6835743
50
58.5614955
51
60.8663882
0
ARC
8
DEFAULT_255_2_778
10
11.7476797
20
7.0090735
40
1.6771899
50
53.7194299
51
58.0027508
0
ARC
8
DEFAULT_255_2_778
10
950.7600322
20
1292.8172979
40
1590.505904
50
233.8598814
51
233.8648875
0
ARC
8
DEFAULT_255_2_778
10
13.7778384
20
9.5009928
40
1.532771
50
232.8582899
51
244.1276455
0
ARC
8
DEFAULT_255_2_778
10
15.5306795
20
13.4239747
40
5.8289864
50
245.4519044
51
246.6933719
0
ARC
8
DEFAULT_255_2_778
10
14.0356297
20
9.9531156
40
2.0498282
50
246.6878723
51
249.7955607
0
ARC
8
DEFAULT_255_2_778
10
13.8243641
20
9.3890017
40
1.4474654
50
249.9316129
51
257.8189308
0
ARC
8
DEFAULT_255_2_778
10
13.9429311
20
9.9095823
40
1.9813526
50
257.6438594
51
259.2419168
0
ARC
8
DEFAULT_255_2_778
10
13.3671721
20
7.1196405
40
0.8681859
50
58.319628
51
76.2799585
0
ARC
8
DEFAULT_255_2_778
10
22.7429832
20
24.1403846
40
18.5651543
50
241.2843987
51
241.3433261
0
ARC
8
DEFAULT_255_2_778
10
14.2464979
20
8.5090353
40
0.774984
50
238.3530337
51
257.8349469
0
ARC
8
DEFAULT_255_2_778
10
14.5031458
20
11.6531259
40
3.9242083
50
263.8565813
51
270.0032175
0
ARC
8
DEFAULT_255_2_778
10
14.5033361
20
11.6715618
40
3.9426443
50
270.0004364
51
270.3858457
0
ARC
8
DEFAULT_255_2_778
10
14.503294
20
11.6707843
40
3.9418671
50
270.3865348
51
273.4482678
0
ARC
8
DEFAULT_255_2_778
10
14.6724491
20
8.4080136
40
0.6753854
50
275.7731879
51
284.1907493
0
ARC
8
DEFAULT_255_2_778
10
14.7628553
20
8.1516601
40
0.4054507
50
280.6836766
51
324.100136
0
ARC
8
DEFAULT_255_2_778
10
14.9031841
20
8.0266007
40
0.2192738
50
329.0759708
51
354.334491
0
ARC
8
DEFAULT_255_2_778
10
15.0316811
20
8.3800718
40
0.3856949
50
270.1136854
51
283.4491108
0
ARC
8
DEFAULT_255_2_778
10
15.0318858
20
8.227133
40
0.232756
50
269.9540202
51
270.1380043
0
ARC
8
DEFAULT_255_2_778
10
15.0309122
20
8.3590159
40
0.3646398
50
254.6065123
51
270.1236188
0
ARC
8
DEFAULT_255_2_778
10
15.0252371
20
8.3356011
40
0.3405594
50
225.8723211
51
254.4813691
0
ARC
8
DEFAULT_255_2_778
10
15.0897155
20
8.3993403
40
0.4312087
50
206.5583774
51
225.6194777
0
ARC
8
DEFAULT_255_2_778
10
15.2088997
20
8.4650786
40
0.5672354
50
202.3528336
51
207.1152651
0
ARC
8
DEFAULT_255_2_778
10
15.0684108
20
8.3944688
40
0.4106212
50
187.2553391
51
200.6956322
0
ARC
8
DEFAULT_255_2_778
10
16.5316621
20
8.6109724
40
1.8897367
50
185.5315734
51
188.1641736
0
ARC
8
DEFAULT_255_2_778
10
9.7986122
20
7.9355307
40
4.8771231
50
5.8049354
51
6.4795065
0
ARC
8
DEFAULT_255_2_778
10
14.0009743
20
8.4360223
40
0.6455373
50
4.4317029
51
21.3856002
0
ARC
8
DEFAULT_255_2_778
10
14.3467015
20
8.5572539
40
0.279719
50
24.0867847
51
28.8571045
0
ARC
8
DEFAULT_255_2_778
10
14.0842575
20
8.4029606
40
0.5841017
50
29.6881319
51
45.4574322
0
ARC
8
DEFAULT_255_2_778
10
17.1980311
20
11.545411
40
3.8397671
50
223.0082589
51
225.2329922
0
ARC
8
DEFAULT_255_2_778
10
15.2098159
20
9.6680394
40
1.1054375
50
215.528958
51
222.1442577
0
ARC
8
DEFAULT_255_2_778
10
4.7995637
20
2.2248485
40
11.6920017
50
35.5675979
51
35.5891041
0
ARC
8
DEFAULT_255_2_778
10
8.2749116
20
4.7113306
40
7.418755
50
35.5930177
51
35.626664
0
ARC
8
DEFAULT_255_2_778
10
5.4099502
20
2.6589667
40
10.9429857
50
35.6234106
51
35.6460475
0
ARC
8
DEFAULT_255_2_778
10
6.7414029
20
3.6142767
40
9.3042718
50
35.6437256
51
35.6701395
0
ARC
8
DEFAULT_255_2_778
10
6.0440269
20
3.1142148
40
10.1624064
50
35.6678373
51
35.6918235
0
ARC
8
DEFAULT_255_2_778
10
5.197325
20
2.5072221
40
11.2042046
50
35.6866686
51
35.7082413
0
ARC
8
DEFAULT_255_2_778
10
77.7402623
20
54.8270835
40
78.2376683
50
215.7061093
51
215.813286
0
ARC
8
DEFAULT_255_2_778
10
21.041945
20
14.0727903
40
8.4120889
50
214.5664947
51
215.6881275
0
ARC
8
DEFAULT_255_2_778
10
17.7826265
20
11.8310039
40
4.4562395
50
212.1476712
51
214.607309
0
ARC
8
DEFAULT_255_2_778
10
16.0449412
20
10.7439503
40
2.4065561
50
207.7147099
51
212.248665
0
ARC
8
DEFAULT_255_2_778
10
15.3224349
20
10.3560109
40
1.5865384
50
206.247949
51
207.446845
0
ARC
8
DEFAULT_255_2_778
10
15.2571613
20
10.2995853
40
1.503198
50
195.6660481
51
205.4192882
0
ARC
8
DEFAULT_255_2_778
10
20.5721377
20
11.8623254
40
7.0430624
50
195.1111976
51
196.2313189
0
ARC
8
DEFAULT_255_2_778
10
11.920106
20
9.5626039
40
1.9096452
50
14.0512776
51
22.3597399
0
ARC
8
DEFAULT_255_2_778
10
12.8862518
20
9.9363976
40
0.8742147
50
23.79208
51
24.9491825
0
ARC
8
DEFAULT_255_2_778
10
12.0072147
20
9.4854865
40
1.8618114
50
26.1200006
51
37.5528708
0
ARC
8
DEFAULT_255_2_778
10
22.8758916
20
17.6897743
40
11.7558522
50
215.8627871
51
216.9675278
0
ARC
8
DEFAULT_255_2_778
10
8.1220333
20
7.1208773
40
6.3932295
50
35.1617594
51
36.4956825
0
ARC
8
DEFAULT_255_2_778
10
10.1374169
20
8.6058538
40
3.8898542
50
36.5678404
51
37.5203439
0
ARC
8
DEFAULT_255_2_778
10
11.9034716
20
10.0299428
40
1.6226944
50
35.6170342
51
59.6448024
0
ARC
8
DEFAULT_255_2_778
10
11.8757175
20
9.9345611
40
1.7191968
50
60.4531033
51
66.6329064
0
ARC
8
DEFAULT_255_2_778
10
11.8719641
20
9.7744474
40
1.8686326
50
68.4747391
51
80.5959046
0
LINE
8
DEFAULT_255_2_778
10
12.1772921
20
11.6179665
11
12.1745932
21
11.6185127
0
ARC
8
DEFAULT_255_2_778
10
12.8870065
20
15.3113664
40
3.7609442
50
255.9738559
51
259.0808255
0
ARC
8
DEFAULT_255_2_778
10
13.7145024
20
7.6566727
40
4.3670653
50
113.4664202
51
114.3894252
0
ARC
8
DEFAULT_255_2_778
10
11.9842613
20
11.4080382
40
0.237505
50
107.9203175
51
158.1704124
0
ARC
8
DEFAULT_255_2_778
10
12.1133797
20
11.4359491
40
0.3547732
50
170.1968992
51
174.5701161
0
ARC
8
DEFAULT_255_2_778
10
12.1127994
20
11.4360038
40
0.3541904
50
174.5700321
51
180.0003166
0
ARC
8
DEFAULT_255_2_778
10
12.1133499
20
11.436038
40
0.3547409
50
180.0058409
51
221.6999495
0
ARC
8
DEFAULT_255_2_778
10
14.4293267
20
13.7664862
40
3.6396855
50
224.839624
51
226.9554148
0
ARC
8
DEFAULT_255_2_778
10
9.3069929
20
8.3325905
40
3.8280221
50
45.7276043
51
46.4387469
0
ARC
8
DEFAULT_255_2_778
10
11.441841
20
10.4625305
40
0.8137212
50
22.7078863
51
48.6696824
0
ARC
8
DEFAULT_255_2_778
10
10.573328
20
10.4199816
40
1.6579777
50
0.0011257
51
12.4228543
0
ARC
8
DEFAULT_255_2_778
10
10.5757631
20
10.4200145
40
1.6555424
50
359.3881385
51
359.9999867
0
ARC
8
DEFAULT_255_2_778
10
10.5744256
20
10.4200086
40
1.6568799
50
350.8857873
51
359.3888383
0
ARC
8
DEFAULT_255_2_778
10
11.7100189
20
10.3680083
40
0.542825
50
310.7163594
51
337.1884018
0
ARC
8
DEFAULT_255_2_778
10
17.9033641
20
3.9680427
40
8.364173
50
134.2769009
51
134.6800704
0
ARC
8
DEFAULT_255_2_778
10
13.1340399
20
8.7991587
40
1.5755091
50
134.8905231
51
135.4129393
0
ARC
8
DEFAULT_255_2_778
10
12.5257485
20
8.4452753
40
0.7070319
50
130.9042047
51
131.787054
0
ARC
8
DEFAULT_255_2_778
10
13.559425
20
7.2930176
40
2.2549925
50
131.8610847
51
132.3218084
0
ARC
8
DEFAULT_255_2_778
10
11.8050275
20
9.1996352
40
0.3362067
50
294.5630451
51
314.6133994
0
ARC
8
DEFAULT_255_2_778
10
11.7384422
20
9.4277062
40
0.5723429
50
278.6612014
51
291.1325003
0
ARC
8
DEFAULT_255_2_778
10
12.2719825
20
6.440293
40
2.462571
50
100.4664598
51
101.9858017
0
ARC
8
DEFAULT_255_2_778
10
11.9478477
20
7.988461
40
0.8808527
50
102.2745124
51
103.8635179
0
ARC
8
DEFAULT_255_2_778
10
14.7167477
20
7.9185713
40
2.3833511
50
180.228962
51
182.6192906
0
ARC
8
DEFAULT_255_2_778
10
37.6520388
20
8.1507896
40
25.3197772
50
180.5183222
51
180.547044
0
ARC
8
DEFAULT_255_2_778
10
10.9519586
20
7.9434958
40
1.3815102
50
359.0976445
51
7.1961932
0
ARC
8
DEFAULT_255_2_778
10
11.7255917
20
8.0232238
40
0.6042462
50
8.8852976
51
13.469938
0
ARC
8
DEFAULT_255_2_778
10
11.2161027
20
7.8879695
40
1.1312989
50
14.121055
51
20.5592999
0
ARC
8
DEFAULT_255_2_778
10
31.039286
20
15.224741
40
20.0060447
50
199.8422584
51
200.2959563
0
ARC
8
DEFAULT_255_2_778
10
11.4879761
20
12.4446605
40
2.2491554
50
177.3167409
51
178.5528424
0
ARC
8
DEFAULT_255_2_778
10
11.4852872
20
12.4447097
40
2.2464663
50
178.5523639
51
180.000028
0
ARC
8
DEFAULT_255_2_778
10
11.4740995
20
12.4443322
40
2.2352785
50
179.9903528
51
191.8909531
0
ARC
8
DEFAULT_255_2_778
10
12.176494
20
12.595854
40
2.9538238
50
191.959661
51
192.0659061
0
ARC
8
DEFAULT_255_2_778
10
10.342898
20
12.1831399
40
1.0746555
50
190.9831369
51
200.0226975
0
ARC
8
DEFAULT_255_2_778
10
9.7535262
20
11.973504
40
0.4491553
50
200.6390373
51
228.5934048
0
ARC
8
DEFAULT_255_2_778
10
9.9503157
20
12.1810462
40
0.7350479
50
227.7881012
51
232.706675
0
ARC
8
DEFAULT_255_2_778
10
10.0743446
20
12.3400643
40
0.9367052
50
232.5646384
51
233.5240197
0
ARC
8
DEFAULT_255_2_778
10
10.1996678
20
12.4806499
40
1.1243854
50
232.6476699
51
240.7296117
0
ARC
8
DEFAULT_255_2_778
10
10.1312233
20
12.3652363
40
0.9902482
50
240.9191791
51
250.5636286
0
ARC
8
DEFAULT_255_2_778
10
10.48306
20
13.4149231
40
2.0972654
50
251.0419247
51
255.2393292
0
ARC
8
DEFAULT_255_2_778
10
9.2776942
20
8.9269579
40
2.5497919
50
72.9347743
51
74.7419554
0
ARC
8
DEFAULT_255_2_778
10
9.7681398
20
10.5106291
40
0.8919309
50
64.0074867
51
73.1986325
0
ARC
8
DEFAULT_255_2_778
10
9.8298976
20
10.647958
40
0.7414418
50
60.8911899
51
63.6463105
0
ARC
8
DEFAULT_255_2_778
10
9.6765647
20
10.3753295
40
1.0542294
50
56.2755116
51
60.8183048
0
ARC
8
DEFAULT_255_2_778
10
9.9745922
20
10.7808501
40
0.5519544
50
32.6225828
51
58.6356217
0
ARC
8
DEFAULT_255_2_778
10
10.2575814
20
10.9787281
40
0.2074127
50
17.6899526
51
28.7244353
0
ARC
8
DEFAULT_255_2_778
10
10.2677395
20
10.9831018
40
0.196409
50
8.07881
51
17.3748436
0
ARC
8
DEFAULT_255_2_778
10
10.2625688
20
10.9824079
40
0.2016261
50
359.9736446
51
8.067537
0
ARC
8
DEFAULT_255_2_778
10
10.2340365
20
10.9850508
40
0.2301745
50
301.0004583
51
359.3190217
0
ARC
8
DEFAULT_255_2_778
10
10.3770589
20
10.9539929
40
0.1680308
50
261.6255694
51
270.0416882
0
ARC
8
DEFAULT_255_2_778
10
10.3771621
20
10.9616671
40
0.1757047
50
270.006227
51
271.2287084
0
ARC
8
DEFAULT_255_2_778
10
10.3671349
20
11.01039
40
0.2248109
50
273.5180005
51
357.7523169
0
ARC
8
DEFAULT_255_2_778
10
10.3948639
20
11.0010427
40
0.1969096
50
0.1543372
51
22.3306383
0
ARC
8
DEFAULT_255_2_778
10
10.4500614
20
11.0245128
40
0.1369359
50
22.0219599
51
22.1552764
0
ARC
8
DEFAULT_255_2_778
10
10.4333876
20
11.0008732
40
0.1620467
50
27.6818325
51
61.5574363
0
ARC
8
DEFAULT_255_2_778
10
10.0444303
20
10.4148413
40
0.8648832
50
57.3871978
51
59.9263888
0
ARC
8
DEFAULT_255_2_778
10
-1.9209066
20
-10.0647878
40
24.5837406
50
59.7119732
51
59.7597968
0
ARC
8
DEFAULT_255_2_778
10
10.5904191
20
11.4425545
40
0.2988251
50
217.840722
51
244.1467099
0
ARC
8
DEFAULT_255_2_778
10
10.4561622
20
11.323382
40
0.1202668
50
209.0118536
51
212.2338381
0
ARC
8
DEFAULT_255_2_778
10
10.5960692
20
11.4070273
40
0.2832347
50
180.2638533
51
210.083225
0
ARC
8
DEFAULT_255_2_778
10
10.6067043
20
11.40563
40
0.2938669
50
176.5902744
51
179.9818619
0
ARC
8
DEFAULT_255_2_778
10
10.6933484
20
11.3971624
40
0.3808756
50
164.0769983
51
176.0939416
0
ARC
8
DEFAULT_255_2_778
10
10.554059
20
11.4268513
40
0.2389809
50
133.9440865
51
161.7595035
0
ARC
8
DEFAULT_255_2_778
10
11.1000363
20
10.8814138
40
1.0106951
50
124.3061947
51
134.7719762
0
ARC
8
DEFAULT_255_2_778
10
12.8717834
20
8.4463873
40
4.0217338
50
125.2082605
51
125.6043218
0
ARC
8
DEFAULT_255_2_778
10
8.703514
20
14.4315648
40
3.272052
50
304.4198851
51
307.2679318
0
ARC
8
DEFAULT_255_2_778
10
10.3784158
20
12.2291391
40
0.5051093
50
307.3536701
51
317.0927616
0
ARC
8
DEFAULT_255_2_778
10
9.9897307
20
12.5882588
40
1.0342992
50
317.180415
51
323.3394096
0
ARC
8
DEFAULT_255_2_778
10
10.289299
20
12.3624965
40
0.6591968
50
323.5340325
51
328.7888113
0
ARC
8
DEFAULT_255_2_778
10
10.518968
20
12.2342756
40
0.3964362
50
327.4372848
51
359.4943393
0
ARC
8
DEFAULT_255_2_778
10
10.456566
20
12.2271766
40
0.458837
50
0.4495819
51
15.0230586
0
ARC
8
DEFAULT_255_2_778
10
10.2344087
20
12.1712773
40
0.6879001
50
14.7235281
51
21.6486997
0
ARC
8
DEFAULT_255_2_778
10
10.2321468
20
12.1603166
40
0.6941092
50
22.4207886
51
44.5875373
0
ARC
8
DEFAULT_255_2_778
10
9.5028223
20
11.4291503
40
1.7268179
50
44.8774191
51
60.9401373
0
ARC
8
DEFAULT_255_2_778
10
8.8016826
20
10.279083
40
3.0731452
50
59.9284462
51
63.7595454
0
ARC
8
DEFAULT_255_2_778
10
8.5546878
20
9.7851605
40
3.6253747
50
63.7096267
51
65.8978095
0
ARC
8
DEFAULT_255_2_778
10
8.4825848
20
9.6264085
40
3.7997309
50
65.8829099
51
66.5137667
0
ARC
8
DEFAULT_255_2_778
10
9.595821
20
12.1927676
40
1.0023244
50
66.4133491
51
73.3283422
0
ARC
8
DEFAULT_255_2_778
10
9.4452708
20
11.6437479
40
1.5715129
50
73.8126948
51
77.420251
0
LINE
8
DEFAULT_255_2_778
10
9.7875437
20
13.1775348
11
9.7874252
21
13.1775625
0
ARC
8
DEFAULT_255_2_778
10
10.1358998
20
14.7359762
40
1.5968995
50
253.9459471
51
257.3955239
0
ARC
8
DEFAULT_255_2_778
10
11.4539403
20
16.286474
40
3.5516682
50
240.3009508
51
240.4198596
0
ARC
8
DEFAULT_255_2_778
10
14.7087585
20
22.0760241
40
10.1933904
50
240.573597
51
241.1011529
0
ARC
8
DEFAULT_255_2_778
10
9.3835913
20
12.2807263
40
0.9582908
50
35.972884
51
65.3906068
0
ARC
8
DEFAULT_255_2_778
10
9.5743301
20
12.4700762
40
0.6939264
50
20.7169639
51
32.5691408
0
ARC
8
DEFAULT_255_2_778
10
9.5758061
20
12.4608468
40
0.6958708
50
14.0357479
51
21.4707563
0
ARC
8
DEFAULT_255_2_778
10
9.7695856
20
12.5093042
40
0.4961243
50
2.9979491
51
14.0341396
0
ARC
8
DEFAULT_255_2_778
10
9.786601
20
12.5114074
40
0.4790236
50
359.9880785
51
2.8531796
0
ARC
8
DEFAULT_255_2_778
10
9.6222534
20
12.5162207
40
0.64339
50
351.9762714
51
359.5624783
0
ARC
8
DEFAULT_255_2_778
10
7.4510853
20
12.8075126
40
2.8340004
50
351.2177066
51
352.2718168
0
ARC
8
DEFAULT_255_2_778
10
11.4265445
20
12.1847366
40
1.1899649
50
170.8084601
51
175.934948
0
ARC
8
DEFAULT_255_2_778
10
10.9947475
20
12.2217863
40
0.7566544
50
176.415549
51
179.9868696
0
ARC
8
DEFAULT_255_2_778
10
10.9848324
20
12.2219767
40
0.7467393
50
180.0013085
51
180.9071852
0
ARC
8
DEFAULT_255_2_778
10
10.4004056
20
12.2329003
40
0.163806
50
187.9820049
51
240.3857008
0
ARC
8
DEFAULT_255_2_778
10
10.9488436
20
12.9206095
40
1.0417386
50
232.8310769
51
234.0909076
0
ARC
8
DEFAULT_255_2_778
10
8.6366586
20
9.7063453
40
2.9177749
50
53.5239423
51
54.3347566
0
ARC
8
DEFAULT_255_2_778
10
10.192129
20
11.8031776
40
0.3070232
50
44.0259116
51
54.3120287
0
ARC
8
DEFAULT_255_2_778
10
10.3138268
20
11.9185865
40
0.1393214
50
24.8005845
51
44.6822997
0
ARC
8
DEFAULT_255_2_778
10
10.3597735
20
11.9426392
40
0.0875604
50
22.2439605
51
23.1241928
0
ARC
8
DEFAULT_255_2_778
10
10.3679245
20
11.9455213
40
0.0789261
50
359.9137259
51
22.5473641
0
ARC
8
DEFAULT_255_2_778
10
10.2971583
20
11.9535533
40
0.1499139
50
331.6262486
51
356.8832887
0
ARC
8
DEFAULT_255_2_778
10
9.9929721
20
12.0909412
40
0.4834268
50
331.5922139
51
334.4330676
0
ARC
8
DEFAULT_255_2_778
10
10.2381217
20
11.8544124
40
0.1801837
50
2.0805237
51
56.0354791
0
ARC
8
DEFAULT_255_2_778
10
10.1090691
20
11.6544529
40
0.4181521
50
56.6766326
51
69.239101
0
ARC
8
DEFAULT_255_2_778
10
10.3246103
20
12.2522166
40
0.2174462
50
214.7660697
51
251.9654451
0
ARC
8
DEFAULT_255_2_778
10
10.3624712
20
12.2697364
40
0.2586387
50
204.4821971
51
213.1715326
0
ARC
8
DEFAULT_255_2_778
10
10.4519752
20
12.2760254
40
0.3441343
50
178.922231
51
199.252427
0
ARC
8
DEFAULT_255_2_778
10
10.7242397
20
12.2817147
40
0.6163384
50
177.3787326
51
179.9271438
0
ARC
8
DEFAULT_255_2_778
10
11.6166838
20
12.2313838
40
1.5101803
50
174.4855265
51
177.0196917
0
ARC
8
DEFAULT_255_2_778
10
9.0499839
20
12.4867689
40
1.0692094
50
354.0809145
51
359.1801253
0
ARC
8
DEFAULT_255_2_778
10
9.762534
20
12.4791432
40
0.3566325
50
358.7670737
51
23.4081701
0
ARC
8
DEFAULT_255_2_778
10
9.7558662
20
12.4704502
40
0.3662437
50
24.241803
51
37.1750521
0
ARC
8
DEFAULT_255_2_778
10
8.2971607
20
11.413524
40
2.1675361
50
36.1368292
51
37.581324
0
ARC
8
DEFAULT_255_2_778
10
9.4736349
20
12.3840678
40
0.6453403
50
32.9926333
51
71.9001747
0
ARC
8
DEFAULT_255_2_778
10
9.5997599
20
12.6629703
40
0.3426707
50
77.466159
51
88.7079561
0
ARC
8
DEFAULT_255_2_778
10
9.5977418
20
12.2372885
40
0.7683271
50
89.2732864
51
90.0010741
0
ARC
8
DEFAULT_255_2_778
10
9.5977167
20
12.2349909
40
0.7706247
50
89.9992079
51
108.6025237
0
ARC
8
DEFAULT_255_2_778
10
19.3733085
20
24.296961
40
15.0923209
50
227.7657492
51
227.7754013
0
ARC
8
DEFAULT_255_2_778
10
19.1701159
20
24.069269
40
14.7871586
50
227.7459053
51
227.7556679
0
ARC
8
DEFAULT_255_2_778
10
13.3283248
20
17.6387607
40
6.0993534
50
227.7216841
51
227.7451392
0
ARC
8
DEFAULT_255_2_778
10
18.7813346
20
23.6357393
40
14.2048495
50
227.7107289
51
227.7207097
0
ARC
8
DEFAULT_255_2_778
10
18.5954608
20
23.4295298
40
13.9272349
50
227.6954917
51
227.7055802
0
ARC
8
DEFAULT_255_2_778
10
13.1028364
20
17.3938952
40
5.7664868
50
227.669516
51
227.6936637
0
ARC
8
DEFAULT_255_2_778
10
13.0309607
20
17.3161428
40
5.660605
50
227.6529993
51
227.6773789
0
ARC
8
DEFAULT_255_2_778
10
12.9600979
20
17.2395168
40
5.5562378
50
227.6361843
51
227.6608002
0
ARC
8
DEFAULT_255_2_778
10
17.8785814
20
22.6317811
40
12.8547304
50
227.6226398
51
227.6331847
0
ARC
8
DEFAULT_255_2_778
10
16.8141235
20
21.465172
40
11.2754753
50
227.6108841
51
227.622799
0
ARC
8
DEFAULT_255_2_778
10
12.7559977
20
17.0197663
40
5.2563377
50
227.5892631
51
227.614595
0
ARC
8
DEFAULT_255_2_778
10
17.3899264
20
22.0934745
40
12.1277138
50
227.5809881
51
227.59187
0
ARC
8
DEFAULT_255_2_778
10
12.6262916
20
16.880441
40
5.0659906
50
227.5577405
51
227.5835602
0
ARC
8
DEFAULT_255_2_778
10
12.563639
20
16.8135984
40
4.9743829
50
227.544652
51
227.5707146
0
ARC
8
DEFAULT_255_2_778
10
16.1382385
20
20.7232304
40
10.2718336
50
227.5416777
51
227.5541877
0
ARC
8
DEFAULT_255_2_778
10
12.4417109
20
16.6835306
40
4.7961151
50
227.5171227
51
227.543679
0
ARC
8
DEFAULT_255_2_778
10
16.6399726
20
21.2703018
40
11.014143
50
227.5141724
51
227.5256345
0
ARC
8
DEFAULT_255_2_778
10
15.763198
20
20.3123148
40
9.7155004
50
227.4985836
51
227.5114635
0
ARC
8
DEFAULT_255_2_778
10
15.6444802
20
20.1840633
40
9.540739
50
227.4908568
51
227.5038574
0
ARC
8
DEFAULT_255_2_778
10
15.5261078
20
20.054292
40
9.3650903
50
227.4751158
51
227.488244
0
ARC
8
DEFAULT_255_2_778
10
15.4121459
20
19.9311052
40
9.1972757
50
227.4663812
51
227.4796318
0
ARC
8
DEFAULT_255_2_778
10
15.2997551
20
19.8096425
40
9.0317933
50
227.4574915
51
227.4708669
0
ARC
8
DEFAULT_255_2_778
10
15.1876586
20
19.6866637
40
8.8653928
50
227.4403613
51
227.4538686
0
ARC
8
DEFAULT_255_2_778
10
15.0797992
20
19.5700296
40
8.7065318
50
227.4304134
51
227.4440471
0
ARC
8
DEFAULT_255_2_778
10
14.9734204
20
19.4550229
40
8.5498707
50
227.4202898
51
227.4340523
0
ARC
8
DEFAULT_255_2_778
10
13.3131166
20
17.6493189
40
6.0968776
50
227.3988893
51
227.4275805
0
ARC
8
DEFAULT_255_2_778
10
15.4037877
20
19.9251598
40
9.1872428
50
227.3899821
51
227.4087741
0
ARC
8
DEFAULT_255_2_778
10
15.2380172
20
19.7465283
40
8.9435465
50
227.3777787
51
227.3968317
0
ARC
8
DEFAULT_255_2_778
10
15.0766456
20
19.5725958
40
8.7062863
50
227.3647942
51
227.3841123
0
ARC
8
DEFAULT_255_2_778
10
-31.4900512
20
-30.9979319
40
60.0384264
50
47.3596464
51
47.3624115
0
ARC
8
DEFAULT_255_2_778
10
21.5109531
20
26.5604416
40
18.2052496
50
227.3449962
51
227.3539969
0
ARC
8
DEFAULT_255_2_778
10
21.1759124
20
26.1939493
40
17.7086963
50
227.3296371
51
227.3387708
0
ARC
8
DEFAULT_255_2_778
10
-3.8969296
20
-0.8692188
40
19.1839904
50
47.0538742
51
47.7363084
0
ARC
8
DEFAULT_255_2_778
10
7.4134416
20
11.6137555
40
2.3392876
50
47.1234594
51
57.9225722
0
ARC
8
DEFAULT_255_2_778
10
7.6082588
20
11.8812003
40
2.0093451
50
58.5796825
51
65.6287888
0
ARC
8
DEFAULT_255_2_778
10
7.4942527
20
11.6414143
40
2.2748134
50
65.5053667
51
65.9563212
0
ARC
8
DEFAULT_255_2_778
10
7.0141
20
10.5811157
40
3.4387515
50
65.8481578
51
68.4049361
0
ARC
8
DEFAULT_255_2_778
10
7.5377117
20
11.9101651
40
2.0102794
50
68.3396455
51
73.0500049
0
ARC
8
DEFAULT_255_2_778
10
7.6912645
20
12.4037644
40
1.4933589
50
73.1643334
51
77.6867685
0
ARC
8
DEFAULT_255_2_778
10
7.6770073
20
12.2998848
40
1.5979104
50
77.9816481
51
87.158051
0
ARC
8
DEFAULT_255_2_778
10
7.5932542
20
10.8640706
40
3.0361368
50
86.9228956
51
90.0254565
0
ARC
8
DEFAULT_255_2_778
10
7.5800782
20
9.2990307
40
4.6011918
50
89.8527257
51
90.0003992
0
ARC
8
DEFAULT_255_2_778
10
7.5817741
20
8.4033536
40
5.4968692
50
90.0180107
51
90.6781922
0
ARC
8
DEFAULT_255_2_778
10
7.6086737
20
6.1117776
40
7.7886031
50
90.676527
51
91.1711187
0
ARC
8
DEFAULT_255_2_778
10
7.4227549
20
11.435873
40
2.4630259
50
89.3781452
51
104.4573756
0
ARC
8
DEFAULT_255_2_778
10
7.2527352
20
12.2594454
40
1.6236031
50
105.9035778
51
119.171396
0
ARC
8
DEFAULT_255_2_778
10
7.4115764
20
11.9813027
40
1.9438934
50
119.2633966
51
129.1170679
0
ARC
8
DEFAULT_255_2_778
10
7.656014
20
11.6667566
40
2.3421704
50
128.9017877
51
130.9910979
0
ARC
8
DEFAULT_255_2_778
10
7.6861266
20
11.6432435
40
2.3796817
50
131.1670071
51
134.0124516
0
ARC
8
DEFAULT_255_2_778
10
9.1011168
20
10.1695967
40
4.4226725
50
133.931271
51
135.5392805
0
ARC
8
DEFAULT_255_2_778
10
10.9410488
20
8.358661
40
7.0043057
50
135.5082356
51
136.5018336
0
ARC
8
DEFAULT_255_2_778
10
14.0018523
20
5.4595498
40
11.2201511
50
136.5214538
51
137.5726029
0
ARC
8
DEFAULT_255_2_778
10
19.2329569
20
0.6697217
40
18.3128859
50
137.5527785
51
138.1795658
0
ARC
8
DEFAULT_255_2_778
10
29.5469868
20
-8.5486145
40
32.1460671
50
138.1929707
51
138.7655783
0
ARC
8
DEFAULT_255_2_778
10
61.9812678
20
-36.989778
40
75.2840123
50
138.7583328
51
139.0131735
0
ARC
8
DEFAULT_255_2_778
10
144.054611
20
-108.4001308
40
184.0749581
50
138.9900987
51
139.0005868
0
ARC
8
DEFAULT_255_2_778
10
-122.5718494
20
123.1618094
40
169.0689622
50
318.8812837
51
319.0538147
0
ARC
8
DEFAULT_255_2_778
10
-20.9056111
20
34.4319873
40
34.1282179
50
318.3361418
51
318.8587827
0
ARC
8
DEFAULT_255_2_778
10
-7.6419299
20
22.6283956
40
16.3729366
50
317.5148556
51
318.3389721
0
ARC
8
DEFAULT_255_2_778
10
-2.0219719
20
17.4808237
40
8.7518196
50
316.4061575
51
317.5173142
0
ARC
8
DEFAULT_255_2_778
10
1.053473
20
14.5476549
40
4.5019003
50
314.5552694
51
316.4530957
0
ARC
8
DEFAULT_255_2_778
10
2.8139404
20
12.7552819
40
1.9895657
50
311.4093013
51
314.643397
0
ARC
8
DEFAULT_255_2_778
10
3.663706
20
11.7864304
40
0.7008686
50
305.2599319
51
311.6957266
0
ARC
8
DEFAULT_255_2_778
10
3.874442
20
11.4962379
40
0.3422896
50
303.6049113
51
304.4982138
0
ARC
8
DEFAULT_255_2_778
10
12.8514922
20
-2.0122064
40
15.8770043
50
123.6060897
51
123.6194428
0
ARC
8
DEFAULT_255_2_778
10
8.8740199
20
3.9705234
40
8.6927617
50
123.6214792
51
123.6455573
0
ARC
8
DEFAULT_255_2_778
10
10.6223156
20
1.3428762
40
11.8488775
50
123.6434551
51
123.6608953
0
ARC
8
DEFAULT_255_2_778
10
8.0249488
20
5.2429715
40
7.1630416
50
123.65976
51
123.6882438
0
ARC
8
DEFAULT_255_2_778
10
9.201598
20
3.4752394
40
9.2865714
50
123.6792206
51
123.700914
0
ARC
8
DEFAULT_255_2_778
10
11.5423638
20
-0.0344286
40
13.5052149
50
123.7010105
51
123.71574
0
ARC
8
DEFAULT_255_2_778
10
32.2236055
20
-31.0155137
40
50.7549315
50
123.7224329
51
123.7263032
0
ARC
8
DEFAULT_255_2_778
10
11.1079721
20
0.6165583
40
12.7226039
50
123.7312583
51
123.7465052
0
ARC
8
DEFAULT_255_2_778
10
10.9034779
20
0.9220828
40
12.3549587
50
123.7450548
51
123.7605601
0
ARC
8
DEFAULT_255_2_778
10
10.7088409
20
1.2120189
40
12.005751
50
123.7572648
51
123.7730232
0
ARC
8
DEFAULT_255_2_778
10
16.6995504
20
-7.7454522
40
22.7818768
50
123.7736731
51
123.781875
0
ARC
8
DEFAULT_255_2_778
10
-276.2500945
20
428.9983139
40
503.1122482
50
303.8442855
51
303.8552525
0
ARC
8
DEFAULT_255_2_778
10
2.0921446
20
13.890436
40
3.3233584
50
301.9172599
51
304.0324714
0
ARC
8
DEFAULT_255_2_778
10
3.2681302
20
12.0006979
40
1.097589
50
296.4546516
51
301.964348
0
ARC
8
DEFAULT_255_2_778
10
3.4535566
20
11.6319295
40
0.684832
50
278.7551901
51
296.3101298
0
ARC
8
DEFAULT_255_2_778
10
3.3739889
20
12.1241001
40
1.183385
50
272.7395157
51
278.9355816
0
ARC
8
DEFAULT_255_2_778
10
3.3150527
20
13.2228872
40
2.2837419
50
269.8427942
51
272.8988771
0
ARC
8
DEFAULT_255_2_778
10
3.3131554
20
11.4406593
40
0.5015245
50
255.6309492
51
269.5008907
0
ARC
8
DEFAULT_255_2_778
10
3.3699124
20
11.6696899
40
0.7374779
50
245.5356529
51
255.7751695
0
ARC
8
DEFAULT_255_2_778
10
3.4644312
20
11.8839207
40
0.9716214
50
239.0949847
51
245.6940384
0
ARC
8
DEFAULT_255_2_778
10
3.628457
20
12.1459072
40
1.2806724
50
224.9887841
51
238.81864
0
ARC
8
DEFAULT_255_2_778
10
3.7584474
20
12.2848162
40
1.4708254
50
206.8999343
51
225.2358995
0
ARC
8
DEFAULT_255_2_778
10
3.5791562
20
12.2013729
40
1.2731991
50
182.4136515
51
207.2015713
0
ARC
8
DEFAULT_255_2_778
10
55.4827056
20
14.0498003
40
53.2096254
50
181.9449692
51
182.0485478
0
ARC
8
DEFAULT_255_2_778
10
15.0241064
20
12.6818805
40
12.7279098
50
181.4049569
51
181.9720546
0
ARC
8
DEFAULT_255_2_778
10
7.8885995
20
12.5092648
40
5.5903162
50
180.077343
51
181.4294443
0
ARC
8
DEFAULT_255_2_778
10
5.3141552
20
12.5090588
40
3.0158758
50
177.1036535
51
180.1394532
0
ARC
8
DEFAULT_255_2_778
10
4.2224434
20
12.5655331
40
1.9227052
50
171.326985
51
177.1405683
0
ARC
8
DEFAULT_255_2_778
10
4.0081759
20
12.592707
40
1.7067989
50
162.0167628
51
171.1441222
0
ARC
8
DEFAULT_255_2_778
10
4.5694579
20
12.4101802
40
2.2970136
50
156.7013101
51
162.0087716
0
ARC
8
DEFAULT_255_2_778
10
5.6606914
20
11.9436907
40
3.4837723
50
153.4120614
51
156.7532775
0
ARC
8
DEFAULT_255_2_778
10
7.3173336
20
11.1192325
40
5.3342272
50
151.3725174
51
153.4571129
0
ARC
8
DEFAULT_255_2_778
10
9.8380566
20
9.7450473
40
8.2051901
50
149.8393209
51
151.3830992
0
ARC
8
DEFAULT_255_2_778
10
4.5312188
20
12.8340369
40
2.0648071
50
138.5003173
51
149.9643184
0
ARC
8
DEFAULT_255_2_778
10
4.5485094
20
12.8130241
40
2.0916849
50
124.5074707
51
138.383061
0
ARC
8
DEFAULT_255_2_778
10
4.7625887
20
12.4904925
40
2.4787547
50
111.1194164
51
124.3617091
0
ARC
8
DEFAULT_255_2_778
10
4.9226036
20
12.1134152
40
2.8881908
50
109.8150388
51
111.3852676
0
ARC
8
DEFAULT_255_2_778
10
5.0343691
20
11.7872015
40
3.2329815
50
103.4463013
51
109.718746
0
ARC
8
DEFAULT_255_2_778
10
5.1779525
20
11.1991565
40
3.8382963
50
99.4914825
51
103.4896972
0
ARC
8
DEFAULT_255_2_778
10
5.2655576
20
10.6906571
40
4.3542812
50
97.5334891
51
99.5250852
0
ARC
8
DEFAULT_255_2_778
10
4.983443
20
12.8330594
40
2.1933847
50
94.2018175
51
97.5648775
0
ARC
8
DEFAULT_255_2_778
10
4.977833
20
12.9059568
40
2.1202723
50
90.5111903
51
94.1949612
0
ARC
8
DEFAULT_255_2_778
10
4.9777377
20
12.9074935
40
2.1187349
50
89.9997914
51
90.508983
0
ARC
8
DEFAULT_255_2_778
10
4.9751258
20
12.7896358
40
2.2365942
50
83.7384854
51
89.9328935
0
ARC
8
DEFAULT_255_2_778
10
4.839759
20
11.6676206
40
3.366702
50
78.6869022
51
83.5311185
0
ARC
8
DEFAULT_255_2_778
10
3.5510704
20
4.9689552
40
10.1881384
50
78.371717
51
78.9705108
0
ARC
8
DEFAULT_255_2_778
10
7.520113
20
24.0840802
40
9.3347357
50
258.1586743
51
259.4271631
0
ARC
8
DEFAULT_255_2_778
10
6.2014929
20
16.9190397
40
2.0494754
50
258.9114565
51
269.2145517
0
ARC
8
DEFAULT_255_2_778
10
6.1764927
20
16.4639554
40
1.5942017
50
269.8887828
51
269.996189
0
ARC
8
DEFAULT_255_2_778
10
6.2148946
20
17.3489212
40
2.4794665
50
269.110119
51
280.8531287
0
ARC
8
DEFAULT_255_2_778
10
6.5017204
20
15.8731383
40
0.9760812
50
280.6290596
51
301.6722844
0
ARC
8
DEFAULT_255_2_778
10
6.7276428
20
15.4977066
40
0.5379634
50
302.1887933
51
340.4800089
0
ARC
8
DEFAULT_255_2_778
10
6.8229437
20
16.0177081
40
0.8119041
50
299.0224181
51
300.4730143
0
ARC
8
DEFAULT_255_2_778
10
7.0070428
20
15.6811263
40
0.428277
50
284.7952186
51
299.3316532
0
ARC
8
DEFAULT_255_2_778
10
6.955557
20
15.8906028
40
0.6439665
50
274.230245
51
284.4647498
0
ARC
8
DEFAULT_255_2_778
10
6.9143167
20
16.3553783
40
1.110539
50
269.8291136
51
274.583347
0
ARC
8
DEFAULT_255_2_778
10
6.9120887
20
16.7988541
40
1.5540101
50
267.9146463
51
269.9600259
0
ARC
8
DEFAULT_255_2_778
10
6.9212641
20
17.0782687
40
1.8335737
50
267.0933802
51
267.945834
0
ARC
8
DEFAULT_255_2_778
10
6.8717713
20
15.800026
40
0.5546793
50
247.4236559
51
265.5036251
0
ARC
8
DEFAULT_255_2_778
10
7.2394268
20
16.7301119
40
1.5547394
50
240.563596
51
248.0719569
0
ARC
8
DEFAULT_255_2_778
10
10.0355073
20
21.6975735
40
7.2550668
50
238.278452
51
240.612429
0
ARC
8
DEFAULT_255_2_778
10
-1.612306
20
2.6323601
40
15.0868323
50
58.7210538
51
59.1212777
0
ARC
8
DEFAULT_255_2_778
10
3.9319902
20
11.9556855
40
4.2396616
50
58.762906
51
63.2722228
0
ARC
8
DEFAULT_255_2_778
10
4.9530747
20
13.8702082
40
2.0710902
50
64.6811731
51
84.6936245
0
ARC
8
DEFAULT_255_2_778
10
4.5655027
20
10.6675459
40
5.2966305
50
83.7229929
51
88.2341408
0
ARC
8
DEFAULT_255_2_778
10
4.1884322
20
0.5939752
40
15.3771803
50
87.9864617
51
89.0086248
0
ARC
8
DEFAULT_255_2_778
10
4.3094731
20
8.4444317
40
7.5258194
50
88.8959102
51
89.8322651
0
ARC
8
DEFAULT_255_2_778
10
4.3135486
20
9.196517
40
6.7737256
50
89.8481148
51
89.9995317
0
ARC
8
DEFAULT_255_2_778
10
4.2972165
20
10.7456289
40
5.2246393
50
89.8202873
51
95.0651789
0
ARC
8
DEFAULT_255_2_778
10
4.176266
20
12.1128162
40
3.8521124
50
95.0685899
51
103.4014454
0
ARC
8
DEFAULT_255_2_778
10
4.0464857
20
12.6732865
40
3.2768262
50
103.4653558
51
113.4723623
0
ARC
8
DEFAULT_255_2_778
10
4.0010266
20
12.7872997
40
3.154143
50
113.5398422
51
116.6143029
0
ARC
8
DEFAULT_255_2_778
10
4.0003676
20
12.7887073
40
3.1525893
50
116.6150555
51
118.2169634
0
ARC
8
DEFAULT_255_2_778
10
4.9934258
20
10.8786305
40
5.3052829
50
117.9139214
51
123.9465672
0
ARC
8
DEFAULT_255_2_778
10
3.8155632
20
12.6002485
40
3.2193967
50
123.6667769
51
144.4095853
0
ARC
8
DEFAULT_255_2_778
10
4.4340079
20
12.1648839
40
3.9756955
50
144.4944557
51
151.2416961
0
ARC
8
DEFAULT_255_2_778
10
4.4099583
20
12.1610169
40
3.9565008
50
151.0250445
51
154.4684747
0
ARC
8
DEFAULT_255_2_778
10
3.8524202
20
12.4264403
40
3.3390079
50
154.4547671
51
159.210655
0
ARC
8
DEFAULT_255_2_778
10
3.5470774
20
12.5443828
40
3.0116843
50
159.2465564
51
163.1766641
0
ARC
8
DEFAULT_255_2_778
10
3.6637938
20
12.5227621
40
3.1296903
50
163.4162131
51
177.0765997
0
ARC
8
DEFAULT_255_2_778
10
5.0158557
20
12.4261386
40
4.4850051
50
176.7247555
51
180.0768336
0
ARC
8
DEFAULT_255_2_778
10
6.4848956
20
12.4256037
40
5.9540435
50
180.0527296
51
182.2424793
0
ARC
8
DEFAULT_255_2_778
10
8.2315341
20
12.4897543
40
7.7018556
50
182.2109211
51
183.3481278
0
ARC
8
DEFAULT_255_2_778
10
10.2460731
20
12.6074239
40
9.7198282
50
183.3470338
51
184.2827966
0
ARC
8
DEFAULT_255_2_778
10
4.9668519
20
12.1960352
40
4.4246553
50
184.0757211
51
191.6772391
0
ARC
8
DEFAULT_255_2_778
10
4.0857597
20
12.0152977
40
3.5252181
50
191.6989329
51
216.5479078
0
ARC
8
DEFAULT_255_2_778
10
5.0052738
20
12.6432486
40
4.6380599
50
216.0155228
51
219.2654682
0
ARC
8
DEFAULT_255_2_778
10
5.1771749
20
12.7792305
40
4.8572158
50
219.2239634
51
219.3002333
0
ARC
8
DEFAULT_255_2_778
10
4.3138802
20
12.0473279
40
3.7256417
50
218.9991666
51
226.3174164
0
ARC
8
DEFAULT_255_2_778
10
3.4268217
20
11.1039215
40
2.4307547
50
226.0799331
51
252.3723707
0
ARC
8
DEFAULT_255_2_778
10
3.7505585
20
12.0787191
40
3.4578431
50
252.1513592
51
259.4506777
0
ARC
8
DEFAULT_255_2_778
10
4.0235713
20
13.4747917
40
4.8803191
50
259.3003729
51
262.7441608
0
ARC
8
DEFAULT_255_2_778
10
-2.9863522
20
23.6813287
40
14.6197632
50
297.1131206
51
297.6663731
0
ARC
8
DEFAULT_255_2_778
10
-0.394296
20
18.7406265
40
9.0404005
50
297.6561161
51
298.5858077
0
ARC
8
DEFAULT_255_2_778
10
1.157789
20
15.8972008
40
5.8009516
50
298.5622819
51
300.2306483
0
ARC
8
DEFAULT_255_2_778
10
1.8112646
20
14.7675023
40
4.4958742
50
300.283874
51
300.9657352
0
ARC
8
DEFAULT_255_2_778
10
2.3650394
20
13.8601485
40
3.432919
50
300.8323545
51
305.3151373
0
ARC
8
DEFAULT_255_2_778
10
2.6109093
20
13.5032323
40
2.9995553
50
305.4239692
51
309.3483093
0
ARC
8
DEFAULT_255_2_778
10
2.2812287
20
13.8995445
40
3.5150561
50
309.4081122
51
313.1040495
0
ARC
8
DEFAULT_255_2_778
10
1.3068075
20
14.9437615
40
4.9433007
50
313.0796927
51
315.3446327
0
ARC
8
DEFAULT_255_2_778
10
-0.3905857
20
16.6246986
40
7.3321683
50
315.3232785
51
316.764333
0
ARC
8
DEFAULT_255_2_778
10
-2.1577911
20
18.2963076
40
9.7647084
50
316.7214942
51
317.1087065
0
ARC
8
DEFAULT_255_2_778
10
-1.1067765
20
17.3061777
40
8.3208006
50
317.1781465
51
319.3118851
0
ARC
8
DEFAULT_255_2_778
10
-17.1451136
20
31.0319961
40
29.4306488
50
319.405684
51
320.1201618
0
ARC
8
DEFAULT_255_2_778
10
21.8980468
20
-1.6764976
40
21.502837
50
139.6261364
51
139.9429181
0
ARC
8
DEFAULT_255_2_778
10
8.9991402
20
9.4178693
40
4.490425
50
129.6316928
51
140.8576333
0
ARC
8
DEFAULT_255_2_778
10
7.991024
20
10.5540235
40
2.9728268
50
121.4002306
51
128.6349257
0
ARC
8
DEFAULT_255_2_778
10
8.0474758
20
10.4619094
40
3.0808629
50
118.9246932
51
121.4037967
0
ARC
8
DEFAULT_255_2_778
10
8.3840421
20
9.8676557
40
3.7637777
50
115.4102874
51
119.0337686
0
ARC
8
DEFAULT_255_2_778
10
7.89106
20
10.9118929
40
2.6090261
50
109.4078244
51
115.4715408
0
ARC
8
DEFAULT_255_2_778
10
7.7316374
20
11.3472059
40
2.1454819
50
106.8951536
51
109.2552386
0
ARC
8
DEFAULT_255_2_778
10
7.6561656
20
11.6145887
40
1.8677141
50
89.8902745
51
107.0636584
0
ARC
8
DEFAULT_255_2_778
10
7.6567844
20
11.3074144
40
2.174887
50
84.3908955
51
89.9220723
0
ARC
8
DEFAULT_255_2_778
10
7.6109028
20
10.8341455
40
2.6503744
50
80.2624812
51
84.403778
0
ARC
8
DEFAULT_255_2_778
10
7.5530232
20
10.4741169
40
3.0150081
50
80.2138771
51
80.335601
0
ARC
8
DEFAULT_255_2_778
10
7.8407144
20
12.1076271
40
1.3563804
50
71.0345521
51
80.4612413
0
ARC
8
DEFAULT_255_2_778
10
7.8967779
20
12.2812309
40
1.1739851
50
56.4511166
51
70.868576
0
ARC
8
DEFAULT_255_2_778
10
7.4854929
20
11.6982087
40
1.8872925
50
45.9413298
51
55.8267857
0
ARC
8
DEFAULT_255_2_778
10
6.0997965
20
10.1804814
40
3.9420305
50
46.7539268
51
46.8079005
0
ARC
8
DEFAULT_255_2_778
10
6.0467023
20
10.1237803
40
4.0197092
50
46.7029681
51
46.756393
0
ARC
8
DEFAULT_255_2_778
10
5.5226254
20
9.567872
40
4.7837056
50
46.6556748
51
46.7006163
0
ARC
8
DEFAULT_255_2_778
10
5.5123013
20
9.5574446
40
4.7983751
50
46.6066363
51
46.6514843
0
ARC
8
DEFAULT_255_2_778
10
6.0668876
20
10.1443023
40
3.9909297
50
46.5504922
51
46.604042
0
ARC
8
DEFAULT_255_2_778
10
6.103018
20
10.181661
40
3.9389607
50
46.5044327
51
46.5583149
0
ARC
8
DEFAULT_255_2_778
10
4.8501728
20
8.8614392
40
5.7590175
50
46.4664222
51
46.5030217
0
ARC
8
DEFAULT_255_2_778
10
6.1739432
20
10.2545137
40
3.8372932
50
46.4144655
51
46.4690158
0
ARC
8
DEFAULT_255_2_778
10
4.9491557
20
8.9673956
40
5.6140255
50
46.3796465
51
46.4166758
0
ARC
8
DEFAULT_255_2_778
10
5.7282642
20
9.784501
40
4.4850122
50
46.337646
51
46.3836777
0
ARC
8
DEFAULT_255_2_778
10
5.0469672
20
9.0707511
40
5.4717261
50
46.2992697
51
46.3367408
0
ARC
8
DEFAULT_255_2_778
10
5.0952329
20
9.1211184
40
5.4019664
50
46.2625915
51
46.3002853
0
ARC
8
DEFAULT_255_2_778
10
3.9315241
20
7.9052452
40
7.0849892
50
46.2324402
51
46.2609822
0
ARC
8
DEFAULT_255_2_778
10
3.993035
20
7.97104
40
6.9949262
50
46.194783
51
46.2234936
0
ARC
8
DEFAULT_255_2_778
10
4.0545298
20
8.0359804
40
6.9054917
50
46.1611573
51
46.1900396
0
ARC
8
DEFAULT_255_2_778
10
1.9321416
20
5.827618
40
9.9683981
50
46.133953
51
46.1538233
0
ARC
8
DEFAULT_255_2_778
10
408.3552698
20
423.8079809
40
573.0303497
50
225.7974173
51
225.8201601
0
ARC
8
DEFAULT_255_2_778
10
12.0781457
20
16.0350864
40
4.4230346
50
225.9537498
51
228.748392
0
ARC
8
DEFAULT_255_2_778
10
11.3338701
20
15.1995375
40
3.3041118
50
228.8980239
51
229.4604316
0
ARC
8
DEFAULT_255_2_778
10
12.015682
20
11.1389074
40
3.2259699
50
150.3313874
51
151.2906892
0
ARC
8
DEFAULT_255_2_778
10
9.6637343
20
12.4755465
40
0.5207501
50
147.8474243
51
150.0272643
0
ARC
8
DEFAULT_255_2_778
10
9.4514217
20
12.6105433
40
0.2691601
50
139.2698731
51
148.1252715
0
ARC
8
DEFAULT_255_2_778
10
9.5226337
20
12.54217
40
0.3677762
50
129.622835
51
138.4368253
0
ARC
8
DEFAULT_255_2_778
10
9.857659
20
12.15398
40
0.8805015
50
128.7204427
51
130.3058108
0
ARC
8
DEFAULT_255_2_778
10
7.2002559
20
13.3056497
40
2.1572749
50
345.027003
51
347.5604922
0
ARC
8
DEFAULT_255_2_778
10
-8.7523308
20
17.4595706
40
18.6417741
50
345.3231782
51
345.3610497
0
ARC
8
DEFAULT_255_2_778
10
10.4737206
20
12.388279
40
1.242315
50
163.7282649
51
172.7687831
0
LINE
8
DEFAULT_255_2_778
10
12.3474866
20
8.4091538
11
12.4543866
21
8.0837538
0
LINE
8
DEFAULT_255_2_778
10
12.0257866
20
3.1804538
11
11.6870866
21
3.1132538
0
LINE
8
DEFAULT_255_2_778
10
10.9679866
20
-0.3315462
11
10.3858866
21
-0.2617462
0
LINE
8
DEFAULT_255_2_778
10
7.8564866
20
0.6595538
11
8.0352866
21
0.3790538
0
LINE
8
DEFAULT_255_2_778
10
5.3042866
20
6.3909538
11
5.1984866
21
7.0291538
0
LINE
8
DEFAULT_255_2_778
10
3.9336866
20
6.5253538
11
3.9755866
21
6.5396538
0
LINE
8
DEFAULT_255_2_778
10
10.2683866
20
6.9227538
11
10.2683866
21
6.9269538
0
LINE
8
DEFAULT_255_2_778
10
10.9949866
20
7.4418538
11
11.3801866
21
7.2037538
0
LINE
8
DEFAULT_255_2_778
10
11.2123866
20
7.1481538
11
10.8842866
21
7.3206538
0
LINE
8
DEFAULT_255_2_778
10
10.8842866
20
7.3206538
11
10.5297866
21
7.5662538
0
LINE
8
DEFAULT_255_2_778
10
9.1184866
20
7.1206538
11
9.1253866
21
7.1185538
0
LINE
8
DEFAULT_255_2_778
10
9.2777866
20
8.8076538
11
9.2777866
21
8.8028538
0
LINE
8
DEFAULT_255_2_778
10
8.1982866
20
6.5555538
11
7.8347866
21
6.4629538
0
LINE
8
DEFAULT_255_2_778
10
7.7209866
20
6.5539538
11
7.7209866
21
6.5539538
0
LINE
8
DEFAULT_255_2_778
10
10.0937866
20
9.4590538
11
9.7412866
21
10.0009538
0
LINE
8
DEFAULT_255_2_778
10
8.9025866
20
11.2291538
11
8.9084866
21
11.2291538
0
LINE
8
DEFAULT_255_2_778
10
8.3638866
20
9.9098538
11
8.3670866
21
9.9130538
0
LINE
8
DEFAULT_255_2_778
10
7.2050866
20
10.8057538
11
7.2007866
21
10.8057538
0
LINE
8
DEFAULT_255_2_778
10
11.2208866
20
9.6246538
11
11.3796866
21
9.3706538
0
LINE
8
DEFAULT_255_2_778
10
11.4722866
20
9.6865538
11
11.4774866
21
9.6871538
0
LINE
8
DEFAULT_255_2_778
10
14.4429866
20
10.8094538
11
14.7339866
21
10.5025538
0
LINE
8
DEFAULT_255_2_778
10
14.7339866
20
10.5025538
11
14.9689866
21
10.7920538
0
LINE
8
DEFAULT_255_2_778
10
14.9689866
20
10.7920538
11
15.3473866
21
10.7496538
0
LINE
8
DEFAULT_255_2_778
10
15.3473866
20
10.7496538
11
15.4256866
21
11.1730538
0
LINE
8
DEFAULT_255_2_778
10
15.4256866
20
11.1730538
11
15.7727866
21
11.2682538
0
LINE
8
DEFAULT_255_2_778
10
15.7727866
20
11.2682538
11
15.7161866
21
11.8376538
0
LINE
8
DEFAULT_255_2_778
10
15.7161866
20
11.8376538
11
15.9658866
21
12.0138538
0
LINE
8
DEFAULT_255_2_778
10
15.9658866
20
12.0138538
11
15.7780866
21
12.3684538
0
LINE
8
DEFAULT_255_2_778
10
15.7780866
20
12.3684538
11
15.9685866
21
12.7557538
0
LINE
8
DEFAULT_255_2_778
10
15.9685866
20
12.7557538
11
15.7198866
21
13.1986538
0
LINE
8
DEFAULT_255_2_778
10
15.7198866
20
13.1986538
11
15.8150866
21
13.6251538
0
LINE
8
DEFAULT_255_2_778
10
15.8150866
20
13.6251538
11
15.5272866
21
13.8685538
0
LINE
8
DEFAULT_255_2_778
10
15.5272866
20
13.8685538
11
15.4901866
21
14.3215538
0
LINE
8
DEFAULT_255_2_778
10
15.4901866
20
14.3215538
11
15.0879866
21
14.4739538
0
LINE
8
DEFAULT_255_2_778
10
15.0879866
20
14.4739538
11
14.9271866
21
14.8681538
0
LINE
8
DEFAULT_255_2_778
10
14.9271866
20
14.8681538
11
14.4757866
21
14.8734538
0
LINE
8
DEFAULT_255_2_778
10
14.4757866
20
14.8734538
11
14.2545866
21
15.1661538
0
LINE
8
DEFAULT_255_2_778
10
14.2545866
20
15.1661538
11
13.9508866
21
15.1449538
0
LINE
8
DEFAULT_255_2_778
10
13.9508866
20
15.1449538
11
13.6121866
21
15.1819538
0
LINE
8
DEFAULT_255_2_778
10
13.6121866
20
15.1819538
11
13.4205866
21
15.3227538
0
LINE
8
DEFAULT_255_2_778
10
13.4205866
20
15.3227538
11
13.1427866
21
15.1391538
0
LINE
8
DEFAULT_255_2_778
10
13.1427866
20
15.1391538
11
12.8062866
21
15.3137538
0
LINE
8
DEFAULT_255_2_778
10
12.8062866
20
15.3137538
11
12.1373866
21
15.0613538
0
LINE
8
DEFAULT_255_2_778
10
12.1373866
20
15.0613538
11
12.5734866
21
15.4386538
0
LINE
8
DEFAULT_255_2_778
10
12.5734866
20
15.4386538
11
13.0253866
21
15.5105538
0
LINE
8
DEFAULT_255_2_778
10
13.0253866
20
15.5105538
11
13.3713866
21
15.5984538
0
LINE
8
DEFAULT_255_2_778
10
13.3713866
20
15.5984538
11
13.8386866
21
15.4396538
0
LINE
8
DEFAULT_255_2_778
10
13.8386866
20
15.4396538
11
14.2498866
21
15.5434538
0
LINE
8
DEFAULT_255_2_778
10
14.2498866
20
15.5434538
11
14.6466866
21
15.3105538
0
LINE
8
DEFAULT_255_2_778
10
14.6466866
20
15.3105538
11
15.0663866
21
15.3338538
0
LINE
8
DEFAULT_255_2_778
10
15.0663866
20
15.3338538
11
15.2779866
21
14.9660538
0
LINE
8
DEFAULT_255_2_778
10
15.2779866
20
14.9660538
11
15.7013866
21
14.9131538
0
LINE
8
DEFAULT_255_2_778
10
15.7013866
20
14.9131538
11
15.9272866
21
14.5041538
0
LINE
8
DEFAULT_255_2_778
10
15.9272866
20
14.5041538
11
16.1902866
21
14.3612538
0
LINE
8
DEFAULT_255_2_778
10
16.1902866
20
14.3612538
11
16.2601866
21
13.8320538
0
LINE
8
DEFAULT_255_2_778
10
16.2601866
20
13.8320538
11
16.4940866
21
13.6114538
0
LINE
8
DEFAULT_255_2_778
10
16.4940866
20
13.6114538
11
16.3908866
21
13.1526538
0
LINE
8
DEFAULT_255_2_778
10
16.3908866
20
13.1526538
11
16.6659866
21
12.8054538
0
LINE
8
DEFAULT_255_2_778
10
16.6659866
20
12.8054538
11
16.4014866
21
12.4334538
0
LINE
8
DEFAULT_255_2_778
10
16.4014866
20
12.4334538
11
16.6776866
21
12.2006538
0
LINE
8
DEFAULT_255_2_778
10
16.6776866
20
12.2006538
11
16.3241866
21
11.8831538
0
LINE
8
DEFAULT_255_2_778
10
16.3241866
20
11.8831538
11
16.6818866
21
11.5127538
0
LINE
8
DEFAULT_255_2_778
10
16.6818866
20
11.5127538
11
16.2495866
21
11.3741538
0
LINE
8
DEFAULT_255_2_778
10
16.2495866
20
11.3741538
11
16.5310866
21
10.9761538
0
LINE
8
DEFAULT_255_2_778
10
16.5310866
20
10.9761538
11
16.1780866
21
10.9153538
0
LINE
8
DEFAULT_255_2_778
10
16.1780866
20
10.9153538
11
16.4098866
21
10.4776538
0
LINE
8
DEFAULT_255_2_778
10
16.4098866
20
10.4776538
11
16.0119866
21
10.4829538
0
LINE
8
DEFAULT_255_2_778
10
16.0119866
20
10.4829538
11
16.2130866
21
10.1549538
0
LINE
8
DEFAULT_255_2_778
10
16.2130866
20
10.1549538
11
15.7764866
21
10.2078538
0
LINE
8
DEFAULT_255_2_778
10
15.7764866
20
10.2078538
11
15.8806866
21
9.7315538
0
LINE
8
DEFAULT_255_2_778
10
15.8806866
20
9.7315538
11
15.5510866
21
10.0204538
0
LINE
8
DEFAULT_255_2_778
10
15.5510866
20
10.0204538
11
15.4377866
21
9.4489538
0
LINE
8
DEFAULT_255_2_778
10
15.4377866
20
9.4489538
11
15.2102866
21
9.8591538
0
LINE
8
DEFAULT_255_2_778
10
15.2102866
20
9.8591538
11
15.0869866
21
9.3473538
0
LINE
8
DEFAULT_255_2_778
10
15.0869866
20
9.3473538
11
14.8064866
21
9.7246538
0
LINE
8
DEFAULT_255_2_778
10
14.8064866
20
9.7246538
11
14.8139866
21
9.1881538
0
LINE
8
DEFAULT_255_2_778
10
14.8139866
20
9.1881538
11
14.5032866
21
9.6643538
0
LINE
8
DEFAULT_255_2_778
10
6.7710866
20
7.5873538
11
6.9578866
21
7.2328538
0
LINE
8
DEFAULT_255_2_778
10
6.5636866
20
7.8064538
11
6.4128866
21
8.2118538
0
LINE
8
DEFAULT_255_2_778
10
11.1737866
20
9.7850538
11
11.1472866
21
9.8088538
0
LINE
8
DEFAULT_255_2_778
10
12.1426866
20
9.0531538
11
12.2939866
21
8.6155538
0
LINE
8
DEFAULT_255_2_778
10
12.0119866
20
9.9051538
11
12.0257866
21
9.9130538
0
LINE
8
DEFAULT_255_2_778
10
11.7367866
20
8.8436538
11
12.0521866
21
8.3462538
0
LINE
8
DEFAULT_255_2_778
10
12.0521866
20
8.3462538
11
12.3358866
21
7.8096538
0
LINE
8
DEFAULT_255_2_778
10
12.2209866
20
8.4340538
11
12.0632866
21
8.9738538
0
LINE
8
DEFAULT_255_2_778
10
12.0632866
20
8.9738538
11
12.0627866
21
8.9796538
0
LINE
8
DEFAULT_255_2_778
10
9.3518866
20
12.9653538
11
9.2338866
21
13.1187538
0
LINE
8
DEFAULT_255_2_778
10
9.2338866
20
13.1187538
11
9.2306866
21
13.1208538
0
LINE
8
DEFAULT_255_2_778
10
3.4071866
20
8.6335538
11
3.6061866
21
9.5066538
0
LINE
8
DEFAULT_255_2_778
10
3.6061866
20
9.5066538
11
3.2516866
21
8.9997538
0
LINE
8
DEFAULT_255_2_778
10
3.2516866
20
8.9997538
11
3.2606866
21
9.5632538
0
LINE
8
DEFAULT_255_2_778
10
3.2606866
20
9.5632538
11
2.9393866
21
9.1664538
0
LINE
8
DEFAULT_255_2_778
10
2.9393866
20
9.1664538
11
2.7986866
21
9.7040538
0
LINE
8
DEFAULT_255_2_778
10
2.7986866
20
9.7040538
11
2.5382866
21
9.2733538
0
LINE
8
DEFAULT_255_2_778
10
2.5382866
20
9.2733538
11
2.4075866
21
9.8744538
0
LINE
8
DEFAULT_255_2_778
10
2.4075866
20
9.8744538
11
2.0308866
21
9.5712538
0
LINE
8
DEFAULT_255_2_778
10
2.0308866
20
9.5712538
11
2.1504866
21
10.0665538
0
LINE
8
DEFAULT_255_2_778
10
2.1504866
20
10.0665538
11
1.6508866
21
10.0120538
0
LINE
8
DEFAULT_255_2_778
10
1.6508866
20
10.0120538
11
1.8800866
21
10.3559538
0
LINE
8
DEFAULT_255_2_778
10
1.8800866
20
10.3559538
11
1.4249866
21
10.3506538
0
LINE
8
DEFAULT_255_2_778
10
1.4249866
20
10.3506538
11
1.6895866
21
10.8110538
0
LINE
8
DEFAULT_255_2_778
10
1.6895866
20
10.8110538
11
1.2857866
21
10.8745538
0
LINE
8
DEFAULT_255_2_778
10
1.2857866
20
10.8745538
11
1.6074866
21
11.2979538
0
LINE
8
DEFAULT_255_2_778
10
1.6074866
20
11.2979538
11
1.1132866
21
11.4434538
0
LINE
8
DEFAULT_255_2_778
10
1.1132866
20
11.4434538
11
1.5222866
21
11.8328538
0
LINE
8
DEFAULT_255_2_778
10
1.5222866
20
11.8328538
11
1.1185866
21
12.1609538
0
LINE
8
DEFAULT_255_2_778
10
1.1185866
20
12.1609538
11
1.4344866
21
12.4054538
0
LINE
8
DEFAULT_255_2_778
10
1.4344866
20
12.4054538
11
1.1391866
21
12.7970538
0
LINE
8
DEFAULT_255_2_778
10
1.1391866
20
12.7970538
11
1.4540866
21
13.1674538
0
LINE
8
DEFAULT_255_2_778
10
1.4540866
20
13.1674538
11
1.3365866
21
13.6436538
0
LINE
8
DEFAULT_255_2_778
10
1.3365866
20
13.6436538
11
1.6043866
21
13.8765538
0
LINE
8
DEFAULT_255_2_778
10
1.6043866
20
13.8765538
11
1.6836866
21
14.4268538
0
LINE
8
DEFAULT_255_2_778
10
1.6836866
20
14.4268538
11
1.9842866
21
14.5819538
0
LINE
8
DEFAULT_255_2_778
10
1.9842866
20
14.5819538
11
2.2424866
21
15.0115538
0
LINE
8
DEFAULT_255_2_778
10
2.2424866
20
15.0115538
11
2.7197866
21
15.0618538
0
LINE
8
DEFAULT_255_2_778
10
2.7197866
20
15.0618538
11
2.9552866
21
15.4481538
0
LINE
8
DEFAULT_255_2_778
10
2.9552866
20
15.4481538
11
3.4346866
21
15.4238538
0
LINE
8
DEFAULT_255_2_778
10
3.4346866
20
15.4238538
11
3.8881866
21
15.6688538
0
LINE
8
DEFAULT_255_2_778
10
3.8881866
20
15.6688538
11
4.3580866
21
15.5598538
0
LINE
8
DEFAULT_255_2_778
10
4.3580866
20
15.5598538
11
4.8872866
21
15.7201538
0
LINE
8
DEFAULT_255_2_778
10
4.8872866
20
15.7201538
11
5.2825866
21
15.6280538
0
LINE
8
DEFAULT_255_2_778
10
5.2825866
20
15.6280538
11
5.7984866
21
15.5524538
0
LINE
8
DEFAULT_255_2_778
10
5.7984866
20
15.5524538
11
6.2969866
21
15.1555538
0
LINE
8
DEFAULT_255_2_778
10
6.2969866
20
15.1555538
11
5.5349866
21
15.4095538
0
LINE
8
DEFAULT_255_2_778
10
5.5349866
20
15.4095538
11
5.1502866
21
15.2259538
0
LINE
8
DEFAULT_255_2_778
10
5.1502866
20
15.2259538
11
4.8327866
21
15.4190538
0
LINE
8
DEFAULT_255_2_778
10
4.8327866
20
15.4190538
11
4.6142866
21
15.2708538
0
LINE
8
DEFAULT_255_2_778
10
4.6142866
20
15.2708538
11
4.2268866
21
15.2322538
0
LINE
8
DEFAULT_255_2_778
10
4.2268866
20
15.2322538
11
3.8892866
21
15.2507538
0
LINE
8
DEFAULT_255_2_778
10
3.8892866
20
15.2507538
11
3.6363866
21
14.9438538
0
LINE
8
DEFAULT_255_2_778
10
3.6363866
20
14.9438538
11
3.1203866
21
14.9385538
0
LINE
8
DEFAULT_255_2_778
10
3.1203866
20
14.9385538
11
2.9362866
21
14.5242538
0
LINE
8
DEFAULT_255_2_778
10
2.9362866
20
14.5242538
11
2.4774866
21
14.3638538
0
LINE
8
DEFAULT_255_2_778
10
2.4774866
20
14.3638538
11
2.4350866
21
13.8876538
0
LINE
8
DEFAULT_255_2_778
10
2.4350866
20
13.8876538
11
2.1059866
21
13.6309538
0
LINE
8
DEFAULT_255_2_778
10
2.1059866
20
13.6309538
11
2.2154866
21
13.1833538
0
LINE
8
DEFAULT_255_2_778
10
2.2154866
20
13.1833538
11
1.9313866
21
12.7176538
0
LINE
8
DEFAULT_255_2_778
10
1.9313866
20
12.7176538
11
2.1493866
21
12.3102538
0
LINE
8
DEFAULT_255_2_778
10
2.1493866
20
12.3102538
11
1.9350866
21
11.9376538
0
LINE
8
DEFAULT_255_2_778
10
1.9350866
20
11.9376538
11
2.2207866
21
11.7524538
0
LINE
8
DEFAULT_255_2_778
10
2.2207866
20
11.7524538
11
2.1562866
21
11.1544538
0
LINE
8
DEFAULT_255_2_778
10
2.1562866
20
11.1544538
11
2.5531866
21
11.0550538
0
LINE
8
DEFAULT_255_2_778
10
2.5531866
20
11.0550538
11
2.6430866
21
10.6105538
0
LINE
8
DEFAULT_255_2_778
10
2.6430866
20
10.6105538
11
3.0753866
21
10.6549538
0
LINE
8
DEFAULT_255_2_778
10
3.0753866
20
10.6549538
11
3.3442866
21
10.3506538
0
LINE
8
DEFAULT_255_2_778
10
3.3442866
20
10.3506538
11
3.6765866
21
10.6681538
0
LINE
8
DEFAULT_255_2_778
10
9.2412866
20
12.5446538
11
9.2412866
21
12.5499538
0
ENDSEC
0
EOF