0
SECTION
2
HEADER
9
$MEASUREMENT
70
1
0
ENDSEC
0
SECTION
2
TABLES
0
TABLE
2
LTYPE
0
LTYPE
72
65
70
64
2
CONTINUOUS
3
______
73
0
40
0
0
ENDTAB
0
TABLE
2
LAYER
0
LAYER
2
DEFAULT_255_2_778
70
0
62
255
6
CONTINUOUS
0
ENDTAB
0
ENDSEC
0
SECTION
2
ENTITIES
0
ARC
8
DEFAULT_255_2_778
10
12.1270006
20
68.5438245
40
1.6051366
50
36.1132764
51
62.3894665
0
ARC
8
DEFAULT_255_2_778
10
12.2657111
20
70.8001868
40
1.0304678
50
305.9663795
51
359.3649484
0
ARC
8
DEFAULT_255_2_778
10
12.2714106
20
70.7932836
40
1.0247149
50
359.7473844
51
33.2868904
0
ARC
8
DEFAULT_255_2_778
10
12.3072748
20
70.8173215
40
0.9815422
50
33.2629166
51
87.3595768
0
ARC
8
DEFAULT_255_2_778
10
12.304269
20
70.7818384
40
1.0171271
50
87.28252
51
90.0030133
0
ARC
8
DEFAULT_255_2_778
10
12.1742854
20
68.5952901
40
1.5605249
50
272.6749795
51
293.9144751
0
ARC
8
DEFAULT_255_2_778
10
12.1852217
20
68.5401333
40
1.5057208
50
294.3848685
51
356.0949582
0
ARC
8
DEFAULT_255_2_778
10
12.0621094
20
68.5660548
40
1.6304062
50
355.4807719
51
0.0074099
0
ARC
8
DEFAULT_255_2_778
10
11.6577816
20
68.5661695
40
2.0347339
50
0.0027081
51
0.1218598
0
ARC
8
DEFAULT_255_2_778
10
12.0891144
20
68.5932922
40
1.6035587
50
359.1854918
51
23.6446703
0
ARC
8
DEFAULT_255_2_778
10
12.5553222
20
68.7704319
40
1.1057208
50
24.9251909
51
30.4722202
0
ARC
8
DEFAULT_255_2_778
10
8.3006021
20
68.5438264
40
1.6051342
50
36.1132537
51
62.3894843
0
ARC
8
DEFAULT_255_2_778
10
8.4393111
20
70.8001868
40
1.0304678
50
305.9663795
51
359.3649484
0
ARC
8
DEFAULT_255_2_778
10
8.4450106
20
70.7932836
40
1.0247149
50
359.7473844
51
33.2868904
0
ARC
8
DEFAULT_255_2_778
10
8.4808748
20
70.8173215
40
0.9815422
50
33.2629166
51
87.3595768
0
ARC
8
DEFAULT_255_2_778
10
8.477869
20
70.7818384
40
1.0171271
50
87.28252
51
90.0030133
0
ARC
8
DEFAULT_255_2_778
10
8.3481013
20
68.5954215
40
1.5606555
50
272.674174
51
293.9133805
0
ARC
8
DEFAULT_255_2_778
10
8.3591011
20
68.5400589
40
1.5056372
50
294.3847224
51
356.097582
0
ARC
8
DEFAULT_255_2_778
10
8.2356521
20
68.5660548
40
1.6306635
50
355.4814854
51
0.0074077
0
ARC
8
DEFAULT_255_2_778
10
7.8315816
20
68.5661695
40
2.0347339
50
0.0027081
51
0.1218598
0
ARC
8
DEFAULT_255_2_778
10
8.2619503
20
68.593238
40
1.6045218
50
359.1879176
51
23.6317295
0
ARC
8
DEFAULT_255_2_778
10
8.7283029
20
68.7703369
40
1.1065614
50
24.9103875
51
30.4523184
0
LINE
8
DEFAULT_255_2_778
10
2.2646155
20
9.6218656
11
22.1083155
21
9.6218656
0
LINE
8
DEFAULT_255_2_778
10
22.1083155
20
9.6218656
11
22.1083155
21
1.6843656
0
LINE
8
DEFAULT_255_2_778
10
22.1083155
20
1.6843656
11
2.2646155
21
1.6843656
0
LINE
8
DEFAULT_255_2_778
10
2.2646155
20
1.6843656
11
2.2646155
21
9.6218656
0
LINE
8
DEFAULT_255_2_778
10
5.3033155
20
69.4898656
11
4.4956155
21
71.7989656
0
LINE
8
DEFAULT_255_2_778
10
4.4956155
20
71.7989656
11
3.8862155
21
71.7989656
0
LINE
8
DEFAULT_255_2_778
10
3.8862155
20
71.7989656
11
3.8862155
21
69.4898656
0
LINE
8
DEFAULT_255_2_778
10
3.8862155
20
69.4898656
11
5.3033155
21
69.4898656
0
LINE
8
DEFAULT_255_2_778
10
3.8862155
20
68.0465656
11
4.6374155
21
68.0465656
0
LINE
8
DEFAULT_255_2_778
10
4.6374155
20
68.0465656
11
4.9774155
21
67.0364656
0
LINE
8
DEFAULT_255_2_778
10
4.9774155
20
67.0364656
11
6.1537155
21
67.0364656
0
LINE
8
DEFAULT_255_2_778
10
6.1537155
20
67.0364656
11
5.3459155
21
69.3454656
0
LINE
8
DEFAULT_255_2_778
10
5.3459155
20
69.3454656
11
3.8862155
21
69.3454656
0
LINE
8
DEFAULT_255_2_778
10
3.8862155
20
69.3454656
11
3.8862155
21
68.0465656
0
LINE
8
DEFAULT_255_2_778
10
3.7444155
20
71.7989656
11
3.1351155
21
71.7989656
0
LINE
8
DEFAULT_255_2_778
10
3.1351155
20
71.7989656
11
2.3273155
21
69.4898656
0
LINE
8
DEFAULT_255_2_778
10
2.3273155
20
69.4898656
11
3.7444155
21
69.4898656
0
LINE
8
DEFAULT_255_2_778
10
3.7444155
20
69.4898656
11
3.7444155
21
71.7989656
0
LINE
8
DEFAULT_255_2_778
10
2.2847155
20
69.3454656
11
1.4769155
21
67.0364656
0
LINE
8
DEFAULT_255_2_778
10
1.4769155
20
67.0364656
11
2.6533155
21
67.0364656
0
LINE
8
DEFAULT_255_2_778
10
2.6533155
20
67.0364656
11
2.9933155
21
68.0465656
0
LINE
8
DEFAULT_255_2_778
10
2.9933155
20
68.0465656
11
3.7444155
21
68.0465656
0
LINE
8
DEFAULT_255_2_778
10
3.7444155
20
68.0465656
11
3.7444155
21
69.3454656
0
LINE
8
DEFAULT_255_2_778
10
3.7444155
20
69.3454656
11
2.2847155
21
69.3454656
0
LINE
8
DEFAULT_255_2_778
10
10.4050155
20
71.7989656
11
11.8221155
21
71.7989656
0
LINE
8
DEFAULT_255_2_778
10
11.8221155
20
71.7989656
11
11.8221155
21
69.4898656
0
LINE
8
DEFAULT_255_2_778
10
11.8221155
20
69.4898656
11
10.4050155
21
69.4898656
0
LINE
8
DEFAULT_255_2_778
10
10.4050155
20
69.4898656
11
10.4050155
21
71.7989656
0
LINE
8
DEFAULT_255_2_778
10
12.3042155
20
71.7989656
11
11.9640155
21
71.7989656
0
LINE
8
DEFAULT_255_2_778
10
11.9640155
20
71.7989656
11
11.9640155
21
69.4898656
0
LINE
8
DEFAULT_255_2_778
10
11.9640155
20
69.4898656
11
13.4237155
21
69.4898656
0
LINE
8
DEFAULT_255_2_778
10
13.4237155
20
69.4898656
11
13.4237155
21
69.4898656
0
LINE
8
DEFAULT_255_2_778
10
10.4050155
20
69.3456656
11
11.8221155
21
69.3456656
0
LINE
8
DEFAULT_255_2_778
10
11.8221155
20
69.3456656
11
11.8221155
21
67.0364656
0
LINE
8
DEFAULT_255_2_778
10
11.8221155
20
67.0364656
11
10.4050155
21
67.0364656
0
LINE
8
DEFAULT_255_2_778
10
10.4050155
20
67.0364656
11
10.4050155
21
69.3456656
0
LINE
8
DEFAULT_255_2_778
10
11.9637155
20
67.0364656
11
12.2471155
21
67.0364656
0
LINE
8
DEFAULT_255_2_778
10
13.5083155
20
69.3311656
11
11.9637155
21
69.3311656
0
LINE
8
DEFAULT_255_2_778
10
11.9637155
20
69.3311656
11
11.9637155
21
67.0364656
0
LINE
8
DEFAULT_255_2_778
10
11.9637155
20
67.0364656
11
11.9637155
21
67.0364656
0
LINE
8
DEFAULT_255_2_778
10
6.5786155
20
71.7989656
11
7.9957155
21
71.7989656
0
LINE
8
DEFAULT_255_2_778
10
7.9957155
20
71.7989656
11
7.9957155
21
69.4898656
0
LINE
8
DEFAULT_255_2_778
10
7.9957155
20
69.4898656
11
6.5786155
21
69.4898656
0
LINE
8
DEFAULT_255_2_778
10
6.5786155
20
69.4898656
11
6.5786155
21
71.7989656
0
LINE
8
DEFAULT_255_2_778
10
8.4778155
20
71.7989656
11
8.1378155
21
71.7989656
0
LINE
8
DEFAULT_255_2_778
10
8.1378155
20
71.7989656
11
8.1378155
21
69.4898656
0
LINE
8
DEFAULT_255_2_778
10
8.1378155
20
69.4898656
11
9.5975155
21
69.4898656
0
LINE
8
DEFAULT_255_2_778
10
9.5975155
20
69.4898656
11
9.5973155
21
69.4898656
0
LINE
8
DEFAULT_255_2_778
10
6.5786155
20
69.3456656
11
7.9957155
21
69.3456656
0
LINE
8
DEFAULT_255_2_778
10
7.9957155
20
69.3456656
11
7.9957155
21
67.0364656
0
LINE
8
DEFAULT_255_2_778
10
7.9957155
20
67.0364656
11
6.5786155
21
67.0364656
0
LINE
8
DEFAULT_255_2_778
10
6.5786155
20
67.0364656
11
6.5786155
21
69.3456656
0
LINE
8
DEFAULT_255_2_778
10
8.1376155
20
67.0364656
11
8.4209155
21
67.0364656
0
LINE
8
DEFAULT_255_2_778
10
9.6822155
20
69.3311656
11
8.1376155
21
69.3311656
0
LINE
8
DEFAULT_255_2_778
10
8.1376155
20
69.3311656
11
8.1376155
21
67.0364656
0
LINE
8
DEFAULT_255_2_778
10
8.1376155
20
67.0364656
11
8.1376155
21
67.0364656
0
LINE
8
DEFAULT_255_2_778
10
2.9261155
20
63.8614656
11
65.1031155
21
63.8614656
0
LINE
8
DEFAULT_255_2_778
10
65.1031155
20
63.8614656
11
65.1031155
21
14.9134656
0
LINE
8
DEFAULT_255_2_778
10
65.1031155
20
14.9134656
11
2.9261155
21
14.9134656
0
LINE
8
DEFAULT_255_2_778
10
2.9261155
20
14.9134656
11
2.9261155
21
63.8614656
0
LINE
8
DEFAULT_255_2_778
10
0.2490155
20
72.4603656
11
67.7177155
21
72.4603656
0
LINE
8
DEFAULT_255_2_778
10
67.7490155
20
66.6929656
11
67.7490155
21
72.6955656
0
LINE
8
DEFAULT_255_2_778
10
0.2802155
20
72.6955656
11
0.2802155
21
75.7676656
0
LINE
8
DEFAULT_255_2_778
10
0.2802155
20
75.7676656
11
67.7490155
21
75.7676656
0
LINE
8
DEFAULT_255_2_778
10
67.7490155
20
75.7676656
11
67.7490155
21
72.6955656
0
LINE
8
DEFAULT_255_2_778
10
0.2802155
20
66.6930304
11
0.2802155
21
72.6956304
0
LINE
8
DEFAULT_255_2_778
10
0.2490155
20
66.5073304
11
67.7177155
21
66.5073304
0
LINE
8
DEFAULT_255_2_778
10
67.7490155
20
11.8197304
11
67.7490155
21
66.6930304
0
LINE
8
DEFAULT_255_2_778
10
0.2802259
20
11.819747
11
0.2802259
21
66.693047
0
LINE
8
DEFAULT_255_2_778
10
0.2802259
20
12.267747
11
67.7489259
21
12.267747
0
LINE
8
DEFAULT_255_2_778
10
0.2802259
20
11.820047
11
0.2802259
21
-0.232253
0
LINE
8
DEFAULT_255_2_778
10
0.2802259
20
-0.232253
11
67.7489259
21
-0.232253
0
LINE
8
DEFAULT_255_2_778
10
67.7489259
20
-0.232253
11
67.7489259
21
11.820047
0
LINE
8
DEFAULT_255_2_778
10
22.1083259
20
59.892747
11
33.3531259
21
59.892747
0
LINE
8
DEFAULT_255_2_778
10
33.3531259
20
59.892747
11
33.3531259
21
55.923947
0
LINE
8
DEFAULT_255_2_778
10
33.3531259
20
55.923947
11
22.1083259
21
55.923947
0
LINE
8
DEFAULT_255_2_778
10
22.1083259
20
55.923947
11
22.1083259
21
59.892747
0
LINE
8
DEFAULT_255_2_778
10
22.1082918
20
55.9239749
11
31.3686918
21
55.9239749
0
LINE
8
DEFAULT_255_2_778
10
31.3686918
20
55.9239749
11
31.3686918
21
51.9552749
0
LINE
8
DEFAULT_255_2_778
10
31.3686918
20
51.9552749
11
22.1082918
21
51.9552749
0
LINE
8
DEFAULT_255_2_778
10
22.1082918
20
51.9552749
11
22.1082918
21
55.9239749
0
LINE
8
DEFAULT_255_2_778
10
22.1083043
20
51.9551749
11
33.3531043
21
51.9551749
0
LINE
8
DEFAULT_255_2_778
10
33.3531043
20
51.9551749
11
33.3531043
21
47.9864749
0
LINE
8
DEFAULT_255_2_778
10
33.3531043
20
47.9864749
11
22.1083043
21
47.9864749
0
LINE
8
DEFAULT_255_2_778
10
22.1083043
20
47.9864749
11
22.1083043
21
51.9551749
0
LINE
8
DEFAULT_255_2_778
10
22.1082918
20
47.9864749
11
31.3686918
21
47.9864749
0
LINE
8
DEFAULT_255_2_778
10
31.3686918
20
47.9864749
11
31.3686918
21
44.0177749
0
LINE
8
DEFAULT_255_2_778
10
31.3686918
20
44.0177749
11
22.1082918
21
44.0177749
0
LINE
8
DEFAULT_255_2_778
10
22.1082918
20
44.0177749
11
22.1082918
21
47.9864749
0
LINE
8
DEFAULT_255_2_778
10
22.1083043
20
44.0176749
11
33.3531043
21
44.0176749
0
LINE
8
DEFAULT_255_2_778
10
33.3531043
20
44.0176749
11
33.3531043
21
40.0489749
0
LINE
8
DEFAULT_255_2_778
10
33.3531043
20
40.0489749
11
22.1083043
21
40.0489749
0
LINE
8
DEFAULT_255_2_778
10
22.1083043
20
40.0489749
11
22.1083043
21
44.0176749
0
LINE
8
DEFAULT_255_2_778
10
22.1082918
20
40.0489749
11
31.3686918
21
40.0489749
0
LINE
8
DEFAULT_255_2_778
10
31.3686918
20
40.0489749
11
31.3686918
21
36.0802749
0
LINE
8
DEFAULT_255_2_778
10
31.3686918
20
36.0802749
11
22.1082918
21
36.0802749
0
LINE
8
DEFAULT_255_2_778
10
22.1082918
20
36.0802749
11
22.1082918
21
40.0489749
0
LINE
8
DEFAULT_255_2_778
10
22.1083043
20
36.0801749
11
33.3531043
21
36.0801749
0
LINE
8
DEFAULT_255_2_778
10
33.3531043
20
36.0801749
11
33.3531043
21
32.1114749
0
LINE
8
DEFAULT_255_2_778
10
33.3531043
20
32.1114749
11
22.1083043
21
32.1114749
0
LINE
8
DEFAULT_255_2_778
10
22.1083043
20
32.1114749
11
22.1083043
21
36.0801749
0
LINE
8
DEFAULT_255_2_778
10
22.1082918
20
32.1114749
11
31.3686918
21
32.1114749
0
LINE
8
DEFAULT_255_2_778
10
31.3686918
20
32.1114749
11
31.3686918
21
28.1427749
0
LINE
8
DEFAULT_255_2_778
10
31.3686918
20
28.1427749
11
22.1082918
21
28.1427749
0
LINE
8
DEFAULT_255_2_778
10
22.1082918
20
28.1427749
11
22.1082918
21
32.1114749
0
LINE
8
DEFAULT_255_2_778
10
22.1082918
20
28.1426749
11
31.3686918
21
28.1426749
0
LINE
8
DEFAULT_255_2_778
10
31.3686918
20
28.1426749
11
31.3686918
21
24.1739749
0
LINE
8
DEFAULT_255_2_778
10
31.3686918
20
24.1739749
11
22.1082918
21
24.1739749
0
LINE
8
DEFAULT_255_2_778
10
22.1082918
20
24.1739749
11
22.1082918
21
28.1426749
0
LINE
8
DEFAULT_255_2_778
10
22.1082918
20
24.1739749
11
31.3686918
21
24.1739749
0
LINE
8
DEFAULT_255_2_778
10
31.3686918
20
24.1739749
11
31.3686918
21
20.2052749
0
LINE
8
DEFAULT_255_2_778
10
31.3686918
20
20.2052749
11
22.1082918
21
20.2052749
0
LINE
8
DEFAULT_255_2_778
10
22.1082918
20
20.2052749
11
22.1082918
21
24.1739749
0
LINE
8
DEFAULT_255_2_778
10
32.2934636
20
58.5697583
11
33.0885636
21
58.5697583
0
LINE
8
DEFAULT_255_2_778
10
33.0885636
20
58.5697583
11
33.0885636
21
57.2468583
0
LINE
8
DEFAULT_255_2_778
10
33.0885636
20
57.2468583
11
32.2934636
21
57.2468583
0
LINE
8
DEFAULT_255_2_778
10
32.2934636
20
57.2468583
11
32.2934636
21
58.5697583
0
LINE
8
DEFAULT_255_2_778
10
32.2934636
20
54.4687041
11
33.0885636
21
54.4687041
0
LINE
8
DEFAULT_255_2_778
10
33.0885636
20
54.4687041
11
33.0885636
21
53.0135041
0
LINE
8
DEFAULT_255_2_778
10
33.0885636
20
53.0135041
11
32.2934636
21
53.0135041
0
LINE
8
DEFAULT_255_2_778
10
32.2934636
20
53.0135041
11
32.2934636
21
54.4687041
0
LINE
8
DEFAULT_255_2_778
10
32.2934636
20
50.6322812
11
33.0885636
21
50.6322812
0
LINE
8
DEFAULT_255_2_778
10
33.0885636
20
50.6322812
11
33.0885636
21
49.3066812
0
LINE
8
DEFAULT_255_2_778
10
33.0885636
20
49.3066812
11
32.2934636
21
49.3066812
0
LINE
8
DEFAULT_255_2_778
10
32.2934636
20
49.3066812
11
32.2934636
21
50.6322812
0
LINE
8
DEFAULT_255_2_778
10
32.2934636
20
46.6635583
11
33.0885636
21
46.6635583
0
LINE
8
DEFAULT_255_2_778
10
33.0885636
20
46.6635583
11
33.0885636
21
45.3406583
0
LINE
8
DEFAULT_255_2_778
10
33.0885636
20
45.3406583
11
32.2934636
21
45.3406583
0
LINE
8
DEFAULT_255_2_778
10
32.2934636
20
45.3406583
11
32.2934636
21
46.6635583
0
LINE
8
DEFAULT_255_2_778
10
32.2934636
20
42.4301583
11
33.0885636
21
42.4301583
0
LINE
8
DEFAULT_255_2_778
10
33.0885636
20
42.4301583
11
33.0885636
21
41.1072583
0
LINE
8
DEFAULT_255_2_778
10
33.0885636
20
41.1072583
11
32.2934636
21
41.1072583
0
LINE
8
DEFAULT_255_2_778
10
32.2934636
20
41.1072583
11
32.2934636
21
42.4301583
0
LINE
8
DEFAULT_255_2_778
10
32.2934636
20
38.7259812
11
33.0885636
21
38.7259812
0
LINE
8
DEFAULT_255_2_778
10
33.0885636
20
38.7259812
11
33.0885636
21
37.4003812
0
LINE
8
DEFAULT_255_2_778
10
33.0885636
20
37.4003812
11
32.2934636
21
37.4003812
0
LINE
8
DEFAULT_255_2_778
10
32.2934636
20
37.4003812
11
32.2934636
21
38.7259812
0
LINE
8
DEFAULT_255_2_778
10
32.2934636
20
34.7572583
11
33.0885636
21
34.7572583
0
LINE
8
DEFAULT_255_2_778
10
33.0885636
20
34.7572583
11
33.0885636
21
33.4343583
0
LINE
8
DEFAULT_255_2_778
10
33.0885636
20
33.4343583
11
32.2934636
21
33.4343583
0
LINE
8
DEFAULT_255_2_778
10
32.2934636
20
33.4343583
11
32.2934636
21
34.7572583
0
LINE
8
DEFAULT_255_2_778
10
32.2934636
20
30.5239854
11
33.0885636
21
30.5239854
0
LINE
8
DEFAULT_255_2_778
10
33.0885636
20
30.5239854
11
33.0885636
21
29.2671854
0
LINE
8
DEFAULT_255_2_778
10
33.0885636
20
29.2671854
11
32.2934636
21
29.2671854
0
LINE
8
DEFAULT_255_2_778
10
32.2934636
20
29.2671854
11
32.2934636
21
30.5239854
0
LINE
8
DEFAULT_255_2_778
10
32.2934636
20
26.8197812
11
33.0885636
21
26.8197812
0
LINE
8
DEFAULT_255_2_778
10
33.0885636
20
26.8197812
11
33.0885636
21
25.4941812
0
LINE
8
DEFAULT_255_2_778
10
33.0885636
20
25.4941812
11
32.2934636
21
25.4941812
0
LINE
8
DEFAULT_255_2_778
10
32.2934636
20
25.4941812
11
32.2934636
21
26.8197812
0
LINE
8
DEFAULT_255_2_778
10
32.2934636
20
22.8510583
11
33.0885636
21
22.8510583
0
LINE
8
DEFAULT_255_2_778
10
33.0885636
20
22.8510583
11
33.0885636
21
21.5281583
0
LINE
8
DEFAULT_255_2_778
10
33.0885636
20
21.5281583
11
32.2934636
21
21.5281583
0
LINE
8
DEFAULT_255_2_778
10
32.2934636
20
21.5281583
11
32.2934636
21
22.8510583
0
LINE
8
DEFAULT_255_2_778
10
49.8896043
20
59.8926749
11
61.1344043
21
59.8926749
0
LINE
8
DEFAULT_255_2_778
10
61.1344043
20
59.8926749
11
61.1344043
21
55.9239749
0
LINE
8
DEFAULT_255_2_778
10
61.1344043
20
55.9239749
11
49.8896043
21
55.9239749
0
LINE
8
DEFAULT_255_2_778
10
49.8896043
20
55.9239749
11
49.8896043
21
59.8926749
0
LINE
8
DEFAULT_255_2_778
10
49.8895918
20
55.9239749
11
59.1499918
21
55.9239749
0
LINE
8
DEFAULT_255_2_778
10
59.1499918
20
55.9239749
11
59.1499918
21
51.9552749
0
LINE
8
DEFAULT_255_2_778
10
59.1499918
20
51.9552749
11
49.8895918
21
51.9552749
0
LINE
8
DEFAULT_255_2_778
10
49.8895918
20
51.9552749
11
49.8895918
21
55.9239749
0
LINE
8
DEFAULT_255_2_778
10
49.8896043
20
51.9551749
11
61.1344043
21
51.9551749
0
LINE
8
DEFAULT_255_2_778
10
61.1344043
20
51.9551749
11
61.1344043
21
47.9864749
0
LINE
8
DEFAULT_255_2_778
10
61.1344043
20
47.9864749
11
49.8896043
21
47.9864749
0
LINE
8
DEFAULT_255_2_778
10
49.8896043
20
47.9864749
11
49.8896043
21
51.9551749
0
LINE
8
DEFAULT_255_2_778
10
49.8895918
20
47.9864749
11
59.1499918
21
47.9864749
0
LINE
8
DEFAULT_255_2_778
10
59.1499918
20
47.9864749
11
59.1499918
21
44.0177749
0
LINE
8
DEFAULT_255_2_778
10
59.1499918
20
44.0177749
11
49.8895918
21
44.0177749
0
LINE
8
DEFAULT_255_2_778
10
49.8895918
20
44.0177749
11
49.8895918
21
47.9864749
0
LINE
8
DEFAULT_255_2_778
10
49.8896043
20
44.0176749
11
61.1344043
21
44.0176749
0
LINE
8
DEFAULT_255_2_778
10
61.1344043
20
44.0176749
11
61.1344043
21
40.0489749
0
LINE
8
DEFAULT_255_2_778
10
61.1344043
20
40.0489749
11
49.8896043
21
40.0489749
0
LINE
8
DEFAULT_255_2_778
10
49.8896043
20
40.0489749
11
49.8896043
21
44.0176749
0
LINE
8
DEFAULT_255_2_778
10
49.8895918
20
40.0489749
11
59.1499918
21
40.0489749
0
LINE
8
DEFAULT_255_2_778
10
59.1499918
20
40.0489749
11
59.1499918
21
36.0802749
0
LINE
8
DEFAULT_255_2_778
10
59.1499918
20
36.0802749
11
49.8895918
21
36.0802749
0
LINE
8
DEFAULT_255_2_778
10
49.8895918
20
36.0802749
11
49.8895918
21
40.0489749
0
LINE
8
DEFAULT_255_2_778
10
49.8896043
20
36.0801749
11
61.1344043
21
36.0801749
0
LINE
8
DEFAULT_255_2_778
10
61.1344043
20
36.0801749
11
61.1344043
21
32.1114749
0
LINE
8
DEFAULT_255_2_778
10
61.1344043
20
32.1114749
11
49.8896043
21
32.1114749
0
LINE
8
DEFAULT_255_2_778
10
49.8896043
20
32.1114749
11
49.8896043
21
36.0801749
0
LINE
8
DEFAULT_255_2_778
10
49.8895918
20
32.1114749
11
59.1499918
21
32.1114749
0
LINE
8
DEFAULT_255_2_778
10
59.1499918
20
32.1114749
11
59.1499918
21
28.1427749
0
LINE
8
DEFAULT_255_2_778
10
59.1499918
20
28.1427749
11
49.8895918
21
28.1427749
0
LINE
8
DEFAULT_255_2_778
10
49.8895918
20
28.1427749
11
49.8895918
21
32.1114749
0
LINE
8
DEFAULT_255_2_778
10
49.8895918
20
28.1426749
11
59.1499918
21
28.1426749
0
LINE
8
DEFAULT_255_2_778
10
59.1499918
20
28.1426749
11
59.1499918
21
24.1739749
0
LINE
8
DEFAULT_255_2_778
10
59.1499918
20
24.1739749
11
49.8895918
21
24.1739749
0
LINE
8
DEFAULT_255_2_778
10
49.8895918
20
24.1739749
11
49.8895918
21
28.1426749
0
LINE
8
DEFAULT_255_2_778
10
49.8895918
20
24.1739749
11
59.1499918
21
24.1739749
0
LINE
8
DEFAULT_255_2_778
10
59.1499918
20
24.1739749
11
59.1499918
21
20.2052749
0
LINE
8
DEFAULT_255_2_778
10
59.1499918
20
20.2052749
11
49.8895918
21
20.2052749
0
LINE
8
DEFAULT_255_2_778
10
49.8895918
20
20.2052749
11
49.8895918
21
24.1739749
0
LINE
8
DEFAULT_255_2_778
10
60.0746636
20
58.5697583
11
60.8697636
21
58.5697583
0
LINE
8
DEFAULT_255_2_778
10
60.8697636
20
58.5697583
11
60.8697636
21
57.2468583
0
LINE
8
DEFAULT_255_2_778
10
60.8697636
20
57.2468583
11
60.0746636
21
57.2468583
0
LINE
8
DEFAULT_255_2_778
10
60.0746636
20
57.2468583
11
60.0746636
21
58.5697583
0
LINE
8
DEFAULT_255_2_778
10
60.0746768
20
54.4687041
11
60.8696768
21
54.4687041
0
LINE
8
DEFAULT_255_2_778
10
60.8696768
20
54.4687041
11
60.8696768
21
53.0135041
0
LINE
8
DEFAULT_255_2_778
10
60.8696768
20
53.0135041
11
60.0746768
21
53.0135041
0
LINE
8
DEFAULT_255_2_778
10
60.0746768
20
53.0135041
11
60.0746768
21
54.4687041
0
LINE
8
DEFAULT_255_2_778
10
60.0746636
20
50.6322812
11
60.8697636
21
50.6322812
0
LINE
8
DEFAULT_255_2_778
10
60.8697636
20
50.6322812
11
60.8697636
21
49.3066812
0
LINE
8
DEFAULT_255_2_778
10
60.8697636
20
49.3066812
11
60.0746636
21
49.3066812
0
LINE
8
DEFAULT_255_2_778
10
60.0746636
20
49.3066812
11
60.0746636
21
50.6322812
0
LINE
8
DEFAULT_255_2_778
10
60.0746636
20
46.6635583
11
60.8697636
21
46.6635583
0
LINE
8
DEFAULT_255_2_778
10
60.8697636
20
46.6635583
11
60.8697636
21
45.3406583
0
LINE
8
DEFAULT_255_2_778
10
60.8697636
20
45.3406583
11
60.0746636
21
45.3406583
0
LINE
8
DEFAULT_255_2_778
10
60.0746636
20
45.3406583
11
60.0746636
21
46.6635583
0
LINE
8
DEFAULT_255_2_778
10
60.0746636
20
42.4301583
11
60.8697636
21
42.4301583
0
LINE
8
DEFAULT_255_2_778
10
60.8697636
20
42.4301583
11
60.8697636
21
41.1072583
0
LINE
8
DEFAULT_255_2_778
10
60.8697636
20
41.1072583
11
60.0746636
21
41.1072583
0
LINE
8
DEFAULT_255_2_778
10
60.0746636
20
41.1072583
11
60.0746636
21
42.4301583
0
LINE
8
DEFAULT_255_2_778
10
60.0746636
20
38.7259812
11
60.8697636
21
38.7259812
0
LINE
8
DEFAULT_255_2_778
10
60.8697636
20
38.7259812
11
60.8697636
21
37.4003812
0
LINE
8
DEFAULT_255_2_778
10
60.8697636
20
37.4003812
11
60.0746636
21
37.4003812
0
LINE
8
DEFAULT_255_2_778
10
60.0746636
20
37.4003812
11
60.0746636
21
38.7259812
0
LINE
8
DEFAULT_255_2_778
10
60.0746636
20
34.7572583
11
60.8697636
21
34.7572583
0
LINE
8
DEFAULT_255_2_778
10
60.8697636
20
34.7572583
11
60.8697636
21
33.4343583
0
LINE
8
DEFAULT_255_2_778
10
60.8697636
20
33.4343583
11
60.0746636
21
33.4343583
0
LINE
8
DEFAULT_255_2_778
10
60.0746636
20
33.4343583
11
60.0746636
21
34.7572583
0
LINE
8
DEFAULT_255_2_778
10
60.0746768
20
30.5239854
11
60.8696768
21
30.5239854
0
LINE
8
DEFAULT_255_2_778
10
60.8696768
20
30.5239854
11
60.8696768
21
29.2671854
0
LINE
8
DEFAULT_255_2_778
10
60.8696768
20
29.2671854
11
60.0746768
21
29.2671854
0
LINE
8
DEFAULT_255_2_778
10
60.0746768
20
29.2671854
11
60.0746768
21
30.5239854
0
LINE
8
DEFAULT_255_2_778
10
60.0746636
20
26.8197812
11
60.8697636
21
26.8197812
0
LINE
8
DEFAULT_255_2_778
10
60.8697636
20
26.8197812
11
60.8697636
21
25.4941812
0
LINE
8
DEFAULT_255_2_778
10
60.8697636
20
25.4941812
11
60.0746636
21
25.4941812
0
LINE
8
DEFAULT_255_2_778
10
60.0746636
20
25.4941812
11
60.0746636
21
26.8197812
0
LINE
8
DEFAULT_255_2_778
10
60.0746636
20
22.8510583
11
60.8697636
21
22.8510583
0
LINE
8
DEFAULT_255_2_778
10
60.8697636
20
22.8510583
11
60.8697636
21
21.5281583
0
LINE
8
DEFAULT_255_2_778
10
60.8697636
20
21.5281583
11
60.0746636
21
21.5281583
0
LINE
8
DEFAULT_255_2_778
10
60.0746636
20
21.5281583
11
60.0746636
21
22.8510583
0
LINE
8
DEFAULT_255_2_778
10
7.5562626
20
59.8926749
11
17.4781626
21
59.8926749
0
LINE
8
DEFAULT_255_2_778
10
17.4781626
20
59.8926749
11
17.4781626
21
55.9239749
0
LINE
8
DEFAULT_255_2_778
10
17.4781626
20
55.9239749
11
7.5562626
21
55.9239749
0
LINE
8
DEFAULT_255_2_778
10
7.5562626
20
55.9239749
11
7.5562626
21
59.8926749
0
LINE
8
DEFAULT_255_2_778
10
7.5562626
20
55.9239749
11
17.4781626
21
55.9239749
0
LINE
8
DEFAULT_255_2_778
10
17.4781626
20
55.9239749
11
17.4781626
21
51.9552749
0
LINE
8
DEFAULT_255_2_778
10
17.4781626
20
51.9552749
11
7.5562626
21
51.9552749
0
LINE
8
DEFAULT_255_2_778
10
7.5562626
20
51.9552749
11
7.5562626
21
55.9239749
0
LINE
8
DEFAULT_255_2_778
10
7.5562626
20
51.9551749
11
17.4781626
21
51.9551749
0
LINE
8
DEFAULT_255_2_778
10
17.4781626
20
51.9551749
11
17.4781626
21
47.9864749
0
LINE
8
DEFAULT_255_2_778
10
17.4781626
20
47.9864749
11
7.5562626
21
47.9864749
0
LINE
8
DEFAULT_255_2_778
10
7.5562626
20
47.9864749
11
7.5562626
21
51.9551749
0
LINE
8
DEFAULT_255_2_778
10
7.5562626
20
47.9864749
11
17.4781626
21
47.9864749
0
LINE
8
DEFAULT_255_2_778
10
17.4781626
20
47.9864749
11
17.4781626
21
44.0177749
0
LINE
8
DEFAULT_255_2_778
10
17.4781626
20
44.0177749
11
7.5562626
21
44.0177749
0
LINE
8
DEFAULT_255_2_778
10
7.5562626
20
44.0177749
11
7.5562626
21
47.9864749
0
LINE
8
DEFAULT_255_2_778
10
7.5562626
20
44.0176749
11
17.4781626
21
44.0176749
0
LINE
8
DEFAULT_255_2_778
10
17.4781626
20
44.0176749
11
17.4781626
21
40.0489749
0
LINE
8
DEFAULT_255_2_778
10
17.4781626
20
40.0489749
11
7.5562626
21
40.0489749
0
LINE
8
DEFAULT_255_2_778
10
7.5562626
20
40.0489749
11
7.5562626
21
44.0176749
0
LINE
8
DEFAULT_255_2_778
10
7.5562626
20
40.0489749
11
17.4781626
21
40.0489749
0
LINE
8
DEFAULT_255_2_778
10
17.4781626
20
40.0489749
11
17.4781626
21
36.0802749
0
LINE
8
DEFAULT_255_2_778
10
17.4781626
20
36.0802749
11
7.5562626
21
36.0802749
0
LINE
8
DEFAULT_255_2_778
10
7.5562626
20
36.0802749
11
7.5562626
21
40.0489749
0
LINE
8
DEFAULT_255_2_778
10
7.5562626
20
36.0801749
11
17.4781626
21
36.0801749
0
LINE
8
DEFAULT_255_2_778
10
17.4781626
20
36.0801749
11
17.4781626
21
32.1114749
0
LINE
8
DEFAULT_255_2_778
10
17.4781626
20
32.1114749
11
7.5562626
21
32.1114749
0
LINE
8
DEFAULT_255_2_778
10
7.5562626
20
32.1114749
11
7.5562626
21
36.0801749
0
LINE
8
DEFAULT_255_2_778
10
7.5562626
20
32.1114749
11
17.4781626
21
32.1114749
0
LINE
8
DEFAULT_255_2_778
10
17.4781626
20
32.1114749
11
17.4781626
21
28.1427749
0
LINE
8
DEFAULT_255_2_778
10
17.4781626
20
28.1427749
11
7.5562626
21
28.1427749
0
LINE
8
DEFAULT_255_2_778
10
7.5562626
20
28.1427749
11
7.5562626
21
32.1114749
0
LINE
8
DEFAULT_255_2_778
10
7.5562752
20
28.1426749
11
19.4624752
21
28.1426749
0
LINE
8
DEFAULT_255_2_778
10
19.4624752
20
28.1426749
11
19.4624752
21
24.1739749
0
LINE
8
DEFAULT_255_2_778
10
19.4624752
20
24.1739749
11
7.5562752
21
24.1739749
0
LINE
8
DEFAULT_255_2_778
10
7.5562752
20
24.1739749
11
7.5562752
21
28.1426749
0
LINE
8
DEFAULT_255_2_778
10
7.5562626
20
24.1739749
11
17.4781626
21
24.1739749
0
LINE
8
DEFAULT_255_2_778
10
17.4781626
20
24.1739749
11
17.4781626
21
20.2052749
0
LINE
8
DEFAULT_255_2_778
10
17.4781626
20
20.2052749
11
7.5562626
21
20.2052749
0
LINE
8
DEFAULT_255_2_778
10
7.5562626
20
20.2052749
11
7.5562626
21
24.1739749
0
LINE
8
DEFAULT_255_2_778
10
18.4028636
20
58.7020583
11
19.1979636
21
58.7020583
0
LINE
8
DEFAULT_255_2_778
10
19.1979636
20
58.7020583
11
19.1979636
21
57.3791583
0
LINE
8
DEFAULT_255_2_778
10
19.1979636
20
57.3791583
11
18.4028636
21
57.3791583
0
LINE
8
DEFAULT_255_2_778
10
18.4028636
20
57.3791583
11
18.4028636
21
58.7020583
0
LINE
8
DEFAULT_255_2_778
10
18.4028636
20
54.6010041
11
19.1979636
21
54.6010041
0
LINE
8
DEFAULT_255_2_778
10
19.1979636
20
54.6010041
11
19.1979636
21
53.1458041
0
LINE
8
DEFAULT_255_2_778
10
19.1979636
20
53.1458041
11
18.4028636
21
53.1458041
0
LINE
8
DEFAULT_255_2_778
10
18.4028636
20
53.1458041
11
18.4028636
21
54.6010041
0
LINE
8
DEFAULT_255_2_778
10
18.4028636
20
50.7645812
11
19.1979636
21
50.7645812
0
LINE
8
DEFAULT_255_2_778
10
19.1979636
20
50.7645812
11
19.1979636
21
49.4389812
0
LINE
8
DEFAULT_255_2_778
10
19.1979636
20
49.4389812
11
18.4028636
21
49.4389812
0
LINE
8
DEFAULT_255_2_778
10
18.4028636
20
49.4389812
11
18.4028636
21
50.7645812
0
LINE
8
DEFAULT_255_2_778
10
18.4028636
20
46.7958583
11
19.1979636
21
46.7958583
0
LINE
8
DEFAULT_255_2_778
10
19.1979636
20
46.7958583
11
19.1979636
21
45.4729583
0
LINE
8
DEFAULT_255_2_778
10
19.1979636
20
45.4729583
11
18.4028636
21
45.4729583
0
LINE
8
DEFAULT_255_2_778
10
18.4028636
20
45.4729583
11
18.4028636
21
46.7958583
0
LINE
8
DEFAULT_255_2_778
10
18.4028636
20
42.5624583
11
19.1979636
21
42.5624583
0
LINE
8
DEFAULT_255_2_778
10
19.1979636
20
42.5624583
11
19.1979636
21
41.2395583
0
LINE
8
DEFAULT_255_2_778
10
19.1979636
20
41.2395583
11
18.4028636
21
41.2395583
0
LINE
8
DEFAULT_255_2_778
10
18.4028636
20
41.2395583
11
18.4028636
21
42.5624583
0
LINE
8
DEFAULT_255_2_778
10
18.4028636
20
38.8582812
11
19.1979636
21
38.8582812
0
LINE
8
DEFAULT_255_2_778
10
19.1979636
20
38.8582812
11
19.1979636
21
37.5326812
0
LINE
8
DEFAULT_255_2_778
10
19.1979636
20
37.5326812
11
18.4028636
21
37.5326812
0
LINE
8
DEFAULT_255_2_778
10
18.4028636
20
37.5326812
11
18.4028636
21
38.8582812
0
LINE
8
DEFAULT_255_2_778
10
18.4028636
20
34.8895583
11
19.1979636
21
34.8895583
0
LINE
8
DEFAULT_255_2_778
10
19.1979636
20
34.8895583
11
19.1979636
21
33.5666583
0
LINE
8
DEFAULT_255_2_778
10
19.1979636
20
33.5666583
11
18.4028636
21
33.5666583
0
LINE
8
DEFAULT_255_2_778
10
18.4028636
20
33.5666583
11
18.4028636
21
34.8895583
0
LINE
8
DEFAULT_255_2_778
10
18.4028636
20
30.6562854
11
19.1979636
21
30.6562854
0
LINE
8
DEFAULT_255_2_778
10
19.1979636
20
30.6562854
11
19.1979636
21
29.3994854
0
LINE
8
DEFAULT_255_2_778
10
19.1979636
20
29.3994854
11
18.4028636
21
29.3994854
0
LINE
8
DEFAULT_255_2_778
10
18.4028636
20
29.3994854
11
18.4028636
21
30.6562854
0
LINE
8
DEFAULT_255_2_778
10
18.4028636
20
26.9520812
11
19.1979636
21
26.9520812
0
LINE
8
DEFAULT_255_2_778
10
19.1979636
20
26.9520812
11
19.1979636
21
25.6264812
0
LINE
8
DEFAULT_255_2_778
10
19.1979636
20
25.6264812
11
18.4028636
21
25.6264812
0
LINE
8
DEFAULT_255_2_778
10
18.4028636
20
25.6264812
11
18.4028636
21
26.9520812
0
LINE
8
DEFAULT_255_2_778
10
18.4028636
20
22.9833583
11
19.1979636
21
22.9833583
0
LINE
8
DEFAULT_255_2_778
10
19.1979636
20
22.9833583
11
19.1979636
21
21.6604583
0
LINE
8
DEFAULT_255_2_778
10
19.1979636
20
21.6604583
11
18.4028636
21
21.6604583
0
LINE
8
DEFAULT_255_2_778
10
18.4028636
20
21.6604583
11
18.4028636
21
22.9833583
0
LINE
8
DEFAULT_255_2_778
10
36.6603626
20
59.8926749
11
46.5822626
21
59.8926749
0
LINE
8
DEFAULT_255_2_778
10
46.5822626
20
59.8926749
11
46.5822626
21
55.9239749
0
LINE
8
DEFAULT_255_2_778
10
46.5822626
20
55.9239749
11
36.6603626
21
55.9239749
0
LINE
8
DEFAULT_255_2_778
10
36.6603626
20
55.9239749
11
36.6603626
21
59.8926749
0
LINE
8
DEFAULT_255_2_778
10
36.6603626
20
55.9239749
11
46.5822626
21
55.9239749
0
LINE
8
DEFAULT_255_2_778
10
46.5822626
20
55.9239749
11
46.5822626
21
51.9552749
0
LINE
8
DEFAULT_255_2_778
10
46.5822626
20
51.9552749
11
36.6603626
21
51.9552749
0
LINE
8
DEFAULT_255_2_778
10
36.6603626
20
51.9552749
11
36.6603626
21
55.9239749
0
LINE
8
DEFAULT_255_2_778
10
36.6603626
20
51.9551749
11
46.5822626
21
51.9551749
0
LINE
8
DEFAULT_255_2_778
10
46.5822626
20
51.9551749
11
46.5822626
21
47.9864749
0
LINE
8
DEFAULT_255_2_778
10
46.5822626
20
47.9864749
11
36.6603626
21
47.9864749
0
LINE
8
DEFAULT_255_2_778
10
36.6603626
20
47.9864749
11
36.6603626
21
51.9551749
0
LINE
8
DEFAULT_255_2_778
10
36.6603626
20
47.9864749
11
46.5822626
21
47.9864749
0
LINE
8
DEFAULT_255_2_778
10
46.5822626
20
47.9864749
11
46.5822626
21
44.0177749
0
LINE
8
DEFAULT_255_2_778
10
46.5822626
20
44.0177749
11
36.6603626
21
44.0177749
0
LINE
8
DEFAULT_255_2_778
10
36.6603626
20
44.0177749
11
36.6603626
21
47.9864749
0
LINE
8
DEFAULT_255_2_778
10
36.6603626
20
44.0176749
11
46.5822626
21
44.0176749
0
LINE
8
DEFAULT_255_2_778
10
46.5822626
20
44.0176749
11
46.5822626
21
40.0489749
0
LINE
8
DEFAULT_255_2_778
10
46.5822626
20
40.0489749
11
36.6603626
21
40.0489749
0
LINE
8
DEFAULT_255_2_778
10
36.6603626
20
40.0489749
11
36.6603626
21
44.0176749
0
LINE
8
DEFAULT_255_2_778
10
36.6603626
20
40.0489749
11
46.5822626
21
40.0489749
0
LINE
8
DEFAULT_255_2_778
10
46.5822626
20
40.0489749
11
46.5822626
21
36.0802749
0
LINE
8
DEFAULT_255_2_778
10
46.5822626
20
36.0802749
11
36.6603626
21
36.0802749
0
LINE
8
DEFAULT_255_2_778
10
36.6603626
20
36.0802749
11
36.6603626
21
40.0489749
0
LINE
8
DEFAULT_255_2_778
10
36.6603626
20
36.0801749
11
46.5822626
21
36.0801749
0
LINE
8
DEFAULT_255_2_778
10
46.5822626
20
36.0801749
11
46.5822626
21
32.1114749
0
LINE
8
DEFAULT_255_2_778
10
46.5822626
20
32.1114749
11
36.6603626
21
32.1114749
0
LINE
8
DEFAULT_255_2_778
10
36.6603626
20
32.1114749
11
36.6603626
21
36.0801749
0
LINE
8
DEFAULT_255_2_778
10
36.6603626
20
32.1114749
11
46.5822626
21
32.1114749
0
LINE
8
DEFAULT_255_2_778
10
46.5822626
20
32.1114749
11
46.5822626
21
28.1427749
0
LINE
8
DEFAULT_255_2_778
10
46.5822626
20
28.1427749
11
36.6603626
21
28.1427749
0
LINE
8
DEFAULT_255_2_778
10
36.6603626
20
28.1427749
11
36.6603626
21
32.1114749
0
LINE
8
DEFAULT_255_2_778
10
36.6603626
20
28.1426749
11
46.5822626
21
28.1426749
0
LINE
8
DEFAULT_255_2_778
10
46.5822626
20
28.1426749
11
46.5822626
21
24.1739749
0
LINE
8
DEFAULT_255_2_778
10
46.5822626
20
24.1739749
11
36.6603626
21
24.1739749
0
LINE
8
DEFAULT_255_2_778
10
36.6603626
20
24.1739749
11
36.6603626
21
28.1426749
0
LINE
8
DEFAULT_255_2_778
10
36.6603626
20
24.1739749
11
46.5822626
21
24.1739749
0
LINE
8
DEFAULT_255_2_778
10
46.5822626
20
24.1739749
11
46.5822626
21
20.2052749
0
LINE
8
DEFAULT_255_2_778
10
46.5822626
20
20.2052749
11
36.6603626
21
20.2052749
0
LINE
8
DEFAULT_255_2_778
10
36.6603626
20
20.2052749
11
36.6603626
21
24.1739749
0
LINE
8
DEFAULT_255_2_778
10
47.5069636
20
58.5697583
11
48.3020636
21
58.5697583
0
LINE
8
DEFAULT_255_2_778
10
48.3020636
20
58.5697583
11
48.3020636
21
57.2468583
0
LINE
8
DEFAULT_255_2_778
10
48.3020636
20
57.2468583
11
47.5069636
21
57.2468583
0
LINE
8
DEFAULT_255_2_778
10
47.5069636
20
57.2468583
11
47.5069636
21
58.5697583
0
LINE
8
DEFAULT_255_2_778
10
47.5069768
20
54.4687041
11
48.3019768
21
54.4687041
0
LINE
8
DEFAULT_255_2_778
10
48.3019768
20
54.4687041
11
48.3019768
21
53.0135041
0
LINE
8
DEFAULT_255_2_778
10
48.3019768
20
53.0135041
11
47.5069768
21
53.0135041
0
LINE
8
DEFAULT_255_2_778
10
47.5069768
20
53.0135041
11
47.5069768
21
54.4687041
0
LINE
8
DEFAULT_255_2_778
10
47.5069636
20
50.6322812
11
48.3020636
21
50.6322812
0
LINE
8
DEFAULT_255_2_778
10
48.3020636
20
50.6322812
11
48.3020636
21
49.3066812
0
LINE
8
DEFAULT_255_2_778
10
48.3020636
20
49.3066812
11
47.5069636
21
49.3066812
0
LINE
8
DEFAULT_255_2_778
10
47.5069636
20
49.3066812
11
47.5069636
21
50.6322812
0
LINE
8
DEFAULT_255_2_778
10
47.5069636
20
46.6635583
11
48.3020636
21
46.6635583
0
LINE
8
DEFAULT_255_2_778
10
48.3020636
20
46.6635583
11
48.3020636
21
45.3406583
0
LINE
8
DEFAULT_255_2_778
10
48.3020636
20
45.3406583
11
47.5069636
21
45.3406583
0
LINE
8
DEFAULT_255_2_778
10
47.5069636
20
45.3406583
11
47.5069636
21
46.6635583
0
LINE
8
DEFAULT_255_2_778
10
47.5069636
20
42.4301583
11
48.3020636
21
42.4301583
0
LINE
8
DEFAULT_255_2_778
10
48.3020636
20
42.4301583
11
48.3020636
21
41.1072583
0
LINE
8
DEFAULT_255_2_778
10
48.3020636
20
41.1072583
11
47.5069636
21
41.1072583
0
LINE
8
DEFAULT_255_2_778
10
47.5069636
20
41.1072583
11
47.5069636
21
42.4301583
0
LINE
8
DEFAULT_255_2_778
10
47.5069636
20
38.7259812
11
48.3020636
21
38.7259812
0
LINE
8
DEFAULT_255_2_778
10
48.3020636
20
38.7259812
11
48.3020636
21
37.4003812
0
LINE
8
DEFAULT_255_2_778
10
48.3020636
20
37.4003812
11
47.5069636
21
37.4003812
0
LINE
8
DEFAULT_255_2_778
10
47.5069636
20
37.4003812
11
47.5069636
21
38.7259812
0
LINE
8
DEFAULT_255_2_778
10
47.5069636
20
34.7572583
11
48.3020636
21
34.7572583
0
LINE
8
DEFAULT_255_2_778
10
48.3020636
20
34.7572583
11
48.3020636
21
33.4343583
0
LINE
8
DEFAULT_255_2_778
10
48.3020636
20
33.4343583
11
47.5069636
21
33.4343583
0
LINE
8
DEFAULT_255_2_778
10
47.5069636
20
33.4343583
11
47.5069636
21
34.7572583
0
LINE
8
DEFAULT_255_2_778
10
47.5069768
20
30.5239854
11
48.3019768
21
30.5239854
0
LINE
8
DEFAULT_255_2_778
10
48.3019768
20
30.5239854
11
48.3019768
21
29.2671854
0
LINE
8
DEFAULT_255_2_778
10
48.3019768
20
29.2671854
11
47.5069768
21
29.2671854
0
LINE
8
DEFAULT_255_2_778
10
47.5069768
20
29.2671854
11
47.5069768
21
30.5239854
0
LINE
8
DEFAULT_255_2_778
10
47.5069636
20
26.8197812
11
48.3020636
21
26.8197812
0
LINE
8
DEFAULT_255_2_778
10
48.3020636
20
26.8197812
11
48.3020636
21
25.4941812
0
LINE
8
DEFAULT_255_2_778
10
48.3020636
20
25.4941812
11
47.5069636
21
25.4941812
0
LINE
8
DEFAULT_255_2_778
10
47.5069636
20
25.4941812
11
47.5069636
21
26.8197812
0
LINE
8
DEFAULT_255_2_778
10
47.5069636
20
22.8510583
11
48.3020636
21
22.8510583
0
LINE
8
DEFAULT_255_2_778
10
48.3020636
20
22.8510583
11
48.3020636
21
21.5281583
0
LINE
8
DEFAULT_255_2_778
10
48.3020636
20
21.5281583
11
47.5069636
21
21.5281583
0
LINE
8
DEFAULT_255_2_778
10
47.5069636
20
21.5281583
11
47.5069636
21
22.8510583
0
ENDSEC
0
EOF