0
SECTION
2
HEADER
9
$MEASUREMENT
70
1
0
ENDSEC
0
SECTION
2
TABLES
0
TABLE
2
LTYPE
0
LTYPE
72
65
70
64
2
CONTINUOUS
3
______
73
0
40
0
0
ENDTAB
0
TABLE
2
LAYER
0
LAYER
2
DEFAULT_255_2_778
70
0
62
255
6
CONTINUOUS
0
LAYER
2
DEFAULT_255_1_388
70
0
62
255
6
CONTINUOUS
0
LAYER
2
DEFAULT_255_2_778_1
70
0
62
255
6
CONTINUOUS
0
ENDTAB
0
ENDSEC
0
SECTION
2
ENTITIES
0
ARC
8
DEFAULT_255_2_778
10
3.5700693
20
139.3052021
40
0.7914215
50
129.1312896
51
180.1450914
0
ARC
8
DEFAULT_255_2_778
10
3.5703345
20
139.3056893
40
0.7912112
50
89.854026
51
129.1684493
0
ARC
8
DEFAULT_255_2_778
10
25.7993937
20
139.3053758
40
0.7915249
50
39.4792447
51
90.147911
0
ARC
8
DEFAULT_255_2_778
10
25.7999935
20
139.3052224
40
0.7911595
50
359.8533901
51
39.5154338
0
ARC
8
DEFAULT_255_2_778
10
25.7996693
20
-1.9863501
40
0.7914836
50
309.4761667
51
0.1482649
0
ARC
8
DEFAULT_255_2_778
10
25.799398
20
-1.9867812
40
0.7913235
50
269.8517415
51
309.511178
0
ARC
8
DEFAULT_255_2_778
10
3.570342
20
-1.986723
40
0.7913815
50
219.1282118
51
270.1454017
0
ARC
8
DEFAULT_255_2_778
10
3.5700247
20
-1.9863406
40
0.7913769
50
179.8524075
51
219.1641908
0
LINE
8
DEFAULT_255_2_778
10
3.5723503
20
140.096898
11
25.7973503
21
140.096898
0
LINE
8
DEFAULT_255_2_778
10
26.5911503
20
139.303198
11
26.5911503
21
-1.984302
0
LINE
8
DEFAULT_255_2_778
10
25.7973503
20
-2.778102
11
3.5723503
21
-2.778102
0
LINE
8
DEFAULT_255_2_778
10
2.7786503
20
-1.984302
11
2.7786503
21
139.303198
0
LINE
8
DEFAULT_255_1_388
10
11.3260637
20
-0.6398
11
11.2004682
21
-0.2964455
0
LINE
8
DEFAULT_255_1_388
10
11.2004682
20
-0.2964455
11
10.6492939
21
-0.2964455
0
LINE
8
DEFAULT_255_1_388
10
10.6492939
20
-0.2964455
11
10.5255056
21
-0.6398
0
LINE
8
DEFAULT_255_1_388
10
10.5255056
20
-0.6398
11
10.3465998
21
-0.6398
0
LINE
8
DEFAULT_255_1_388
10
10.3465998
20
-0.6398
11
10.8489816
21
0.6757898
0
LINE
8
DEFAULT_255_1_388
10
10.8489816
20
0.6757898
11
11.0007805
21
0.6757898
0
LINE
8
DEFAULT_255_1_388
10
11.0007805
20
0.6757898
11
11.5040659
21
-0.6398
0
LINE
8
DEFAULT_255_1_388
10
11.5040659
20
-0.6398
11
11.3260637
21
-0.6398
0
LINE
8
DEFAULT_255_1_388
10
10.9248811
20
0.4616451
11
10.7017006
21
-0.1536823
0
LINE
8
DEFAULT_255_1_388
10
10.7017006
20
-0.1536823
11
11.148965
21
-0.1536823
0
LINE
8
DEFAULT_255_1_388
10
11.148965
20
-0.1536823
11
10.9248811
21
0.4616451
0
LINE
8
DEFAULT_255_1_388
10
11.8672988
20
0.6757898
11
11.8672988
21
-0.6398
0
LINE
8
DEFAULT_255_1_388
10
11.8672988
20
-0.6398
11
11.6938144
21
-0.6398
0
LINE
8
DEFAULT_255_1_388
10
11.6938144
20
-0.6398
11
11.6938144
21
0.6757898
0
LINE
8
DEFAULT_255_1_388
10
11.6938144
20
0.6757898
11
11.8672988
21
0.6757898
0
LINE
8
DEFAULT_255_1_388
10
12.3516093
20
-0.0145334
11
12.2178818
21
0.0198021
0
LINE
8
DEFAULT_255_1_388
10
12.2178818
20
0.0198021
11
12.2847456
21
0.6757898
0
LINE
8
DEFAULT_255_1_388
10
12.2847456
20
0.6757898
11
12.9588046
21
0.6757898
0
LINE
8
DEFAULT_255_1_388
10
12.9588046
20
0.6757898
11
12.9588046
21
0.5212803
0
LINE
8
DEFAULT_255_1_388
10
12.9588046
20
0.5212803
11
12.4266052
21
0.5212803
0
LINE
8
DEFAULT_255_1_388
10
12.4266052
20
0.5212803
11
12.3868483
21
0.1625652
0
LINE
8
DEFAULT_255_1_388
10
12.1708964
20
-0.2937348
11
12.3290202
21
-0.2937348
0
LINE
8
DEFAULT_255_1_388
10
12.395884
20
0.0216092
11
12.3516093
21
-0.0145334
0
ARC
8
DEFAULT_255_1_388
10
12.5955097
20
-0.1951759
40
0.4141476
50
93.7181681
51
120.253934
0
ARC
8
DEFAULT_255_1_388
10
12.6061149
20
-0.2860716
40
0.5055616
50
89.9660471
51
94.2495185
0
ARC
8
DEFAULT_255_1_388
10
12.6106971
20
-0.2197846
40
0.4392953
50
73.8045384
51
90.5585736
0
ARC
8
DEFAULT_255_1_388
10
12.6371229
20
-0.123248
40
0.3392225
50
41.3071072
51
73.543002
0
ARC
8
DEFAULT_255_1_388
10
12.5903049
20
-0.1635539
40
0.4009977
50
13.5075837
51
41.2174839
0
ARC
8
DEFAULT_255_1_388
10
12.4056146
20
-0.2119093
40
0.5918864
50
1.1330171
51
13.8830737
0
ARC
8
DEFAULT_255_1_388
10
12.2459792
20
-0.2204478
40
0.7516787
50
359.9925091
51
1.5431298
0
ARC
8
DEFAULT_255_1_388
10
12.3904407
20
-0.2250973
40
0.6072343
50
347.8572712
51
0.4294349
0
ARC
8
DEFAULT_255_1_388
10
12.5873542
20
-0.2697102
40
0.4053482
50
323.6727442
51
348.1674594
0
ARC
8
DEFAULT_255_1_388
10
12.6204506
20
-0.2898825
40
0.3667495
50
316.8171818
51
323.1486802
0
ARC
8
DEFAULT_255_1_388
10
12.627363
20
-0.2940388
40
0.358869
50
281.839603
51
316.5458142
0
ARC
8
DEFAULT_255_1_388
10
12.5850917
20
-0.1190637
40
0.5388223
50
269.5770964
51
282.4214641
0
ARC
8
DEFAULT_255_1_388
10
12.5770838
20
-0.143107
40
0.5147801
50
256.2425863
51
270.4486481
0
ARC
8
DEFAULT_255_1_388
10
12.5434366
20
-0.2780876
40
0.3756708
50
228.9024379
51
256.33135
0
ARC
8
DEFAULT_255_1_388
10
12.5351346
20
-0.2911946
40
0.360344
50
193.7536029
51
228.5272638
0
ARC
8
DEFAULT_255_1_388
10
12.6743911
20
-0.2503537
40
0.5053599
50
184.9244437
51
194.4976052
0
ARC
8
DEFAULT_255_1_388
10
12.6960552
20
-0.2463278
40
0.3700839
50
187.3596909
51
198.6733728
0
ARC
8
DEFAULT_255_1_388
10
12.5779796
20
-0.2872627
40
0.2451195
50
198.4453795
51
217.7945479
0
ARC
8
DEFAULT_255_1_388
10
12.5446968
20
-0.3108437
40
0.2043754
50
218.2887146
51
228.5613203
0
ARC
8
DEFAULT_255_1_388
10
12.5556975
20
-0.2960098
40
0.2227819
50
228.9652423
51
258.1237049
0
ARC
8
DEFAULT_255_1_388
10
12.5788412
20
-0.1969036
40
0.3245374
50
257.7260585
51
270.4013717
0
ARC
8
DEFAULT_255_1_388
10
12.583891
20
-0.2469745
40
0.2744726
50
269.4204315
51
286.420998
0
ARC
8
DEFAULT_255_1_388
10
12.6005966
20
-0.3076295
40
0.2115721
50
286.7250065
51
320.6004665
0
ARC
8
DEFAULT_255_1_388
10
12.5574882
20
-0.2726473
40
0.2670878
50
320.6712228
51
344.5440474
0
ARC
8
DEFAULT_255_1_388
10
12.4273596
20
-0.2344606
40
0.4026927
50
344.241448
51
356.735803
0
ARC
8
DEFAULT_255_1_388
10
12.2869903
20
-0.2228344
40
0.5435085
50
356.3547471
51
0.0507222
0
ARC
8
DEFAULT_255_1_388
10
12.4372168
20
-0.2193188
40
0.3932934
50
359.5579289
51
12.9534322
0
ARC
8
DEFAULT_255_1_388
10
12.5559008
20
-0.1905414
40
0.2711827
50
12.6489751
51
41.608121
0
ARC
8
DEFAULT_255_1_388
10
12.5818168
20
-0.1685054
40
0.2371737
50
41.7851122
51
85.9892156
0
ARC
8
DEFAULT_255_1_388
10
12.5679478
20
-0.2600262
40
0.3295244
50
84.6965848
51
90.0672125
0
ARC
8
DEFAULT_255_1_388
10
12.5653045
20
-0.3351882
40
0.4046926
50
89.6804991
51
99.161352
0
ARC
8
DEFAULT_255_1_388
10
12.5422055
20
-0.1971152
40
0.2647044
50
98.9836248
51
113.8905702
0
ARC
8
DEFAULT_255_1_388
10
12.5163729
20
-0.1361882
40
0.1985386
50
114.195234
51
127.3641866
0
LINE
8
DEFAULT_255_1_388
10
14.0421784
20
-0.5033618
11
14.0421784
21
-0.6398
0
LINE
8
DEFAULT_255_1_388
10
14.0421784
20
-0.6398
11
13.1801779
21
-0.6398
0
LINE
8
DEFAULT_255_1_388
10
13.1801779
20
-0.6398
11
13.1801779
21
-0.5196259
0
LINE
8
DEFAULT_255_1_388
10
13.1801779
20
-0.5196259
11
13.6355744
21
-0.0136298
0
LINE
8
DEFAULT_255_1_388
10
13.3220375
20
0.2881607
11
13.1548781
21
0.2881607
0
LINE
8
DEFAULT_255_1_388
10
13.7340629
20
-0.121154
11
13.3816728
21
-0.5033618
0
LINE
8
DEFAULT_255_1_388
10
13.3816728
20
-0.5033618
11
14.0421784
21
-0.5033618
0
ARC
8
DEFAULT_255_1_388
10
12.1179804
20
1.3283983
40
2.0258655
50
318.5132526
51
320.7829045
0
ARC
8
DEFAULT_255_1_388
10
12.7127761
20
0.8442929
40
1.2589638
50
320.7372878
51
323.9739031
0
ARC
8
DEFAULT_255_1_388
10
13.1536692
20
0.5248554
40
0.7145141
50
323.8962701
51
328.64194
0
ARC
8
DEFAULT_255_1_388
10
13.383895
20
0.3828545
40
0.4440242
50
328.8294576
51
331.7891185
0
ARC
8
DEFAULT_255_1_388
10
13.496127
20
0.3249374
40
0.3177517
50
331.4254512
51
352.9365785
0
ARC
8
DEFAULT_255_1_388
10
13.511427
20
0.321505
40
0.3021496
50
353.2257659
51
0.0166158
0
ARC
8
DEFAULT_255_1_388
10
13.5351031
20
0.3240894
40
0.2784847
50
359.486299
51
15.9343185
0
ARC
8
DEFAULT_255_1_388
10
13.5921297
20
0.3394269
40
0.2194403
50
16.1712913
51
43.5286088
0
ARC
8
DEFAULT_255_1_388
10
13.6008242
20
0.3481191
40
0.2071504
50
43.4417391
51
83.1661095
0
ARC
8
DEFAULT_255_1_388
10
13.5857403
20
0.2652316
40
0.2912888
50
82.160179
51
90.1505708
0
ARC
8
DEFAULT_255_1_388
10
13.5821885
20
0.2048279
40
0.3517025
50
89.5460741
51
102.5418361
0
ARC
8
DEFAULT_255_1_388
10
13.5548605
20
0.3207933
40
0.2325748
50
102.1738499
51
129.206123
0
ARC
8
DEFAULT_255_1_388
10
13.5460058
20
0.3347664
40
0.2161591
50
129.72865
51
135.753947
0
ARC
8
DEFAULT_255_1_388
10
13.559654
20
0.3238728
40
0.2335433
50
136.1757367
51
166.3673339
0
ARC
8
DEFAULT_255_1_388
10
13.6729229
20
0.2935148
40
0.3507873
50
165.9090694
51
178.8684636
0
ARC
8
DEFAULT_255_1_388
10
13.7705
20
0.2882263
40
0.4484624
50
178.4391136
51
180.0083808
0
ARC
8
DEFAULT_255_1_388
10
13.6125702
20
0.2926197
40
0.4577138
50
163.2878482
51
180.5581842
0
ARC
8
DEFAULT_255_1_388
10
13.5223743
20
0.3174393
40
0.3641968
50
133.4540601
51
162.947111
0
ARC
8
DEFAULT_255_1_388
10
13.5424625
20
0.2960789
40
0.3935189
50
100.7869829
51
133.4382499
0
ARC
8
DEFAULT_255_1_388
10
13.581587
20
0.1218399
40
0.5720313
50
89.660664
51
101.3702276
0
ARC
8
DEFAULT_255_1_388
10
13.5890478
20
0.1287263
40
0.5651495
50
78.2172678
51
90.412935
0
ARC
8
DEFAULT_255_1_388
10
13.6289944
20
0.3114511
40
0.378122
50
55.9269121
51
78.4888449
0
ARC
8
DEFAULT_255_1_388
10
13.6510659
20
0.3495187
40
0.3342379
50
47.929771
51
55.4049217
0
ARC
8
DEFAULT_255_1_388
10
13.662519
20
0.3611618
40
0.3179217
50
4.334829
51
48.0560205
0
ARC
8
DEFAULT_255_1_388
10
13.5392991
20
0.3420487
40
0.442341
50
359.9251713
51
5.5971671
0
ARC
8
DEFAULT_255_1_388
10
13.5875146
20
0.3483728
40
0.3941854
50
337.8914027
51
358.9967534
0
ARC
8
DEFAULT_255_1_388
10
13.2822716
20
0.4661295
40
0.7213271
50
326.9132501
51
338.3508308
0
ARC
8
DEFAULT_255_1_388
10
12.8338828
20
0.7535105
40
1.2538973
50
319.6471833
51
327.0959558
0
ARC
8
DEFAULT_255_1_388
10
12.4025486
20
1.109305
40
1.8129975
50
317.2588228
51
319.9045804
0
LINE
8
DEFAULT_255_1_388
10
14.4623359
20
-0.0371225
11
14.4623359
21
0.0993157
0
LINE
8
DEFAULT_255_1_388
10
14.4623359
20
0.0993157
11
14.5879313
21
0.0993157
0
LINE
8
DEFAULT_255_1_388
10
14.3737866
20
0.3306282
11
14.2066271
21
0.3306282
0
LINE
8
DEFAULT_255_1_388
10
14.1948808
20
-0.2928313
11
14.3629438
21
-0.2928313
0
LINE
8
DEFAULT_255_1_388
10
14.5879313
20
-0.0371225
11
14.4623359
21
-0.0371225
0
ARC
8
DEFAULT_255_1_388
10
14.584654
20
0.4809922
40
0.3816905
50
270.491971
51
281.8953028
0
ARC
8
DEFAULT_255_1_388
10
14.6117967
20
0.3570199
40
0.2547877
50
281.6690378
51
301.2943765
0
ARC
8
DEFAULT_255_1_388
10
14.6309418
20
0.3219926
40
0.2149197
50
301.7834992
51
311.754567
0
ARC
8
DEFAULT_255_1_388
10
14.641246
20
0.310565
40
0.1995326
50
311.7325027
51
354.2803031
0
ARC
8
DEFAULT_255_1_388
10
14.5594876
20
0.324628
40
0.2823461
50
353.0941646
51
0.1174696
0
ARC
8
DEFAULT_255_1_388
10
14.5076433
20
0.3299874
40
0.3342238
50
359.1804452
51
15.0452323
0
ARC
8
DEFAULT_255_1_388
10
14.6590492
20
0.3741546
40
0.1765747
50
13.957816
51
77.6713812
0
ARC
8
DEFAULT_255_1_388
10
14.6155728
20
0.2183464
40
0.3381982
50
76.111571
51
90.7028736
0
ARC
8
DEFAULT_255_1_388
10
14.608914
20
0.249125
40
0.3074046
50
89.5321574
51
103.5319393
0
ARC
8
DEFAULT_255_1_388
10
14.5863523
20
0.3390443
40
0.2147041
50
103.2930114
51
133.5619756
0
ARC
8
DEFAULT_255_1_388
10
14.5813465
20
0.3457351
40
0.2064084
50
133.8349761
51
173.5343225
0
ARC
8
DEFAULT_255_1_388
10
14.6627122
20
0.3313144
40
0.2889266
50
172.5097183
51
180.1360699
0
ARC
8
DEFAULT_255_1_388
10
14.5556886
20
0.335188
40
0.3490913
50
155.3483706
51
180.7484035
0
ARC
8
DEFAULT_255_1_388
10
14.5501862
20
0.3319519
40
0.3454798
50
131.5745177
51
154.4799474
0
ARC
8
DEFAULT_255_1_388
10
14.5854144
20
0.2963422
40
0.3955058
50
96.9874487
51
131.9690874
0
ARC
8
DEFAULT_255_1_388
10
14.6101037
20
0.1562407
40
0.537622
50
89.8592909
51
97.7827481
0
ARC
8
DEFAULT_255_1_388
10
14.6155146
20
0.126736
40
0.5671399
50
78.3654493
51
90.4132586
0
ARC
8
DEFAULT_255_1_388
10
14.6557787
20
0.3133918
40
0.3762034
50
56.6229818
51
78.6387103
0
ARC
8
DEFAULT_255_1_388
10
14.6799617
20
0.3556846
40
0.3275964
50
47.0254604
51
56.085558
0
ARC
8
DEFAULT_255_1_388
10
14.6821868
20
0.3601189
40
0.3228382
50
10.9207523
51
46.777927
0
ARC
8
DEFAULT_255_1_388
10
14.5287461
20
0.3246401
40
0.4802559
50
359.6364235
51
11.6087615
0
ARC
8
DEFAULT_255_1_388
10
14.7351627
20
0.3229404
40
0.273833
50
332.3549969
51
359.7179765
0
ARC
8
DEFAULT_255_1_388
10
14.6620028
20
0.3576285
40
0.3547505
50
325.2332381
51
332.8746682
0
ARC
8
DEFAULT_255_1_388
10
14.6791611
20
0.3456763
40
0.3338396
50
292.9803892
51
325.2391113
0
ARC
8
DEFAULT_255_1_388
10
14.6480806
20
0.4061679
40
0.4016959
50
292.542178
51
293.6931461
0
ARC
8
DEFAULT_255_1_388
10
14.6924378
20
-0.3203964
40
0.372079
50
57.643292
51
72.8626085
0
ARC
8
DEFAULT_255_1_388
10
14.7323213
20
-0.2557727
40
0.2961455
50
36.7246661
51
57.4701329
0
ARC
8
DEFAULT_255_1_388
10
14.731037
20
-0.254353
40
0.2963321
50
8.054535
51
36.3561529
0
ARC
8
DEFAULT_255_1_388
10
14.6340042
20
-0.2717927
40
0.3948682
50
359.8316595
51
8.5873361
0
ARC
8
DEFAULT_255_1_388
10
14.5917517
20
-0.277203
40
0.4371398
50
343.9831631
51
0.557075
0
ARC
8
DEFAULT_255_1_388
10
14.6914566
20
-0.3045037
40
0.3337749
50
311.6358204
51
343.7652116
0
ARC
8
DEFAULT_255_1_388
10
14.648882
20
-0.2565045
40
0.3979351
50
279.7829743
51
311.625622
0
ARC
8
DEFAULT_255_1_388
10
14.6149955
20
-0.0948358
40
0.5630417
50
269.7285092
51
280.3857694
0
ARC
8
DEFAULT_255_1_388
10
14.6080268
20
-0.0994759
40
0.5584119
50
256.6827433
51
270.4412869
0
ARC
8
DEFAULT_255_1_388
10
14.5699255
20
-0.2552302
40
0.3980715
50
229.4223821
51
256.8554507
0
ARC
8
DEFAULT_255_1_388
10
14.5232808
20
-0.3077317
40
0.3278564
50
181.8183354
51
229.6455015
0
ARC
8
DEFAULT_255_1_388
10
14.6402417
20
-0.2930175
40
0.4453611
50
179.9760419
51
183.2330638
0
ARC
8
DEFAULT_255_1_388
10
14.620897
20
-0.2953219
40
0.2579652
50
179.4467996
51
196.2871626
0
ARC
8
DEFAULT_255_1_388
10
14.5660423
20
-0.3103291
40
0.2011057
50
196.5661293
51
227.7059371
0
ARC
8
DEFAULT_255_1_388
10
14.5845031
20
-0.2896845
40
0.2287994
50
227.7653015
51
257.8763321
0
ARC
8
DEFAULT_255_1_388
10
14.6098114
20
-0.1836039
40
0.3378385
50
257.4583525
51
270.4267406
0
ARC
8
DEFAULT_255_1_388
10
14.6149363
20
-0.150977
40
0.3704652
50
269.5965319
51
280.8788143
0
ARC
8
DEFAULT_255_1_388
10
14.6407591
20
-0.2799471
40
0.2389415
50
280.6347277
51
299.8594068
0
ARC
8
DEFAULT_255_1_388
10
14.6622361
20
-0.3207264
40
0.19289
50
300.3575552
51
314.5515667
0
ARC
8
DEFAULT_255_1_388
10
14.6529037
20
-0.3138975
40
0.204312
50
315.0730962
51
345.0429362
0
ARC
8
DEFAULT_255_1_388
10
14.5490544
20
-0.2836461
40
0.31246
50
344.598526
51
357.9270698
0
ARC
8
DEFAULT_255_1_388
10
14.4480849
20
-0.2767295
40
0.4136265
50
357.4755098
51
0.0224936
0
ARC
8
DEFAULT_255_1_388
10
14.5633727
20
-0.2739901
40
0.2983498
50
359.5051035
51
13.4236939
0
ARC
8
DEFAULT_255_1_388
10
14.6608816
20
-0.2490363
40
0.1977186
50
12.9497905
51
48.7550905
0
ARC
8
DEFAULT_255_1_388
10
14.6403738
20
-0.2770627
40
0.2323321
50
49.509109
51
72.1832965
0
ARC
8
DEFAULT_255_1_388
10
14.6001207
20
-0.3965368
40
0.358397
50
71.9008458
51
84.3555134
0
ARC
8
DEFAULT_255_1_388
10
14.5819601
20
-0.5497288
40
0.512641
50
84.019632
51
89.3326067
0
LINE
8
DEFAULT_255_1_388
10
15.6234162
20
-0.0127263
11
15.6234162
21
-0.1491645
0
LINE
8
DEFAULT_255_1_388
10
15.6234162
20
-0.1491645
11
15.1824768
21
-0.1491645
0
LINE
8
DEFAULT_255_1_388
10
15.1824768
20
-0.1491645
11
15.1824768
21
-0.0127263
0
LINE
8
DEFAULT_255_1_388
10
15.1824768
20
-0.0127263
11
15.6234162
21
-0.0127263
0
LINE
8
DEFAULT_255_1_388
10
15.9243032
20
0.6757898
11
16.2414543
21
0.1716009
0
LINE
8
DEFAULT_255_1_388
10
16.2414543
20
0.1716009
11
16.5567983
21
0.6757898
0
LINE
8
DEFAULT_255_1_388
10
16.5567983
20
0.6757898
11
16.7610039
21
0.6757898
0
LINE
8
DEFAULT_255_1_388
10
16.7610039
20
0.6757898
11
16.3453642
21
0.0234163
0
LINE
8
DEFAULT_255_1_388
10
16.3453642
20
0.0234163
11
16.7709431
21
-0.6398
0
LINE
8
DEFAULT_255_1_388
10
16.7709431
20
-0.6398
11
16.5649304
21
-0.6398
0
LINE
8
DEFAULT_255_1_388
10
16.5649304
20
-0.6398
11
16.2414543
21
-0.1265754
0
LINE
8
DEFAULT_255_1_388
10
16.2414543
20
-0.1265754
11
15.9161711
21
-0.6398
0
LINE
8
DEFAULT_255_1_388
10
15.9161711
20
-0.6398
11
15.711062
21
-0.6398
0
LINE
8
DEFAULT_255_1_388
10
15.711062
20
-0.6398
11
16.1375444
21
0.0234163
0
LINE
8
DEFAULT_255_1_388
10
16.1375444
20
0.0234163
11
15.7210012
21
0.6757898
0
LINE
8
DEFAULT_255_1_388
10
15.7210012
20
0.6757898
11
15.9243032
21
0.6757898
0
LINE
8
DEFAULT_255_1_388
10
17.7431784
20
-0.2223532
11
17.9175664
21
-0.2223532
0
LINE
8
DEFAULT_255_1_388
10
16.9046706
20
-0.0434475
11
16.9046706
21
0.0830516
0
LINE
8
DEFAULT_255_1_388
10
17.9175664
20
0.2529217
11
17.7431784
21
0.2529217
0
LINE
8
DEFAULT_255_1_388
10
17.0790585
20
0.0785337
11
17.0790585
21
-0.0488688
0
ARC
8
DEFAULT_255_1_388
10
17.3009898
20
-0.1551671
40
0.6202263
50
340.1774904
51
353.7812217
0
ARC
8
DEFAULT_255_1_388
10
17.477775
20
-0.2210107
40
0.4315926
50
311.4560052
51
340.4420756
0
ARC
8
DEFAULT_255_1_388
10
17.474029
20
-0.2085335
40
0.4434573
50
282.4332229
51
310.7514507
0
ARC
8
DEFAULT_255_1_388
10
17.4246108
20
-0.0043297
40
0.6535262
50
269.9358869
51
282.8096729
0
ARC
8
DEFAULT_255_1_388
10
17.4188047
20
0.1469329
40
0.8048043
50
269.9995752
51
270.3612856
0
ARC
8
DEFAULT_255_1_388
10
17.4128537
20
-0.1329219
40
0.5249831
50
250.7885263
51
270.6488451
0
ARC
8
DEFAULT_255_1_388
10
17.3939362
20
-0.2046147
40
0.4510942
50
219.3628377
51
250.0611024
0
ARC
8
DEFAULT_255_1_388
10
17.4872236
20
-0.1253347
40
0.5735046
50
193.5480293
51
219.5755675
0
ARC
8
DEFAULT_255_1_388
10
17.7540445
20
-0.056048
40
0.849146
50
181.1220183
51
193.8754971
0
ARC
8
DEFAULT_255_1_388
10
17.9863679
20
-0.0436086
40
1.0816971
50
179.9914644
51
181.5398227
0
ARC
8
DEFAULT_255_1_388
10
17.7786989
20
0.0872586
40
0.8740384
50
169.5837606
51
180.275782
0
ARC
8
DEFAULT_255_1_388
10
17.5720337
20
0.1254439
40
0.6638751
50
155.0367033
51
169.6002779
0
ARC
8
DEFAULT_255_1_388
10
17.4442795
20
0.1870336
40
0.5220662
50
136.7831557
51
155.2472983
0
ARC
8
DEFAULT_255_1_388
10
17.4004586
20
0.2242577
40
0.4646502
50
121.7633063
51
136.4281161
0
ARC
8
DEFAULT_255_1_388
10
17.4156426
20
0.1962049
40
0.4964979
50
95.6460018
51
121.5489589
0
ARC
8
DEFAULT_255_1_388
10
17.43334
20
0.0714704
40
0.6223912
50
89.9245727
51
96.1375919
0
ARC
8
DEFAULT_255_1_388
10
17.4390105
20
0.0848721
40
0.6090084
50
76.6779212
51
90.456405
0
ARC
8
DEFAULT_255_1_388
10
17.4832918
20
0.263806
40
0.42469
50
47.4858803
51
76.9287069
0
ARC
8
DEFAULT_255_1_388
10
17.4667532
20
0.2525623
40
0.4441778
50
16.5424081
51
46.8934505
0
ARC
8
DEFAULT_255_1_388
10
17.2858582
20
0.1931265
40
0.6345318
50
5.4072971
51
17.0363711
0
ARC
8
DEFAULT_255_1_388
10
17.1240307
20
0.1671304
40
0.6250632
50
7.8888693
51
15.9242022
0
ARC
8
DEFAULT_255_1_388
10
17.3475292
20
0.2320309
40
0.3923364
50
15.7650676
51
27.9410069
0
ARC
8
DEFAULT_255_1_388
10
17.4717462
20
0.2985317
40
0.2514401
50
27.8167196
51
46.4007942
0
ARC
8
DEFAULT_255_1_388
10
17.4773303
20
0.2978882
40
0.2480958
50
47.4372362
51
75.0695672
0
ARC
8
DEFAULT_255_1_388
10
17.4426139
20
0.1770277
40
0.3738281
50
74.7009379
51
87.8124314
0
ARC
8
DEFAULT_255_1_388
10
17.4343756
20
0.0586659
40
0.4924321
50
87.3802571
51
90.0251599
0
ARC
8
DEFAULT_255_1_388
10
17.4300403
20
0.1906997
40
0.3604218
50
89.3451886
51
108.5744412
0
ARC
8
DEFAULT_255_1_388
10
17.4146396
20
0.2484836
40
0.3007661
50
109.2998307
51
143.3037387
0
ARC
8
DEFAULT_255_1_388
10
17.5003685
20
0.1825584
40
0.4089031
50
143.075267
51
163.1918576
0
ARC
8
DEFAULT_255_1_388
10
17.719952
20
0.1132652
40
0.6391492
50
162.9375929
51
174.6208776
0
ARC
8
DEFAULT_255_1_388
10
18.0153901
20
0.0808711
40
0.9363344
50
174.342123
51
180.1430283
0
ARC
8
DEFAULT_255_1_388
10
17.9106443
20
-0.0534883
40
0.8315986
50
179.6817261
51
189.150555
0
ARC
8
DEFAULT_255_1_388
10
17.6293192
20
-0.1003441
40
0.5464044
50
188.9911061
51
203.5772363
0
ARC
8
DEFAULT_255_1_388
10
17.5078484
20
-0.1507461
40
0.4149206
50
203.9075402
51
215.1312435
0
ARC
8
DEFAULT_255_1_388
10
17.4040281
20
-0.2312093
40
0.2837747
50
213.9071511
51
263.8848919
0
ARC
8
DEFAULT_255_1_388
10
17.4181274
20
-0.1429481
40
0.3730641
50
263.1757928
51
270.1031044
0
ARC
8
DEFAULT_255_1_388
10
17.4217354
20
-0.0026489
40
0.5133712
50
269.6722503
51
279.0606936
0
ARC
8
DEFAULT_255_1_388
10
17.4517509
20
-0.184085
40
0.3294739
50
278.8749101
51
293.6349581
0
ARC
8
DEFAULT_255_1_388
10
17.4877713
20
-0.2686749
40
0.2375405
50
293.8553806
51
310.0518171
0
ARC
8
DEFAULT_255_1_388
10
17.4883222
20
-0.2756979
40
0.2318463
50
311.0644687
51
332.0111037
0
ARC
8
DEFAULT_255_1_388
10
17.3541895
20
-0.2017298
40
0.3850112
50
331.6586806
51
343.2877423
0
ARC
8
DEFAULT_255_1_388
10
17.1221361
20
-0.1304194
40
0.6277712
50
343.1446576
51
351.0103568
0
ARC
8
DEFAULT_255_1_388
10
16.9588684
20
-0.1004127
40
0.7937327
50
350.71248
51
351.1626997
0
ARC
8
DEFAULT_255_2_778
10
17.2644097
20
136.9526171
40
0.9020291
50
36.6388597
51
62.8867982
0
ARC
8
DEFAULT_255_2_778
10
17.3470568
20
138.2201537
40
0.5690038
50
305.2567636
51
359.2313325
0
ARC
8
DEFAULT_255_2_778
10
17.3487044
20
138.2159224
40
0.5673153
50
359.6564073
51
359.9965367
0
ARC
8
DEFAULT_255_2_778
10
17.3579024
20
138.2157304
40
0.5581173
50
0.0161948
51
44.9914988
0
ARC
8
DEFAULT_255_2_778
10
17.3578898
20
138.2159752
40
0.5579531
50
44.9727995
51
90.0082066
0
ARC
8
DEFAULT_255_2_778
10
17.3578103
20
138.2111243
40
0.5628041
50
90.0000418
51
90.3054948
0
ARC
8
DEFAULT_255_2_778
10
17.2854142
20
137.0052344
40
0.8779024
50
272.428255
51
302.0472027
0
ARC
8
DEFAULT_255_2_778
10
17.2988911
20
136.9707487
40
0.841549
50
302.5153244
51
0.4882776
0
ARC
8
DEFAULT_255_2_778
10
17.3076108
20
136.9987449
40
0.833059
50
358.5675863
51
29.0157619
0
ARC
8
DEFAULT_255_2_778
10
15.0986513
20
136.9515655
40
0.9032652
50
36.6636783
51
62.8800292
0
ARC
8
DEFAULT_255_2_778
10
15.181148
20
138.2205795
40
0.5698185
50
305.2984654
51
359.1896208
0
ARC
8
DEFAULT_255_2_778
10
15.1825372
20
138.2159256
40
0.5683825
50
359.6567283
51
359.9965559
0
ARC
8
DEFAULT_255_2_778
10
15.1929628
20
138.2157968
40
0.5579568
50
0.0097156
51
44.9837975
0
ARC
8
DEFAULT_255_2_778
10
15.192701
20
138.2157544
40
0.5581721
50
44.9678738
51
90.0065375
0
ARC
8
DEFAULT_255_2_778
10
15.1926813
20
138.1983869
40
0.5755396
50
90.0043847
51
90.2659865
0
ARC
8
DEFAULT_255_2_778
10
15.1204968
20
137.0053822
40
0.8780507
50
272.42898
51
302.0445025
0
ARC
8
DEFAULT_255_2_778
10
15.1340929
20
136.9707943
40
0.8415468
50
302.5093151
51
0.4851764
0
ARC
8
DEFAULT_255_2_778
10
15.1418024
20
136.9984974
40
0.8340609
50
358.5863171
51
28.9970314
0
LINE
8
DEFAULT_255_2_778
10
13.3940095
20
137.4909203
11
12.9371095
21
138.7739203
0
LINE
8
DEFAULT_255_2_778
10
12.9371095
20
138.7739203
11
12.5923095
21
138.7739203
0
LINE
8
DEFAULT_255_2_778
10
12.5923095
20
138.7739203
11
12.5923095
21
137.4909203
0
LINE
8
DEFAULT_255_2_778
10
12.5923095
20
137.4909203
11
13.3940095
21
137.4909203
0
LINE
8
DEFAULT_255_2_778
10
12.5923095
20
136.6892203
11
13.0173095
21
136.6892203
0
LINE
8
DEFAULT_255_2_778
10
13.0173095
20
136.6892203
11
13.2096095
21
136.1281203
0
LINE
8
DEFAULT_255_2_778
10
13.2096095
20
136.1281203
11
13.8750095
21
136.1281203
0
LINE
8
DEFAULT_255_2_778
10
13.8750095
20
136.1281203
11
13.4181095
21
137.4108203
0
LINE
8
DEFAULT_255_2_778
10
13.4181095
20
137.4108203
11
12.5923095
21
137.4108203
0
LINE
8
DEFAULT_255_2_778
10
12.5923095
20
137.4108203
11
12.5923095
21
136.6892203
0
LINE
8
DEFAULT_255_2_778
10
12.5122095
20
138.7739203
11
12.1674095
21
138.7739203
0
LINE
8
DEFAULT_255_2_778
10
12.1674095
20
138.7739203
11
11.7105095
21
137.4909203
0
LINE
8
DEFAULT_255_2_778
10
11.7105095
20
137.4909203
11
12.5122095
21
137.4909203
0
LINE
8
DEFAULT_255_2_778
10
12.5122095
20
137.4909203
11
12.5122095
21
138.7739203
0
LINE
8
DEFAULT_255_2_778
10
11.6864095
20
137.4108203
11
11.2292095
21
136.1281203
0
LINE
8
DEFAULT_255_2_778
10
11.2292095
20
136.1281203
11
11.8946095
21
136.1281203
0
LINE
8
DEFAULT_255_2_778
10
11.8946095
20
136.1281203
11
12.0870095
21
136.6892203
0
LINE
8
DEFAULT_255_2_778
10
12.0870095
20
136.6892203
11
12.5119095
21
136.6892203
0
LINE
8
DEFAULT_255_2_778
10
12.5119095
20
136.6892203
11
12.5119095
21
137.4108203
0
LINE
8
DEFAULT_255_2_778
10
12.5119095
20
137.4108203
11
11.6864095
21
137.4108203
0
LINE
8
DEFAULT_255_2_778
10
16.2804095
20
138.7739203
11
17.0820095
21
138.7739203
0
LINE
8
DEFAULT_255_2_778
10
17.0820095
20
138.7739203
11
17.0820095
21
137.4909203
0
LINE
8
DEFAULT_255_2_778
10
17.0820095
20
137.4909203
11
16.2804095
21
137.4909203
0
LINE
8
DEFAULT_255_2_778
10
16.2804095
20
137.4909203
11
16.2804095
21
138.7739203
0
LINE
8
DEFAULT_255_2_778
10
17.3548095
20
138.7739203
11
17.1625095
21
138.7739203
0
LINE
8
DEFAULT_255_2_778
10
17.1625095
20
138.7739203
11
17.1625095
21
137.4909203
0
LINE
8
DEFAULT_255_2_778
10
17.1625095
20
137.4909203
11
17.9882095
21
137.4909203
0
LINE
8
DEFAULT_255_2_778
10
17.9882095
20
137.4909203
11
17.9882095
21
137.4909203
0
LINE
8
DEFAULT_255_2_778
10
16.2804095
20
137.4108203
11
17.0820095
21
137.4108203
0
LINE
8
DEFAULT_255_2_778
10
17.0820095
20
137.4108203
11
17.0820095
21
136.1281203
0
LINE
8
DEFAULT_255_2_778
10
17.0820095
20
136.1281203
11
16.2804095
21
136.1281203
0
LINE
8
DEFAULT_255_2_778
10
16.2804095
20
136.1281203
11
16.2804095
21
137.4108203
0
LINE
8
DEFAULT_255_2_778
10
17.1622095
20
136.1281203
11
17.3226095
21
136.1281203
0
LINE
8
DEFAULT_255_2_778
10
18.0361095
20
137.4028203
11
17.1622095
21
137.4028203
0
LINE
8
DEFAULT_255_2_778
10
17.1622095
20
137.4028203
11
17.1622095
21
136.1281203
0
LINE
8
DEFAULT_255_2_778
10
17.1622095
20
136.1281203
11
17.1622095
21
136.1281203
0
LINE
8
DEFAULT_255_2_778
10
14.1155095
20
138.7739203
11
14.9172095
21
138.7739203
0
LINE
8
DEFAULT_255_2_778
10
14.9172095
20
138.7739203
11
14.9172095
21
137.4909203
0
LINE
8
DEFAULT_255_2_778
10
14.9172095
20
137.4909203
11
14.1155095
21
137.4909203
0
LINE
8
DEFAULT_255_2_778
10
14.1155095
20
137.4909203
11
14.1155095
21
138.7739203
0
LINE
8
DEFAULT_255_2_778
10
15.1900095
20
138.7739203
11
14.9977095
21
138.7739203
0
LINE
8
DEFAULT_255_2_778
10
14.9977095
20
138.7739203
11
14.9977095
21
137.4909203
0
LINE
8
DEFAULT_255_2_778
10
14.9977095
20
137.4909203
11
15.8234095
21
137.4909203
0
LINE
8
DEFAULT_255_2_778
10
15.8234095
20
137.4909203
11
15.8232095
21
137.4909203
0
LINE
8
DEFAULT_255_2_778
10
14.1155095
20
137.4108203
11
14.9172095
21
137.4108203
0
LINE
8
DEFAULT_255_2_778
10
14.9172095
20
137.4108203
11
14.9172095
21
136.1281203
0
LINE
8
DEFAULT_255_2_778
10
14.9172095
20
136.1281203
11
14.1155095
21
136.1281203
0
LINE
8
DEFAULT_255_2_778
10
14.1155095
20
136.1281203
11
14.1155095
21
137.4108203
0
LINE
8
DEFAULT_255_2_778
10
14.9974095
20
136.1281203
11
15.1577095
21
136.1281203
0
LINE
8
DEFAULT_255_2_778
10
15.8713095
20
137.4028203
11
14.9974095
21
137.4028203
0
LINE
8
DEFAULT_255_2_778
10
14.9974095
20
137.4028203
11
14.9974095
21
136.1281203
0
LINE
8
DEFAULT_255_2_778
10
14.9974095
20
136.1281203
11
14.9974095
21
136.1281203
0
LINE
8
DEFAULT_255_1_388
10
10.9781637
20
133.6363
11
10.8525682
21
133.9796545
0
LINE
8
DEFAULT_255_1_388
10
10.8525682
20
133.9796545
11
10.3013939
21
133.9796545
0
LINE
8
DEFAULT_255_1_388
10
10.3013939
20
133.9796545
11
10.1776056
21
133.6363
0
LINE
8
DEFAULT_255_1_388
10
10.1776056
20
133.6363
11
9.9986998
21
133.6363
0
LINE
8
DEFAULT_255_1_388
10
9.9986998
20
133.6363
11
10.5010816
21
134.9518898
0
LINE
8
DEFAULT_255_1_388
10
10.5010816
20
134.9518898
11
10.6528805
21
134.9518898
0
LINE
8
DEFAULT_255_1_388
10
10.6528805
20
134.9518898
11
11.1561659
21
133.6363
0
LINE
8
DEFAULT_255_1_388
10
11.1561659
20
133.6363
11
10.9781637
21
133.6363
0
LINE
8
DEFAULT_255_1_388
10
10.5769811
20
134.7377451
11
10.3538006
21
134.1224177
0
LINE
8
DEFAULT_255_1_388
10
10.3538006
20
134.1224177
11
10.801065
21
134.1224177
0
LINE
8
DEFAULT_255_1_388
10
10.801065
20
134.1224177
11
10.5769811
21
134.7377451
0
LINE
8
DEFAULT_255_1_388
10
12.1166549
20
134.0537468
11
12.2910428
21
134.0537468
0
LINE
8
DEFAULT_255_1_388
10
11.2781471
20
134.2326525
11
11.2781471
21
134.3591516
0
LINE
8
DEFAULT_255_1_388
10
12.2910428
20
134.5290217
11
12.1166549
21
134.5290217
0
LINE
8
DEFAULT_255_1_388
10
11.452535
20
134.3546337
11
11.452535
21
134.2272312
0
ARC
8
DEFAULT_255_1_388
10
11.6744662
20
134.1209329
40
0.6202263
50
340.1774904
51
353.7812217
0
ARC
8
DEFAULT_255_1_388
10
11.8512515
20
134.0550893
40
0.4315926
50
311.4560052
51
340.4420756
0
ARC
8
DEFAULT_255_1_388
10
11.8475055
20
134.0675665
40
0.4434573
50
282.4332229
51
310.7514507
0
ARC
8
DEFAULT_255_1_388
10
11.7980873
20
134.2717703
40
0.6535262
50
269.9358869
51
282.8096729
0
ARC
8
DEFAULT_255_1_388
10
11.7922812
20
134.4230329
40
0.8048043
50
269.9995752
51
270.3612856
0
ARC
8
DEFAULT_255_1_388
10
11.7863302
20
134.1431781
40
0.5249831
50
250.7885263
51
270.6488451
0
ARC
8
DEFAULT_255_1_388
10
11.7674127
20
134.0714853
40
0.4510942
50
219.3628377
51
250.0611024
0
ARC
8
DEFAULT_255_1_388
10
11.8607001
20
134.1507653
40
0.5735046
50
193.5480293
51
219.5755675
0
ARC
8
DEFAULT_255_1_388
10
12.127521
20
134.220052
40
0.849146
50
181.1220183
51
193.8754971
0
ARC
8
DEFAULT_255_1_388
10
12.3598443
20
134.2324914
40
1.0816971
50
179.9914644
51
181.5398227
0
ARC
8
DEFAULT_255_1_388
10
12.1521754
20
134.3633586
40
0.8740384
50
169.5837606
51
180.275782
0
ARC
8
DEFAULT_255_1_388
10
11.9455102
20
134.4015439
40
0.6638751
50
155.0367033
51
169.6002779
0
ARC
8
DEFAULT_255_1_388
10
11.817756
20
134.4631336
40
0.5220662
50
136.7831557
51
155.2472983
0
ARC
8
DEFAULT_255_1_388
10
11.7739351
20
134.5003577
40
0.4646502
50
121.7633063
51
136.4281161
0
ARC
8
DEFAULT_255_1_388
10
11.7891191
20
134.4723049
40
0.4964979
50
95.6460018
51
121.5489589
0
ARC
8
DEFAULT_255_1_388
10
11.8068165
20
134.3475704
40
0.6223912
50
89.9245727
51
96.1375919
0
ARC
8
DEFAULT_255_1_388
10
11.812487
20
134.3609721
40
0.6090084
50
76.6779212
51
90.456405
0
ARC
8
DEFAULT_255_1_388
10
11.8567683
20
134.539906
40
0.42469
50
47.4858803
51
76.9287069
0
ARC
8
DEFAULT_255_1_388
10
11.8402297
20
134.5286623
40
0.4441778
50
16.5424081
51
46.8934505
0
ARC
8
DEFAULT_255_1_388
10
11.6593347
20
134.4692265
40
0.6345318
50
5.4072971
51
17.0363711
0
ARC
8
DEFAULT_255_1_388
10
11.4975072
20
134.4432304
40
0.6250632
50
7.8888693
51
15.9242022
0
ARC
8
DEFAULT_255_1_388
10
11.7210057
20
134.5081309
40
0.3923364
50
15.7650676
51
27.9410069
0
ARC
8
DEFAULT_255_1_388
10
11.8452226
20
134.5746317
40
0.2514401
50
27.8167196
51
46.4007942
0
ARC
8
DEFAULT_255_1_388
10
11.8508068
20
134.5739882
40
0.2480958
50
47.4372362
51
75.0695672
0
ARC
8
DEFAULT_255_1_388
10
11.8160904
20
134.4531277
40
0.3738281
50
74.7009379
51
87.8124314
0
ARC
8
DEFAULT_255_1_388
10
11.8078521
20
134.3347659
40
0.4924321
50
87.3802571
51
90.0251599
0
ARC
8
DEFAULT_255_1_388
10
11.8035168
20
134.4667997
40
0.3604218
50
89.3451886
51
108.5744412
0
ARC
8
DEFAULT_255_1_388
10
11.788116
20
134.5245836
40
0.3007661
50
109.2998307
51
143.3037387
0
ARC
8
DEFAULT_255_1_388
10
11.873845
20
134.4586584
40
0.4089031
50
143.075267
51
163.1918576
0
ARC
8
DEFAULT_255_1_388
10
12.0934284
20
134.3893652
40
0.6391492
50
162.9375929
51
174.6208776
0
ARC
8
DEFAULT_255_1_388
10
12.3888666
20
134.3569711
40
0.9363344
50
174.342123
51
180.1430283
0
ARC
8
DEFAULT_255_1_388
10
12.2841207
20
134.2226117
40
0.8315986
50
179.6817261
51
189.150555
0
ARC
8
DEFAULT_255_1_388
10
12.0027956
20
134.1757559
40
0.5464044
50
188.9911061
51
203.5772363
0
ARC
8
DEFAULT_255_1_388
10
11.8813248
20
134.1253539
40
0.4149206
50
203.9075402
51
215.1312435
0
ARC
8
DEFAULT_255_1_388
10
11.7775046
20
134.0448907
40
0.2837747
50
213.9071511
51
263.8848919
0
ARC
8
DEFAULT_255_1_388
10
11.7916039
20
134.1331519
40
0.3730641
50
263.1757928
51
270.1031044
0
ARC
8
DEFAULT_255_1_388
10
11.7952119
20
134.2734511
40
0.5133712
50
269.6722503
51
279.0606936
0
ARC
8
DEFAULT_255_1_388
10
11.8252274
20
134.092015
40
0.3294739
50
278.8749101
51
293.6349581
0
ARC
8
DEFAULT_255_1_388
10
11.8612478
20
134.0074251
40
0.2375405
50
293.8553806
51
310.0518171
0
ARC
8
DEFAULT_255_1_388
10
11.8617987
20
134.0004021
40
0.2318463
50
311.0644687
51
332.0111037
0
ARC
8
DEFAULT_255_1_388
10
11.727666
20
134.0743702
40
0.3850112
50
331.6586806
51
343.2877423
0
ARC
8
DEFAULT_255_1_388
10
11.4956125
20
134.1456806
40
0.6277712
50
343.1446576
51
351.0103568
0
ARC
8
DEFAULT_255_1_388
10
11.3323449
20
134.1756873
40
0.7937327
50
350.71248
51
351.1626997
0
LINE
8
DEFAULT_255_1_388
10
12.6949361
20
134.2615666
11
12.5612086
21
134.2959021
0
LINE
8
DEFAULT_255_1_388
10
12.5612086
20
134.2959021
11
12.6280724
21
134.9518898
0
LINE
8
DEFAULT_255_1_388
10
12.6280724
20
134.9518898
11
13.3021314
21
134.9518898
0
LINE
8
DEFAULT_255_1_388
10
13.3021314
20
134.9518898
11
13.3021314
21
134.7973803
0
LINE
8
DEFAULT_255_1_388
10
13.3021314
20
134.7973803
11
12.769932
21
134.7973803
0
LINE
8
DEFAULT_255_1_388
10
12.769932
20
134.7973803
11
12.7301751
21
134.4386652
0
LINE
8
DEFAULT_255_1_388
10
12.5142232
20
133.9823652
11
12.672347
21
133.9823652
0
LINE
8
DEFAULT_255_1_388
10
12.7392108
20
134.2977092
11
12.6949361
21
134.2615666
0
ARC
8
DEFAULT_255_1_388
10
12.9388365
20
134.0809241
40
0.4141476
50
93.7181681
51
120.253934
0
ARC
8
DEFAULT_255_1_388
10
12.9494417
20
133.9900284
40
0.5055616
50
89.9660471
51
94.2495185
0
ARC
8
DEFAULT_255_1_388
10
12.9540239
20
134.0563154
40
0.4392953
50
73.8045384
51
90.5585736
0
ARC
8
DEFAULT_255_1_388
10
12.9804497
20
134.152852
40
0.3392225
50
41.3071072
51
73.543002
0
ARC
8
DEFAULT_255_1_388
10
12.9336317
20
134.1125461
40
0.4009977
50
13.5075837
51
41.2174839
0
ARC
8
DEFAULT_255_1_388
10
12.7489414
20
134.0641907
40
0.5918864
50
1.1330171
51
13.8830737
0
ARC
8
DEFAULT_255_1_388
10
12.589306
20
134.0556522
40
0.7516787
50
359.9925091
51
1.5431298
0
ARC
8
DEFAULT_255_1_388
10
12.7337675
20
134.0510027
40
0.6072343
50
347.8572712
51
0.4294349
0
ARC
8
DEFAULT_255_1_388
10
12.930681
20
134.0063898
40
0.4053482
50
323.6727442
51
348.1674594
0
ARC
8
DEFAULT_255_1_388
10
12.9637774
20
133.9862175
40
0.3667495
50
316.8171818
51
323.1486802
0
ARC
8
DEFAULT_255_1_388
10
12.9706898
20
133.9820612
40
0.358869
50
281.839603
51
316.5458142
0
ARC
8
DEFAULT_255_1_388
10
12.9284185
20
134.1570363
40
0.5388223
50
269.5770964
51
282.4214641
0
ARC
8
DEFAULT_255_1_388
10
12.9204106
20
134.132993
40
0.5147801
50
256.2425863
51
270.4486481
0
ARC
8
DEFAULT_255_1_388
10
12.8867634
20
133.9980124
40
0.3756708
50
228.9024379
51
256.33135
0
ARC
8
DEFAULT_255_1_388
10
12.8784614
20
133.9849054
40
0.360344
50
193.7536029
51
228.5272638
0
ARC
8
DEFAULT_255_1_388
10
13.0177179
20
134.0257463
40
0.5053599
50
184.9244437
51
194.4976052
0
ARC
8
DEFAULT_255_1_388
10
13.039382
20
134.0297722
40
0.3700839
50
187.3596909
51
198.6733728
0
ARC
8
DEFAULT_255_1_388
10
12.9213064
20
133.9888373
40
0.2451195
50
198.4453795
51
217.7945479
0
ARC
8
DEFAULT_255_1_388
10
12.8880236
20
133.9652563
40
0.2043754
50
218.2887146
51
228.5613203
0
ARC
8
DEFAULT_255_1_388
10
12.8990243
20
133.9800902
40
0.2227819
50
228.9652423
51
258.1237049
0
ARC
8
DEFAULT_255_1_388
10
12.9221681
20
134.0791964
40
0.3245374
50
257.7260585
51
270.4013717
0
ARC
8
DEFAULT_255_1_388
10
12.9272179
20
134.0291255
40
0.2744726
50
269.4204315
51
286.420998
0
ARC
8
DEFAULT_255_1_388
10
12.9439234
20
133.9684705
40
0.2115721
50
286.7250065
51
320.6004665
0
ARC
8
DEFAULT_255_1_388
10
12.900815
20
134.0034527
40
0.2670878
50
320.6712228
51
344.5440474
0
ARC
8
DEFAULT_255_1_388
10
12.7706864
20
134.0416394
40
0.4026927
50
344.241448
51
356.735803
0
ARC
8
DEFAULT_255_1_388
10
12.6303171
20
134.0532656
40
0.5435085
50
356.3547471
51
0.0507222
0
ARC
8
DEFAULT_255_1_388
10
12.7805436
20
134.0567812
40
0.3932934
50
359.5579289
51
12.9534322
0
ARC
8
DEFAULT_255_1_388
10
12.8992276
20
134.0855586
40
0.2711827
50
12.6489751
51
41.608121
0
ARC
8
DEFAULT_255_1_388
10
12.9251436
20
134.1075946
40
0.2371737
50
41.7851122
51
85.9892156
0
ARC
8
DEFAULT_255_1_388
10
12.9112746
20
134.0160738
40
0.3295244
50
84.6965848
51
90.0672125
0
ARC
8
DEFAULT_255_1_388
10
12.9086313
20
133.9409118
40
0.4046926
50
89.6804991
51
99.161352
0
ARC
8
DEFAULT_255_1_388
10
12.8855323
20
134.0789848
40
0.2647044
50
98.9836248
51
113.8905702
0
ARC
8
DEFAULT_255_1_388
10
12.8596998
20
134.1399118
40
0.1985386
50
114.195234
51
127.3641866
0
LINE
8
DEFAULT_255_1_388
10
14.3484591
20
134.414269
11
14.3484591
21
134.1974135
0
LINE
8
DEFAULT_255_1_388
10
13.5180833
20
134.1748244
11
13.5180833
21
134.3980048
0
LINE
8
DEFAULT_255_1_388
10
14.1812997
20
134.1522353
11
14.1812997
21
134.4260153
0
LINE
8
DEFAULT_255_1_388
10
13.6852428
20
134.4386652
11
13.6852428
21
134.1712102
0
ARC
8
DEFAULT_255_1_388
10
12.9706925
20
134.1919118
40
1.3777776
50
353.8440855
51
0.2287917
0
ARC
8
DEFAULT_255_1_388
10
13.4925942
20
134.1336414
40
0.852639
50
344.4934746
51
353.9763743
0
ARC
8
DEFAULT_255_1_388
10
13.8292749
20
134.0379191
40
0.5026273
50
329.2803599
51
344.7473406
0
ARC
8
DEFAULT_255_1_388
10
13.9408245
20
133.9767038
40
0.3754848
50
324.9361395
51
328.6153007
0
ARC
8
DEFAULT_255_1_388
10
13.9833895
20
133.9469586
40
0.3235566
50
280.5801797
51
324.9173226
0
ARC
8
DEFAULT_255_1_388
10
13.9382524
20
134.1349236
40
0.5167077
50
269.5979457
51
281.6732777
0
ARC
8
DEFAULT_255_1_388
10
13.9301427
20
134.1214113
40
0.5032026
50
256.6228565
51
270.5105488
0
ARC
8
DEFAULT_255_1_388
10
13.884917
20
133.9472345
40
0.3233092
50
215.8618351
51
257.2787793
0
ARC
8
DEFAULT_255_1_388
10
13.9997877
20
134.0243106
40
0.4615831
50
197.9695203
51
215.2622745
0
ARC
8
DEFAULT_255_1_388
10
14.2793552
20
134.1186641
40
0.7566307
50
187.8816486
51
198.2346584
0
ARC
8
DEFAULT_255_1_388
10
14.7246791
20
134.1829453
40
1.2065653
50
180.8977266
51
188.0054894
0
ARC
8
DEFAULT_255_1_388
10
15.0297004
20
134.19444
40
1.5117443
50
180.7434591
51
181.152202
0
ARC
8
DEFAULT_255_1_388
10
14.8622
20
134.4034371
40
1.3441277
50
173.7674302
51
180.2315596
0
ARC
8
DEFAULT_255_1_388
10
14.3539869
20
134.4608779
40
0.8326847
50
164.3058537
51
173.9000553
0
ARC
8
DEFAULT_255_1_388
10
14.0263869
20
134.5552652
40
0.4917711
50
148.7922028
51
164.5682288
0
ARC
8
DEFAULT_255_1_388
10
13.9194607
20
134.6149457
40
0.3694204
50
144.5883979
51
148.1161588
0
ARC
8
DEFAULT_255_1_388
10
13.8807352
20
134.6419667
40
0.322202
50
101.6440149
51
144.5142619
0
ARC
8
DEFAULT_255_1_388
10
13.9285544
20
134.4519337
40
0.5180451
50
89.528284
51
102.5820197
0
ARC
8
DEFAULT_255_1_388
10
13.9374536
20
134.4475376
40
0.5224441
50
77.0437914
51
90.508231
0
ARC
8
DEFAULT_255_1_388
10
13.982679
20
134.6323272
40
0.3322297
50
48.2777708
51
77.4996087
0
ARC
8
DEFAULT_255_1_388
10
13.990853
20
134.6468557
40
0.315966
50
36.3141586
51
47.6307332
0
ARC
8
DEFAULT_255_1_388
10
13.8931252
20
134.5810159
40
0.4337313
50
18.2931065
51
35.6770203
0
ARC
8
DEFAULT_255_1_388
10
13.6070093
20
134.4828107
40
0.7362203
50
8.0246996
51
18.5605636
0
ARC
8
DEFAULT_255_1_388
10
13.1386448
20
134.4136432
40
1.2096583
50
1.127539
51
8.1718423
0
ARC
8
DEFAULT_255_1_388
10
12.7737582
20
134.3993374
40
1.5747719
50
0.5432713
51
1.38669
0
ARC
8
DEFAULT_255_1_388
10
12.979496
20
134.4300163
40
1.2018103
50
359.8092569
51
4.9408001
0
ARC
8
DEFAULT_255_1_388
10
13.4531542
20
134.47229
40
0.7262727
50
4.8364937
51
12.2906017
0
ARC
8
DEFAULT_255_1_388
10
13.7631007
20
134.5413485
40
0.4087324
50
12.0806994
51
23.8171225
0
ARC
8
DEFAULT_255_1_388
10
13.8951403
20
134.5972508
40
0.2653719
50
24.2874621
51
31.3934353
0
ARC
8
DEFAULT_255_1_388
10
13.9541838
20
134.6358822
40
0.1948607
50
30.7407708
51
82.4658033
0
ARC
8
DEFAULT_255_1_388
10
13.9339499
20
134.5365017
40
0.2961198
50
81.1057101
51
90.2187368
0
ARC
8
DEFAULT_255_1_388
10
13.9299311
20
134.5655421
40
0.2670929
50
89.380395
51
105.6763916
0
ARC
8
DEFAULT_255_1_388
10
13.9093033
20
134.640532
40
0.1893189
50
105.7980655
51
149.7387869
0
ARC
8
DEFAULT_255_1_388
10
14.0290173
20
134.5685719
40
0.3289892
50
149.4208441
51
163.628295
0
ARC
8
DEFAULT_255_1_388
10
14.2642403
20
134.4968345
40
0.5749004
50
163.3764549
51
172.141138
0
ARC
8
DEFAULT_255_1_388
10
14.6355124
20
134.4436582
40
0.9499585
50
172.0258462
51
178.0705453
0
ARC
8
DEFAULT_255_1_388
10
14.9776677
20
134.4274682
40
1.2924734
50
177.8639301
51
179.5036263
0
ARC
8
DEFAULT_255_1_388
10
14.8557696
20
134.1671151
40
1.170534
50
179.7995545
51
185.246089
0
ARC
8
DEFAULT_255_1_388
10
14.4009289
20
134.1240404
40
0.7136613
50
185.1411911
51
193.0082205
0
ARC
8
DEFAULT_255_1_388
10
14.1035549
20
134.0537441
40
0.4080987
50
192.7897338
51
205.2507384
0
ARC
8
DEFAULT_255_1_388
10
13.9857759
20
134.0011538
40
0.2791522
50
205.8001921
51
211.2545876
0
ARC
8
DEFAULT_255_1_388
10
13.9269299
20
133.9617132
40
0.2084074
50
210.3789935
51
238.4007996
0
ARC
8
DEFAULT_255_1_388
10
13.9247385
20
133.9669786
40
0.2117943
50
239.6521916
51
265.9793852
0
ARC
8
DEFAULT_255_1_388
10
13.9343233
20
134.0426358
40
0.2879689
50
265.1324455
51
270.0603288
0
ARC
8
DEFAULT_255_1_388
10
13.9375611
20
134.0061418
40
0.2514919
50
269.3314378
51
287.2180039
0
ARC
8
DEFAULT_255_1_388
10
13.9530693
20
133.9495291
40
0.1928357
50
287.7957942
51
329.0808983
0
ARC
8
DEFAULT_255_1_388
10
13.845345
20
134.0167651
40
0.319808
50
328.6635261
51
343.3325043
0
ARC
8
DEFAULT_255_1_388
10
13.6008908
20
134.0929195
40
0.5758408
50
343.0498092
51
351.9392499
0
ARC
8
DEFAULT_255_1_388
10
13.210823
20
134.1504205
40
0.9701202
50
351.8071632
51
357.7957897
0
ARC
8
DEFAULT_255_1_388
10
12.8473707
20
134.1692724
40
1.3340376
50
357.5870923
51
359.2682493
0
LINE
8
DEFAULT_255_1_388
10
15.3875582
20
134.414269
11
15.3875582
21
134.1974135
0
LINE
8
DEFAULT_255_1_388
10
14.5571825
20
134.1748244
11
14.5571825
21
134.3980048
0
LINE
8
DEFAULT_255_1_388
10
15.2203988
20
134.1522353
11
15.2203988
21
134.4260153
0
LINE
8
DEFAULT_255_1_388
10
14.7243419
20
134.4386652
11
14.7243419
21
134.1712102
0
ARC
8
DEFAULT_255_1_388
10
14.0097916
20
134.1919118
40
1.3777776
50
353.8440855
51
0.2287917
0
ARC
8
DEFAULT_255_1_388
10
14.5316933
20
134.1336414
40
0.852639
50
344.4934746
51
353.9763743
0
ARC
8
DEFAULT_255_1_388
10
14.8683741
20
134.0379191
40
0.5026273
50
329.2803599
51
344.7473406
0
ARC
8
DEFAULT_255_1_388
10
14.9799236
20
133.9767038
40
0.3754848
50
324.9361395
51
328.6153007
0
ARC
8
DEFAULT_255_1_388
10
15.0224886
20
133.9469586
40
0.3235566
50
280.5801797
51
324.9173226
0
ARC
8
DEFAULT_255_1_388
10
14.9773515
20
134.1349236
40
0.5167077
50
269.5979457
51
281.6732777
0
ARC
8
DEFAULT_255_1_388
10
14.9692418
20
134.1214113
40
0.5032026
50
256.6228565
51
270.5105488
0
ARC
8
DEFAULT_255_1_388
10
14.9240161
20
133.9472345
40
0.3233092
50
215.8618351
51
257.2787793
0
ARC
8
DEFAULT_255_1_388
10
15.0388868
20
134.0243106
40
0.4615831
50
197.9695203
51
215.2622745
0
ARC
8
DEFAULT_255_1_388
10
15.3184544
20
134.1186641
40
0.7566307
50
187.8816486
51
198.2346584
0
ARC
8
DEFAULT_255_1_388
10
15.7637782
20
134.1829453
40
1.2065653
50
180.8977266
51
188.0054894
0
ARC
8
DEFAULT_255_1_388
10
16.0687996
20
134.19444
40
1.5117443
50
180.7434591
51
181.152202
0
ARC
8
DEFAULT_255_1_388
10
15.9012992
20
134.4034371
40
1.3441277
50
173.7674302
51
180.2315596
0
ARC
8
DEFAULT_255_1_388
10
15.393086
20
134.4608779
40
0.8326847
50
164.3058537
51
173.9000553
0
ARC
8
DEFAULT_255_1_388
10
15.065486
20
134.5552652
40
0.4917711
50
148.7922028
51
164.5682288
0
ARC
8
DEFAULT_255_1_388
10
14.9585598
20
134.6149457
40
0.3694204
50
144.5883979
51
148.1161588
0
ARC
8
DEFAULT_255_1_388
10
14.9198343
20
134.6419667
40
0.322202
50
101.6440149
51
144.5142619
0
ARC
8
DEFAULT_255_1_388
10
14.9676535
20
134.4519337
40
0.5180451
50
89.528284
51
102.5820197
0
ARC
8
DEFAULT_255_1_388
10
14.9765527
20
134.4475376
40
0.5224441
50
77.0437914
51
90.508231
0
ARC
8
DEFAULT_255_1_388
10
15.0217781
20
134.6323272
40
0.3322297
50
48.2777708
51
77.4996087
0
ARC
8
DEFAULT_255_1_388
10
15.0299521
20
134.6468557
40
0.315966
50
36.3141586
51
47.6307332
0
ARC
8
DEFAULT_255_1_388
10
14.9322243
20
134.5810159
40
0.4337313
50
18.2931065
51
35.6770203
0
ARC
8
DEFAULT_255_1_388
10
14.6461084
20
134.4828107
40
0.7362203
50
8.0246996
51
18.5605636
0
ARC
8
DEFAULT_255_1_388
10
14.1777439
20
134.4136432
40
1.2096583
50
1.127539
51
8.1718423
0
ARC
8
DEFAULT_255_1_388
10
13.8128573
20
134.3993374
40
1.5747719
50
0.5432713
51
1.38669
0
ARC
8
DEFAULT_255_1_388
10
14.0185952
20
134.4300163
40
1.2018103
50
359.8092569
51
4.9408001
0
ARC
8
DEFAULT_255_1_388
10
14.4922533
20
134.47229
40
0.7262727
50
4.8364937
51
12.2906017
0
ARC
8
DEFAULT_255_1_388
10
14.8021998
20
134.5413485
40
0.4087324
50
12.0806994
51
23.8171225
0
ARC
8
DEFAULT_255_1_388
10
14.9342394
20
134.5972508
40
0.2653719
50
24.2874621
51
31.3934353
0
ARC
8
DEFAULT_255_1_388
10
14.993283
20
134.6358822
40
0.1948607
50
30.7407708
51
82.4658033
0
ARC
8
DEFAULT_255_1_388
10
14.973049
20
134.5365017
40
0.2961198
50
81.1057101
51
90.2187368
0
ARC
8
DEFAULT_255_1_388
10
14.9690302
20
134.5655421
40
0.2670929
50
89.380395
51
105.6763916
0
ARC
8
DEFAULT_255_1_388
10
14.9484024
20
134.640532
40
0.1893189
50
105.7980655
51
149.7387869
0
ARC
8
DEFAULT_255_1_388
10
15.0681164
20
134.5685719
40
0.3289892
50
149.4208441
51
163.628295
0
ARC
8
DEFAULT_255_1_388
10
15.3033394
20
134.4968345
40
0.5749004
50
163.3764549
51
172.141138
0
ARC
8
DEFAULT_255_1_388
10
15.6746115
20
134.4436582
40
0.9499585
50
172.0258462
51
178.0705453
0
ARC
8
DEFAULT_255_1_388
10
16.0167668
20
134.4274682
40
1.2924734
50
177.8639301
51
179.5036263
0
ARC
8
DEFAULT_255_1_388
10
15.8948687
20
134.1671151
40
1.170534
50
179.7995545
51
185.246089
0
ARC
8
DEFAULT_255_1_388
10
15.440028
20
134.1240404
40
0.7136613
50
185.1411911
51
193.0082205
0
ARC
8
DEFAULT_255_1_388
10
15.1426541
20
134.0537441
40
0.4080987
50
192.7897338
51
205.2507384
0
ARC
8
DEFAULT_255_1_388
10
15.0248751
20
134.0011538
40
0.2791522
50
205.8001921
51
211.2545876
0
ARC
8
DEFAULT_255_1_388
10
14.966029
20
133.9617132
40
0.2084074
50
210.3789935
51
238.4007996
0
ARC
8
DEFAULT_255_1_388
10
14.9638376
20
133.9669786
40
0.2117943
50
239.6521916
51
265.9793852
0
ARC
8
DEFAULT_255_1_388
10
14.9734225
20
134.0426358
40
0.2879689
50
265.1324455
51
270.0603288
0
ARC
8
DEFAULT_255_1_388
10
14.9766602
20
134.0061418
40
0.2514919
50
269.3314378
51
287.2180039
0
ARC
8
DEFAULT_255_1_388
10
14.9921684
20
133.9495291
40
0.1928357
50
287.7957942
51
329.0808983
0
ARC
8
DEFAULT_255_1_388
10
14.8844441
20
134.0167651
40
0.319808
50
328.6635261
51
343.3325043
0
ARC
8
DEFAULT_255_1_388
10
14.63999
20
134.0929195
40
0.5758408
50
343.0498092
51
351.9392499
0
ARC
8
DEFAULT_255_1_388
10
14.2499221
20
134.1504205
40
0.9701202
50
351.8071632
51
357.7957897
0
ARC
8
DEFAULT_255_1_388
10
13.8864698
20
134.1692724
40
1.3340376
50
357.5870923
51
359.2682493
0
LINE
8
DEFAULT_255_1_388
10
15.966743
20
134.2633737
11
15.966743
21
134.1269355
0
LINE
8
DEFAULT_255_1_388
10
15.966743
20
134.1269355
11
15.5258036
21
134.1269355
0
LINE
8
DEFAULT_255_1_388
10
15.5258036
20
134.1269355
11
15.5258036
21
134.2633737
0
LINE
8
DEFAULT_255_1_388
10
15.5258036
20
134.2633737
11
15.966743
21
134.2633737
0
LINE
8
DEFAULT_255_1_388
10
16.26763
20
134.9518898
11
16.5847811
21
134.4477009
0
LINE
8
DEFAULT_255_1_388
10
16.5847811
20
134.4477009
11
16.9001251
21
134.9518898
0
LINE
8
DEFAULT_255_1_388
10
16.9001251
20
134.9518898
11
17.1043307
21
134.9518898
0
LINE
8
DEFAULT_255_1_388
10
17.1043307
20
134.9518898
11
16.688691
21
134.2995163
0
LINE
8
DEFAULT_255_1_388
10
16.688691
20
134.2995163
11
17.1142699
21
133.6363
0
LINE
8
DEFAULT_255_1_388
10
17.1142699
20
133.6363
11
16.9082572
21
133.6363
0
LINE
8
DEFAULT_255_1_388
10
16.9082572
20
133.6363
11
16.5847811
21
134.1495246
0
LINE
8
DEFAULT_255_1_388
10
16.5847811
20
134.1495246
11
16.2594979
21
133.6363
0
LINE
8
DEFAULT_255_1_388
10
16.2594979
20
133.6363
11
16.0543888
21
133.6363
0
LINE
8
DEFAULT_255_1_388
10
16.0543888
20
133.6363
11
16.4808712
21
134.2995163
0
LINE
8
DEFAULT_255_1_388
10
16.4808712
20
134.2995163
11
16.064328
21
134.9518898
0
LINE
8
DEFAULT_255_1_388
10
16.064328
20
134.9518898
11
16.26763
21
134.9518898
0
LINE
8
DEFAULT_255_1_388
10
18.0865052
20
134.0537468
11
18.2608932
21
134.0537468
0
LINE
8
DEFAULT_255_1_388
10
17.2479974
20
134.2326525
11
17.2479974
21
134.3591516
0
LINE
8
DEFAULT_255_1_388
10
18.2608932
20
134.5290217
11
18.0865052
21
134.5290217
0
LINE
8
DEFAULT_255_1_388
10
17.4223854
20
134.3546337
11
17.4223854
21
134.2272312
0
ARC
8
DEFAULT_255_1_388
10
17.6443166
20
134.1209329
40
0.6202263
50
340.1774904
51
353.7812217
0
ARC
8
DEFAULT_255_1_388
10
17.8211018
20
134.0550893
40
0.4315926
50
311.4560052
51
340.4420756
0
ARC
8
DEFAULT_255_1_388
10
17.8173558
20
134.0675665
40
0.4434573
50
282.4332229
51
310.7514507
0
ARC
8
DEFAULT_255_1_388
10
17.7679376
20
134.2717703
40
0.6535262
50
269.9358869
51
282.8096729
0
ARC
8
DEFAULT_255_1_388
10
17.7621316
20
134.4230329
40
0.8048043
50
269.9995752
51
270.3612856
0
ARC
8
DEFAULT_255_1_388
10
17.7561806
20
134.1431781
40
0.5249831
50
250.7885263
51
270.6488451
0
ARC
8
DEFAULT_255_1_388
10
17.737263
20
134.0714853
40
0.4510942
50
219.3628377
51
250.0611024
0
ARC
8
DEFAULT_255_1_388
10
17.8305504
20
134.1507653
40
0.5735046
50
193.5480293
51
219.5755675
0
ARC
8
DEFAULT_255_1_388
10
18.0973713
20
134.220052
40
0.849146
50
181.1220183
51
193.8754971
0
ARC
8
DEFAULT_255_1_388
10
18.3296947
20
134.2324914
40
1.0816971
50
179.9914644
51
181.5398227
0
ARC
8
DEFAULT_255_1_388
10
18.1220257
20
134.3633586
40
0.8740384
50
169.5837606
51
180.275782
0
ARC
8
DEFAULT_255_1_388
10
17.9153605
20
134.4015439
40
0.6638751
50
155.0367033
51
169.6002779
0
ARC
8
DEFAULT_255_1_388
10
17.7876064
20
134.4631336
40
0.5220662
50
136.7831557
51
155.2472983
0
ARC
8
DEFAULT_255_1_388
10
17.7437854
20
134.5003577
40
0.4646502
50
121.7633063
51
136.4281161
0
ARC
8
DEFAULT_255_1_388
10
17.7589694
20
134.4723049
40
0.4964979
50
95.6460018
51
121.5489589
0
ARC
8
DEFAULT_255_1_388
10
17.7766668
20
134.3475704
40
0.6223912
50
89.9245727
51
96.1375919
0
ARC
8
DEFAULT_255_1_388
10
17.7823374
20
134.3609721
40
0.6090084
50
76.6779212
51
90.456405
0
ARC
8
DEFAULT_255_1_388
10
17.8266186
20
134.539906
40
0.42469
50
47.4858803
51
76.9287069
0
ARC
8
DEFAULT_255_1_388
10
17.81008
20
134.5286623
40
0.4441778
50
16.5424081
51
46.8934505
0
ARC
8
DEFAULT_255_1_388
10
17.629185
20
134.4692265
40
0.6345318
50
5.4072971
51
17.0363711
0
ARC
8
DEFAULT_255_1_388
10
17.4673575
20
134.4432304
40
0.6250632
50
7.8888693
51
15.9242022
0
ARC
8
DEFAULT_255_1_388
10
17.690856
20
134.5081309
40
0.3923364
50
15.7650676
51
27.9410069
0
ARC
8
DEFAULT_255_1_388
10
17.815073
20
134.5746317
40
0.2514401
50
27.8167196
51
46.4007942
0
ARC
8
DEFAULT_255_1_388
10
17.8206571
20
134.5739882
40
0.2480958
50
47.4372362
51
75.0695672
0
ARC
8
DEFAULT_255_1_388
10
17.7859407
20
134.4531277
40
0.3738281
50
74.7009379
51
87.8124314
0
ARC
8
DEFAULT_255_1_388
10
17.7777024
20
134.3347659
40
0.4924321
50
87.3802571
51
90.0251599
0
ARC
8
DEFAULT_255_1_388
10
17.7733671
20
134.4667997
40
0.3604218
50
89.3451886
51
108.5744412
0
ARC
8
DEFAULT_255_1_388
10
17.7579664
20
134.5245836
40
0.3007661
50
109.2998307
51
143.3037387
0
ARC
8
DEFAULT_255_1_388
10
17.8436953
20
134.4586584
40
0.4089031
50
143.075267
51
163.1918576
0
ARC
8
DEFAULT_255_1_388
10
18.0632788
20
134.3893652
40
0.6391492
50
162.9375929
51
174.6208776
0
ARC
8
DEFAULT_255_1_388
10
18.358717
20
134.3569711
40
0.9363344
50
174.342123
51
180.1430283
0
ARC
8
DEFAULT_255_1_388
10
18.2539711
20
134.2226117
40
0.8315986
50
179.6817261
51
189.150555
0
ARC
8
DEFAULT_255_1_388
10
17.972646
20
134.1757559
40
0.5464044
50
188.9911061
51
203.5772363
0
ARC
8
DEFAULT_255_1_388
10
17.8511752
20
134.1253539
40
0.4149206
50
203.9075402
51
215.1312435
0
ARC
8
DEFAULT_255_1_388
10
17.7473549
20
134.0448907
40
0.2837747
50
213.9071511
51
263.8848919
0
ARC
8
DEFAULT_255_1_388
10
17.7614543
20
134.1331519
40
0.3730641
50
263.1757928
51
270.1031044
0
ARC
8
DEFAULT_255_1_388
10
17.7650622
20
134.2734511
40
0.5133712
50
269.6722503
51
279.0606936
0
ARC
8
DEFAULT_255_1_388
10
17.7950778
20
134.092015
40
0.3294739
50
278.8749101
51
293.6349581
0
ARC
8
DEFAULT_255_1_388
10
17.8310981
20
134.0074251
40
0.2375405
50
293.8553806
51
310.0518171
0
ARC
8
DEFAULT_255_1_388
10
17.831649
20
134.0004021
40
0.2318463
50
311.0644687
51
332.0111037
0
ARC
8
DEFAULT_255_1_388
10
17.6975163
20
134.0743702
40
0.3850112
50
331.6586806
51
343.2877423
0
ARC
8
DEFAULT_255_1_388
10
17.4654629
20
134.1456806
40
0.6277712
50
343.1446576
51
351.0103568
0
ARC
8
DEFAULT_255_1_388
10
17.3021952
20
134.1756873
40
0.7937327
50
350.71248
51
351.1626997
0
LINE
8
DEFAULT_255_2_778
10
9.3932417
20
124.2219075
11
10.7161417
21
124.2219075
0
LINE
8
DEFAULT_255_2_778
10
10.7161417
20
124.2219075
11
10.7161417
21
67.3365075
0
LINE
8
DEFAULT_255_2_778
10
9.3932834
20
67.3364333
11
12.0390834
21
67.3364333
0
LINE
8
DEFAULT_255_2_778
10
12.0390834
20
67.3364333
11
12.0390834
21
62.0447333
0
LINE
8
DEFAULT_255_2_778
10
12.0390834
20
62.0447333
11
9.3932834
21
62.0447333
0
LINE
8
DEFAULT_255_2_778
10
9.3932834
20
62.0447333
11
9.3932834
21
67.3364333
0
ARC
8
DEFAULT_255_2_778_1
10
13.1928591
20
62.147177
40
4.816461
50
120.9442904
51
122.351755
0
ARC
8
DEFAULT_255_2_778_1
10
12.7462523
20
62.8508039
40
3.9830657
50
122.3407904
51
124.1946752
0
ARC
8
DEFAULT_255_2_778_1
10
12.3063464
20
63.4973306
40
3.2010724
50
124.1855758
51
126.4338849
0
ARC
8
DEFAULT_255_2_778_1
10
11.9204129
20
64.0200611
40
2.5513094
50
126.4326926
51
128.8877368
0
ARC
8
DEFAULT_255_2_778_1
10
11.5855968
20
64.4344658
40
2.0185498
50
128.8749205
51
131.8726567
0
ARC
8
DEFAULT_255_2_778_1
10
11.2884677
20
64.7654854
40
1.5737356
50
131.8616166
51
135.4168838
0
ARC
8
DEFAULT_255_2_778_1
10
11.025668
20
65.0236765
40
1.2053256
50
135.3893975
51
139.9687014
0
ARC
8
DEFAULT_255_2_778_1
10
10.7927889
20
65.2185102
40
0.9016937
50
139.9301659
51
145.9260426
0
ARC
8
DEFAULT_255_2_778_1
10
10.596654
20
65.3505104
40
0.6652776
50
145.8787362
51
153.8146208
0
ARC
8
DEFAULT_255_2_778_1
10
10.4445553
20
65.4248797
40
0.4959714
50
153.770634
51
164.3484794
0
ARC
8
DEFAULT_255_2_778_1
10
10.3432387
20
65.4530786
40
0.3908039
50
164.3220276
51
179.8083066
0
ARC
8
DEFAULT_255_2_778_1
10
10.3642789
20
65.461215
40
0.4118985
50
180.9499449
51
213.8111542
0
ARC
8
DEFAULT_255_2_778_1
10
10.6401828
20
65.6307896
40
0.73561
50
212.8271214
51
224.258472
0
ARC
8
DEFAULT_255_2_778_1
10
11.0230335
20
66.0001236
40
1.267567
50
224.1376218
51
231.4508261
0
ARC
8
DEFAULT_255_2_778_1
10
11.6657195
20
66.8031168
40
2.2960809
50
231.3955893
51
236.1256478
0
ARC
8
DEFAULT_255_2_778_1
10
13.4980223
20
69.5496293
40
5.5976905
50
236.2233172
51
239.1314682
0
ARC
8
DEFAULT_255_2_778_1
10
25.447927
20
89.2773568
40
28.6623793
50
238.8606853
51
239.0711101
0
ARC
8
DEFAULT_255_2_778_1
10
6.2757281
20
57.1802653
40
8.7248518
50
57.2420924
51
59.4062964
0
ARC
8
DEFAULT_255_2_778_1
10
9.5034241
20
62.2112102
40
2.747542
50
52.8289294
51
57.079028
0
ARC
8
DEFAULT_255_2_778_1
10
10.2780783
20
63.2315488
40
1.466457
50
46.3041868
51
52.8596521
0
ARC
8
DEFAULT_255_2_778_1
10
10.7103073
20
63.6816842
40
0.8424061
50
36.2174211
51
46.4090895
0
ARC
8
DEFAULT_255_2_778_1
10
10.9948088
20
63.8865128
40
0.4918609
50
17.400375
51
36.5489745
0
ARC
8
DEFAULT_255_2_778_1
10
11.1088994
20
63.9263754
40
0.3710912
50
0.0676858
51
16.7951297
0
ARC
8
DEFAULT_255_2_778_1
10
11.0878613
20
63.9282428
40
0.3921317
50
343.8035191
51
359.7912046
0
ARC
8
DEFAULT_255_2_778_1
10
10.9815912
20
63.9587167
40
0.5026844
50
333.2506233
51
343.8465691
0
ARC
8
DEFAULT_255_2_778_1
10
10.8277757
20
64.0354313
40
0.6745679
50
325.6600948
51
333.3122657
0
ARC
8
DEFAULT_255_2_778_1
10
10.6323344
20
64.1682296
40
0.9108568
50
319.7560915
51
325.6976089
0
ARC
8
DEFAULT_255_2_778_1
10
10.404199
20
64.3600002
40
1.2088854
50
315.4577584
51
319.8037947
0
ARC
8
DEFAULT_255_2_778_1
10
10.1408127
20
64.6188507
40
1.5781764
50
311.7298824
51
315.4670864
0
ARC
8
DEFAULT_255_2_778_1
10
9.8317879
20
64.9644074
40
2.0417554
50
308.723055
51
311.7470879
0
ARC
8
DEFAULT_255_2_778_1
10
9.477589
20
65.4056492
40
2.6075745
50
306.1165163
51
308.7300151
0
ARC
8
DEFAULT_255_2_778_1
10
9.0746091
20
65.9569523
40
3.2904564
50
303.9559446
51
306.1266333
0
ARC
8
DEFAULT_255_2_778_1
10
8.6630432
20
66.566215
40
4.0257023
50
302.3733397
51
303.9712246
0
ARC
8
DEFAULT_255_2_778_1
10
8.2434347
20
67.2277058
40
4.8090549
50
300.9434827
51
302.3758078
0
LINE
8
DEFAULT_255_2_778
10
10.7161417
20
62.0448075
11
10.7161417
21
5.1594075
0
LINE
8
DEFAULT_255_2_778
10
10.7161417
20
5.1594075
11
9.3932417
21
5.1594075
0
LINE
8
DEFAULT_255_1_388
10
4.8826318
20
131.7883382
11
4.8826318
21
131.6519
0
LINE
8
DEFAULT_255_1_388
10
4.8826318
20
131.6519
11
4.0206313
21
131.6519
0
LINE
8
DEFAULT_255_1_388
10
4.0206313
20
131.6519
11
4.0206313
21
131.7720741
0
LINE
8
DEFAULT_255_1_388
10
4.0206313
20
131.7720741
11
4.4760278
21
132.2780702
0
LINE
8
DEFAULT_255_1_388
10
4.1624909
20
132.5798607
11
3.9953315
21
132.5798607
0
LINE
8
DEFAULT_255_1_388
10
4.5745163
20
132.170546
11
4.2221262
21
131.7883382
0
LINE
8
DEFAULT_255_1_388
10
4.2221262
20
131.7883382
11
4.8826318
21
131.7883382
0
ARC
8
DEFAULT_255_1_388
10
2.9584337
20
133.6200983
40
2.0258655
50
318.5132526
51
320.7829045
0
ARC
8
DEFAULT_255_1_388
10
3.5532294
20
133.1359929
40
1.2589638
50
320.7372878
51
323.9739031
0
ARC
8
DEFAULT_255_1_388
10
3.9941226
20
132.8165554
40
0.7145141
50
323.8962701
51
328.64194
0
ARC
8
DEFAULT_255_1_388
10
4.2243484
20
132.6745545
40
0.4440242
50
328.8294576
51
331.7891185
0
ARC
8
DEFAULT_255_1_388
10
4.3365804
20
132.6166374
40
0.3177517
50
331.4254512
51
352.9365785
0
ARC
8
DEFAULT_255_1_388
10
4.3518804
20
132.613205
40
0.3021496
50
353.2257659
51
0.0166158
0
ARC
8
DEFAULT_255_1_388
10
4.3755564
20
132.6157894
40
0.2784847
50
359.486299
51
15.9343185
0
ARC
8
DEFAULT_255_1_388
10
4.4325831
20
132.6311269
40
0.2194403
50
16.1712913
51
43.5286088
0
ARC
8
DEFAULT_255_1_388
10
4.4412776
20
132.6398191
40
0.2071504
50
43.4417391
51
83.1661095
0
ARC
8
DEFAULT_255_1_388
10
4.4261937
20
132.5569316
40
0.2912888
50
82.160179
51
90.1505708
0
ARC
8
DEFAULT_255_1_388
10
4.4226418
20
132.4965279
40
0.3517025
50
89.5460741
51
102.5418361
0
ARC
8
DEFAULT_255_1_388
10
4.3953138
20
132.6124933
40
0.2325748
50
102.1738499
51
129.206123
0
ARC
8
DEFAULT_255_1_388
10
4.3864592
20
132.6264664
40
0.2161591
50
129.72865
51
135.753947
0
ARC
8
DEFAULT_255_1_388
10
4.4001074
20
132.6155728
40
0.2335433
50
136.1757367
51
166.3673339
0
ARC
8
DEFAULT_255_1_388
10
4.5133762
20
132.5852148
40
0.3507873
50
165.9090694
51
178.8684636
0
ARC
8
DEFAULT_255_1_388
10
4.6109534
20
132.5799263
40
0.4484624
50
178.4391136
51
180.0083808
0
ARC
8
DEFAULT_255_1_388
10
4.4530235
20
132.5843197
40
0.4577138
50
163.2878482
51
180.5581842
0
ARC
8
DEFAULT_255_1_388
10
4.3628276
20
132.6091393
40
0.3641968
50
133.4540601
51
162.947111
0
ARC
8
DEFAULT_255_1_388
10
4.3829158
20
132.5877789
40
0.3935189
50
100.7869829
51
133.4382499
0
ARC
8
DEFAULT_255_1_388
10
4.4220403
20
132.4135399
40
0.5720313
50
89.660664
51
101.3702276
0
ARC
8
DEFAULT_255_1_388
10
4.4295012
20
132.4204263
40
0.5651495
50
78.2172678
51
90.412935
0
ARC
8
DEFAULT_255_1_388
10
4.4694478
20
132.6031511
40
0.378122
50
55.9269121
51
78.4888449
0
ARC
8
DEFAULT_255_1_388
10
4.4915193
20
132.6412187
40
0.3342379
50
47.929771
51
55.4049217
0
ARC
8
DEFAULT_255_1_388
10
4.5029723
20
132.6528618
40
0.3179217
50
4.334829
51
48.0560205
0
ARC
8
DEFAULT_255_1_388
10
4.3797525
20
132.6337487
40
0.442341
50
359.9251713
51
5.5971671
0
ARC
8
DEFAULT_255_1_388
10
4.427968
20
132.6400728
40
0.3941854
50
337.8914027
51
358.9967534
0
ARC
8
DEFAULT_255_1_388
10
4.122725
20
132.7578295
40
0.7213271
50
326.9132501
51
338.3508308
0
ARC
8
DEFAULT_255_1_388
10
3.6743362
20
133.0452105
40
1.2538973
50
319.6471833
51
327.0959558
0
ARC
8
DEFAULT_255_1_388
10
3.243002
20
133.401005
40
1.8129975
50
317.2588228
51
319.9045804
0
LINE
8
DEFAULT_255_1_388
10
5.7654143
20
132.9674898
11
5.7654143
21
132.093743
0
LINE
8
DEFAULT_255_1_388
10
5.7654143
20
132.093743
11
5.9479343
21
132.093743
0
LINE
8
DEFAULT_255_1_388
10
5.9479343
20
132.093743
11
5.9479343
21
131.9573048
0
LINE
8
DEFAULT_255_1_388
10
5.9479343
20
131.9573048
11
5.7654143
21
131.9573048
0
LINE
8
DEFAULT_255_1_388
10
5.7654143
20
131.9573048
11
5.7654143
21
131.6519
0
LINE
8
DEFAULT_255_1_388
10
5.7654143
20
131.6519
11
5.5973513
21
131.6519
0
LINE
8
DEFAULT_255_1_388
10
5.5973513
20
131.6519
11
5.5973513
21
131.9573048
0
LINE
8
DEFAULT_255_1_388
10
5.5973513
20
131.9573048
11
4.998288
21
131.9573048
0
LINE
8
DEFAULT_255_1_388
10
4.998288
20
131.9573048
11
4.998288
21
132.0557933
0
LINE
8
DEFAULT_255_1_388
10
4.998288
20
132.0557933
11
5.5874121
21
132.9674898
0
LINE
8
DEFAULT_255_1_388
10
5.5874121
20
132.9674898
11
5.7654143
21
132.9674898
0
LINE
8
DEFAULT_255_1_388
10
5.5774729
20
132.7027455
11
5.1880366
21
132.093743
0
LINE
8
DEFAULT_255_1_388
10
5.1880366
20
132.093743
11
5.5973513
21
132.093743
0
LINE
8
DEFAULT_255_1_388
10
5.5973513
20
132.093743
11
5.5973513
21
132.738888
0
LINE
8
DEFAULT_255_1_388
10
5.5973513
20
132.738888
11
5.5774729
21
132.7027455
0
LINE
8
DEFAULT_255_1_388
10
6.203643
20
132.9674898
11
6.5777187
21
131.8823089
0
LINE
8
DEFAULT_255_1_388
10
6.5777187
20
131.8823089
11
6.9536015
21
132.9674898
0
LINE
8
DEFAULT_255_1_388
10
6.9536015
20
132.9674898
11
7.14335
21
132.9674898
0
LINE
8
DEFAULT_255_1_388
10
7.14335
20
132.9674898
11
6.6554252
21
131.6519
0
LINE
8
DEFAULT_255_1_388
10
6.6554252
20
131.6519
11
6.5018193
21
131.6519
0
LINE
8
DEFAULT_255_1_388
10
6.5018193
20
131.6519
11
6.014798
21
132.9674898
0
LINE
8
DEFAULT_255_1_388
10
6.014798
20
132.9674898
11
6.203643
21
132.9674898
0
LINE
8
DEFAULT_255_1_388
10
4.9832637
20
4.6519
11
4.8576682
21
4.9952545
0
LINE
8
DEFAULT_255_1_388
10
4.8576682
20
4.9952545
11
4.3064939
21
4.9952545
0
LINE
8
DEFAULT_255_1_388
10
4.3064939
20
4.9952545
11
4.1827056
21
4.6519
0
LINE
8
DEFAULT_255_1_388
10
4.1827056
20
4.6519
11
4.0037998
21
4.6519
0
LINE
8
DEFAULT_255_1_388
10
4.0037998
20
4.6519
11
4.5061816
21
5.9674898
0
LINE
8
DEFAULT_255_1_388
10
4.5061816
20
5.9674898
11
4.6579805
21
5.9674898
0
LINE
8
DEFAULT_255_1_388
10
4.6579805
20
5.9674898
11
5.1612659
21
4.6519
0
LINE
8
DEFAULT_255_1_388
10
5.1612659
20
4.6519
11
4.9832637
21
4.6519
0
LINE
8
DEFAULT_255_1_388
10
4.5820811
20
5.7533451
11
4.3589006
21
5.1380177
0
LINE
8
DEFAULT_255_1_388
10
4.3589006
20
5.1380177
11
4.806165
21
5.1380177
0
LINE
8
DEFAULT_255_1_388
10
4.806165
20
5.1380177
11
4.5820811
21
5.7533451
0
LINE
8
DEFAULT_255_1_388
10
5.5244988
20
5.9674898
11
5.5244988
21
4.6519
0
LINE
8
DEFAULT_255_1_388
10
5.5244988
20
4.6519
11
5.3510144
21
4.6519
0
LINE
8
DEFAULT_255_1_388
10
5.3510144
20
4.6519
11
5.3510144
21
5.9674898
0
LINE
8
DEFAULT_255_1_388
10
5.3510144
20
5.9674898
11
5.5244988
21
5.9674898
0
LINE
8
DEFAULT_255_1_388
10
6.347646
20
5.9738148
11
6.347646
21
4.6519
0
LINE
8
DEFAULT_255_1_388
10
6.347646
20
4.6519
11
6.179583
21
4.6519
0
LINE
8
DEFAULT_255_1_388
10
6.179583
20
4.6519
11
6.179583
21
5.765995
0
LINE
8
DEFAULT_255_1_388
10
6.179583
20
5.765995
11
5.8425535
21
5.6422066
0
LINE
8
DEFAULT_255_1_388
10
5.8425535
20
5.6422066
11
5.8425535
21
5.7940055
0
LINE
8
DEFAULT_255_1_388
10
5.8425535
20
5.7940055
11
6.3214426
21
5.9738148
0
LINE
8
DEFAULT_255_1_388
10
6.3214426
20
5.9738148
11
6.347646
21
5.9738148
0
LINE
8
DEFAULT_255_1_388
10
7.0479084
20
5.2771666
11
6.9141809
21
5.3115021
0
LINE
8
DEFAULT_255_1_388
10
6.9141809
20
5.3115021
11
6.9810447
21
5.9674898
0
LINE
8
DEFAULT_255_1_388
10
6.9810447
20
5.9674898
11
7.6551038
21
5.9674898
0
LINE
8
DEFAULT_255_1_388
10
7.6551038
20
5.9674898
11
7.6551038
21
5.8129803
0
LINE
8
DEFAULT_255_1_388
10
7.6551038
20
5.8129803
11
7.1229043
21
5.8129803
0
LINE
8
DEFAULT_255_1_388
10
7.1229043
20
5.8129803
11
7.0831475
21
5.4542652
0
LINE
8
DEFAULT_255_1_388
10
6.8671956
20
4.9979652
11
7.0253193
21
4.9979652
0
LINE
8
DEFAULT_255_1_388
10
7.0921831
20
5.3133092
11
7.0479084
21
5.2771666
0
ARC
8
DEFAULT_255_1_388
10
7.2918088
20
5.0965241
40
0.4141476
50
93.7181681
51
120.253934
0
ARC
8
DEFAULT_255_1_388
10
7.302414
20
5.0056284
40
0.5055616
50
89.9660471
51
94.2495185
0
ARC
8
DEFAULT_255_1_388
10
7.3069962
20
5.0719154
40
0.4392953
50
73.8045384
51
90.5585736
0
ARC
8
DEFAULT_255_1_388
10
7.333422
20
5.168452
40
0.3392225
50
41.3071072
51
73.543002
0
ARC
8
DEFAULT_255_1_388
10
7.286604
20
5.1281461
40
0.4009977
50
13.5075837
51
41.2174839
0
ARC
8
DEFAULT_255_1_388
10
7.1019137
20
5.0797907
40
0.5918864
50
1.1330171
51
13.8830737
0
ARC
8
DEFAULT_255_1_388
10
6.9422783
20
5.0712522
40
0.7516787
50
359.9925091
51
1.5431298
0
ARC
8
DEFAULT_255_1_388
10
7.0867398
20
5.0666027
40
0.6072343
50
347.8572712
51
0.4294349
0
ARC
8
DEFAULT_255_1_388
10
7.2836533
20
5.0219898
40
0.4053482
50
323.6727442
51
348.1674594
0
ARC
8
DEFAULT_255_1_388
10
7.3167497
20
5.0018175
40
0.3667495
50
316.8171818
51
323.1486802
0
ARC
8
DEFAULT_255_1_388
10
7.3236621
20
4.9976612
40
0.358869
50
281.839603
51
316.5458142
0
ARC
8
DEFAULT_255_1_388
10
7.2813909
20
5.1726363
40
0.5388223
50
269.5770964
51
282.4214641
0
ARC
8
DEFAULT_255_1_388
10
7.2733829
20
5.148593
40
0.5147801
50
256.2425863
51
270.4486481
0
ARC
8
DEFAULT_255_1_388
10
7.2397357
20
5.0136124
40
0.3756708
50
228.9024379
51
256.33135
0
ARC
8
DEFAULT_255_1_388
10
7.2314337
20
5.0005054
40
0.360344
50
193.7536029
51
228.5272638
0
ARC
8
DEFAULT_255_1_388
10
7.3706902
20
5.0413463
40
0.5053599
50
184.9244437
51
194.4976052
0
ARC
8
DEFAULT_255_1_388
10
7.3923543
20
5.0453722
40
0.3700839
50
187.3596909
51
198.6733728
0
ARC
8
DEFAULT_255_1_388
10
7.2742787
20
5.0044373
40
0.2451195
50
198.4453795
51
217.7945479
0
ARC
8
DEFAULT_255_1_388
10
7.2409959
20
4.9808563
40
0.2043754
50
218.2887146
51
228.5613203
0
ARC
8
DEFAULT_255_1_388
10
7.2519966
20
4.9956902
40
0.2227819
50
228.9652423
51
258.1237049
0
ARC
8
DEFAULT_255_1_388
10
7.2751404
20
5.0947964
40
0.3245374
50
257.7260585
51
270.4013717
0
ARC
8
DEFAULT_255_1_388
10
7.2801902
20
5.0447255
40
0.2744726
50
269.4204315
51
286.420998
0
ARC
8
DEFAULT_255_1_388
10
7.2968957
20
4.9840705
40
0.2115721
50
286.7250065
51
320.6004665
0
ARC
8
DEFAULT_255_1_388
10
7.2537873
20
5.0190527
40
0.2670878
50
320.6712228
51
344.5440474
0
ARC
8
DEFAULT_255_1_388
10
7.1236587
20
5.0572394
40
0.4026927
50
344.241448
51
356.735803
0
ARC
8
DEFAULT_255_1_388
10
6.9832894
20
5.0688656
40
0.5435085
50
356.3547471
51
0.0507222
0
ARC
8
DEFAULT_255_1_388
10
7.1335159
20
5.0723812
40
0.3932934
50
359.5579289
51
12.9534322
0
ARC
8
DEFAULT_255_1_388
10
7.2521999
20
5.1011586
40
0.2711827
50
12.6489751
51
41.608121
0
ARC
8
DEFAULT_255_1_388
10
7.2781159
20
5.1231946
40
0.2371737
50
41.7851122
51
85.9892156
0
ARC
8
DEFAULT_255_1_388
10
7.2642469
20
5.0316738
40
0.3295244
50
84.6965848
51
90.0672125
0
ARC
8
DEFAULT_255_1_388
10
7.2616037
20
4.9565118
40
0.4046926
50
89.6804991
51
99.161352
0
ARC
8
DEFAULT_255_1_388
10
7.2385046
20
5.0945848
40
0.2647044
50
98.9836248
51
113.8905702
0
ARC
8
DEFAULT_255_1_388
10
7.2126721
20
5.1555118
40
0.1985386
50
114.195234
51
127.3641866
0
LINE
8
DEFAULT_255_1_388
10
5.1155637
20
12.5894
11
4.9899682
21
12.9327545
0
LINE
8
DEFAULT_255_1_388
10
4.9899682
20
12.9327545
11
4.4387939
21
12.9327545
0
LINE
8
DEFAULT_255_1_388
10
4.4387939
20
12.9327545
11
4.3150056
21
12.5894
0
LINE
8
DEFAULT_255_1_388
10
4.3150056
20
12.5894
11
4.1360998
21
12.5894
0
LINE
8
DEFAULT_255_1_388
10
4.1360998
20
12.5894
11
4.6384816
21
13.9049898
0
LINE
8
DEFAULT_255_1_388
10
4.6384816
20
13.9049898
11
4.7902805
21
13.9049898
0
LINE
8
DEFAULT_255_1_388
10
4.7902805
20
13.9049898
11
5.2935659
21
12.5894
0
LINE
8
DEFAULT_255_1_388
10
5.2935659
20
12.5894
11
5.1155637
21
12.5894
0
LINE
8
DEFAULT_255_1_388
10
4.7143811
20
13.6908451
11
4.4912006
21
13.0755177
0
LINE
8
DEFAULT_255_1_388
10
4.4912006
20
13.0755177
11
4.938465
21
13.0755177
0
LINE
8
DEFAULT_255_1_388
10
4.938465
20
13.0755177
11
4.7143811
21
13.6908451
0
LINE
8
DEFAULT_255_1_388
10
5.6567988
20
13.9049898
11
5.6567988
21
12.5894
0
LINE
8
DEFAULT_255_1_388
10
5.6567988
20
12.5894
11
5.4833144
21
12.5894
0
LINE
8
DEFAULT_255_1_388
10
5.4833144
20
12.5894
11
5.4833144
21
13.9049898
0
LINE
8
DEFAULT_255_1_388
10
5.4833144
20
13.9049898
11
5.6567988
21
13.9049898
0
LINE
8
DEFAULT_255_1_388
10
6.479946
20
13.9113148
11
6.479946
21
12.5894
0
LINE
8
DEFAULT_255_1_388
10
6.479946
20
12.5894
11
6.311883
21
12.5894
0
LINE
8
DEFAULT_255_1_388
10
6.311883
20
12.5894
11
6.311883
21
13.703495
0
LINE
8
DEFAULT_255_1_388
10
6.311883
20
13.703495
11
5.9748535
21
13.5797066
0
LINE
8
DEFAULT_255_1_388
10
5.9748535
20
13.5797066
11
5.9748535
21
13.7315055
0
LINE
8
DEFAULT_255_1_388
10
5.9748535
20
13.7315055
11
6.4537426
21
13.9113148
0
LINE
8
DEFAULT_255_1_388
10
6.4537426
20
13.9113148
11
6.479946
21
13.9113148
0
LINE
8
DEFAULT_255_1_388
10
7.6753618
20
13.9049898
11
7.6753618
21
13.031243
0
LINE
8
DEFAULT_255_1_388
10
7.6753618
20
13.031243
11
7.8578818
21
13.031243
0
LINE
8
DEFAULT_255_1_388
10
7.8578818
20
13.031243
11
7.8578818
21
12.8948048
0
LINE
8
DEFAULT_255_1_388
10
7.8578818
20
12.8948048
11
7.6753618
21
12.8948048
0
LINE
8
DEFAULT_255_1_388
10
7.6753618
20
12.8948048
11
7.6753618
21
12.5894
0
LINE
8
DEFAULT_255_1_388
10
7.6753618
20
12.5894
11
7.5072988
21
12.5894
0
LINE
8
DEFAULT_255_1_388
10
7.5072988
20
12.5894
11
7.5072988
21
12.8948048
0
LINE
8
DEFAULT_255_1_388
10
7.5072988
20
12.8948048
11
6.9082355
21
12.8948048
0
LINE
8
DEFAULT_255_1_388
10
6.9082355
20
12.8948048
11
6.9082355
21
12.9932933
0
LINE
8
DEFAULT_255_1_388
10
6.9082355
20
12.9932933
11
7.4973596
21
13.9049898
0
LINE
8
DEFAULT_255_1_388
10
7.4973596
20
13.9049898
11
7.6753618
21
13.9049898
0
LINE
8
DEFAULT_255_1_388
10
7.4874204
20
13.6402455
11
7.0979841
21
13.031243
0
LINE
8
DEFAULT_255_1_388
10
7.0979841
20
13.031243
11
7.5072988
21
13.031243
0
LINE
8
DEFAULT_255_1_388
10
7.5072988
20
13.031243
11
7.5072988
21
13.676388
0
LINE
8
DEFAULT_255_1_388
10
7.5072988
20
13.676388
11
7.4874204
21
13.6402455
0
LINE
8
DEFAULT_255_1_388
10
4.9832637
20
20.5269
11
4.8576682
21
20.8702545
0
LINE
8
DEFAULT_255_1_388
10
4.8576682
20
20.8702545
11
4.3064939
21
20.8702545
0
LINE
8
DEFAULT_255_1_388
10
4.3064939
20
20.8702545
11
4.1827056
21
20.5269
0
LINE
8
DEFAULT_255_1_388
10
4.1827056
20
20.5269
11
4.0037998
21
20.5269
0
LINE
8
DEFAULT_255_1_388
10
4.0037998
20
20.5269
11
4.5061816
21
21.8424898
0
LINE
8
DEFAULT_255_1_388
10
4.5061816
20
21.8424898
11
4.6579805
21
21.8424898
0
LINE
8
DEFAULT_255_1_388
10
4.6579805
20
21.8424898
11
5.1612659
21
20.5269
0
LINE
8
DEFAULT_255_1_388
10
5.1612659
20
20.5269
11
4.9832637
21
20.5269
0
LINE
8
DEFAULT_255_1_388
10
4.5820811
20
21.6283451
11
4.3589006
21
21.0130177
0
LINE
8
DEFAULT_255_1_388
10
4.3589006
20
21.0130177
11
4.806165
21
21.0130177
0
LINE
8
DEFAULT_255_1_388
10
4.806165
20
21.0130177
11
4.5820811
21
21.6283451
0
LINE
8
DEFAULT_255_1_388
10
5.5244988
20
21.8424898
11
5.5244988
21
20.5269
0
LINE
8
DEFAULT_255_1_388
10
5.5244988
20
20.5269
11
5.3510144
21
20.5269
0
LINE
8
DEFAULT_255_1_388
10
5.3510144
20
20.5269
11
5.3510144
21
21.8424898
0
LINE
8
DEFAULT_255_1_388
10
5.3510144
20
21.8424898
11
5.5244988
21
21.8424898
0
LINE
8
DEFAULT_255_1_388
10
6.347646
20
21.8488148
11
6.347646
21
20.5269
0
LINE
8
DEFAULT_255_1_388
10
6.347646
20
20.5269
11
6.179583
21
20.5269
0
LINE
8
DEFAULT_255_1_388
10
6.179583
20
20.5269
11
6.179583
21
21.640995
0
LINE
8
DEFAULT_255_1_388
10
6.179583
20
21.640995
11
5.8425535
21
21.5172066
0
LINE
8
DEFAULT_255_1_388
10
5.8425535
20
21.5172066
11
5.8425535
21
21.6690055
0
LINE
8
DEFAULT_255_1_388
10
5.8425535
20
21.6690055
11
6.3214426
21
21.8488148
0
LINE
8
DEFAULT_255_1_388
10
6.3214426
20
21.8488148
11
6.347646
21
21.8488148
0
LINE
8
DEFAULT_255_1_388
10
7.0804368
20
21.1295775
11
7.0804368
21
21.2660157
0
LINE
8
DEFAULT_255_1_388
10
7.0804368
20
21.2660157
11
7.2060322
21
21.2660157
0
LINE
8
DEFAULT_255_1_388
10
6.9918875
20
21.4973282
11
6.824728
21
21.4973282
0
LINE
8
DEFAULT_255_1_388
10
6.8129817
20
20.8738687
11
6.9810447
21
20.8738687
0
LINE
8
DEFAULT_255_1_388
10
7.2060322
20
21.1295775
11
7.0804368
21
21.1295775
0
ARC
8
DEFAULT_255_1_388
10
7.2027549
20
21.6476922
40
0.3816905
50
270.491971
51
281.8953028
0
ARC
8
DEFAULT_255_1_388
10
7.2298976
20
21.5237199
40
0.2547877
50
281.6690378
51
301.2943765
0
ARC
8
DEFAULT_255_1_388
10
7.2490427
20
21.4886926
40
0.2149197
50
301.7834992
51
311.754567
0
ARC
8
DEFAULT_255_1_388
10
7.2593468
20
21.477265
40
0.1995326
50
311.7325027
51
354.2803031
0
ARC
8
DEFAULT_255_1_388
10
7.1775884
20
21.491328
40
0.2823461
50
353.0941646
51
0.1174696
0
ARC
8
DEFAULT_255_1_388
10
7.1257442
20
21.4966874
40
0.3342238
50
359.1804452
51
15.0452323
0
ARC
8
DEFAULT_255_1_388
10
7.2771501
20
21.5408546
40
0.1765747
50
13.957816
51
77.6713812
0
ARC
8
DEFAULT_255_1_388
10
7.2336736
20
21.3850464
40
0.3381982
50
76.111571
51
90.7028736
0
ARC
8
DEFAULT_255_1_388
10
7.2270149
20
21.415825
40
0.3074046
50
89.5321574
51
103.5319393
0
ARC
8
DEFAULT_255_1_388
10
7.2044532
20
21.5057443
40
0.2147041
50
103.2930114
51
133.5619756
0
ARC
8
DEFAULT_255_1_388
10
7.1994474
20
21.5124351
40
0.2064084
50
133.8349761
51
173.5343225
0
ARC
8
DEFAULT_255_1_388
10
7.2808131
20
21.4980144
40
0.2889266
50
172.5097183
51
180.1360699
0
ARC
8
DEFAULT_255_1_388
10
7.1737895
20
21.501888
40
0.3490913
50
155.3483706
51
180.7484035
0
ARC
8
DEFAULT_255_1_388
10
7.1682871
20
21.4986519
40
0.3454798
50
131.5745177
51
154.4799474
0
ARC
8
DEFAULT_255_1_388
10
7.2035153
20
21.4630422
40
0.3955058
50
96.9874487
51
131.9690874
0
ARC
8
DEFAULT_255_1_388
10
7.2282046
20
21.3229407
40
0.537622
50
89.8592909
51
97.7827481
0
ARC
8
DEFAULT_255_1_388
10
7.2336155
20
21.293436
40
0.5671399
50
78.3654493
51
90.4132586
0
ARC
8
DEFAULT_255_1_388
10
7.2738796
20
21.4800918
40
0.3762034
50
56.6229818
51
78.6387103
0
ARC
8
DEFAULT_255_1_388
10
7.2980625
20
21.5223846
40
0.3275964
50
47.0254604
51
56.085558
0
ARC
8
DEFAULT_255_1_388
10
7.3002876
20
21.5268189
40
0.3228382
50
10.9207523
51
46.777927
0
ARC
8
DEFAULT_255_1_388
10
7.146847
20
21.4913401
40
0.4802559
50
359.6364235
51
11.6087615
0
ARC
8
DEFAULT_255_1_388
10
7.3532636
20
21.4896404
40
0.273833
50
332.3549969
51
359.7179765
0
ARC
8
DEFAULT_255_1_388
10
7.2801037
20
21.5243285
40
0.3547505
50
325.2332381
51
332.8746682
0
ARC
8
DEFAULT_255_1_388
10
7.2972619
20
21.5123763
40
0.3338396
50
292.9803892
51
325.2391113
0
ARC
8
DEFAULT_255_1_388
10
7.2661815
20
21.5728679
40
0.4016959
50
292.542178
51
293.6931461
0
ARC
8
DEFAULT_255_1_388
10
7.3105387
20
20.8463036
40
0.372079
50
57.643292
51
72.8626085
0
ARC
8
DEFAULT_255_1_388
10
7.3504222
20
20.9109273
40
0.2961455
50
36.7246661
51
57.4701329
0
ARC
8
DEFAULT_255_1_388
10
7.3491378
20
20.912347
40
0.2963321
50
8.054535
51
36.3561529
0
ARC
8
DEFAULT_255_1_388
10
7.2521051
20
20.8949073
40
0.3948682
50
359.8316595
51
8.5873361
0
ARC
8
DEFAULT_255_1_388
10
7.2098525
20
20.889497
40
0.4371398
50
343.9831631
51
0.557075
0
ARC
8
DEFAULT_255_1_388
10
7.3095575
20
20.8621963
40
0.3337749
50
311.6358204
51
343.7652116
0
ARC
8
DEFAULT_255_1_388
10
7.2669829
20
20.9101955
40
0.3979351
50
279.7829743
51
311.625622
0
ARC
8
DEFAULT_255_1_388
10
7.2330964
20
21.0718642
40
0.5630417
50
269.7285092
51
280.3857694
0
ARC
8
DEFAULT_255_1_388
10
7.2261277
20
21.0672241
40
0.5584119
50
256.6827433
51
270.4412869
0
ARC
8
DEFAULT_255_1_388
10
7.1880263
20
20.9114698
40
0.3980715
50
229.4223821
51
256.8554507
0
ARC
8
DEFAULT_255_1_388
10
7.1413817
20
20.8589683
40
0.3278564
50
181.8183354
51
229.6455015
0
ARC
8
DEFAULT_255_1_388
10
7.2583426
20
20.8736825
40
0.4453611
50
179.9760419
51
183.2330638
0
ARC
8
DEFAULT_255_1_388
10
7.2389979
20
20.8713781
40
0.2579652
50
179.4467996
51
196.2871626
0
ARC
8
DEFAULT_255_1_388
10
7.1841432
20
20.8563709
40
0.2011057
50
196.5661293
51
227.7059371
0
ARC
8
DEFAULT_255_1_388
10
7.2026039
20
20.8770155
40
0.2287994
50
227.7653015
51
257.8763321
0
ARC
8
DEFAULT_255_1_388
10
7.2279123
20
20.9830961
40
0.3378385
50
257.4583525
51
270.4267406
0
ARC
8
DEFAULT_255_1_388
10
7.2330372
20
21.015723
40
0.3704652
50
269.5965319
51
280.8788143
0
ARC
8
DEFAULT_255_1_388
10
7.25886
20
20.8867529
40
0.2389415
50
280.6347277
51
299.8594068
0
ARC
8
DEFAULT_255_1_388
10
7.280337
20
20.8459736
40
0.19289
50
300.3575552
51
314.5515667
0
ARC
8
DEFAULT_255_1_388
10
7.2710046
20
20.8528025
40
0.204312
50
315.0730962
51
345.0429362
0
ARC
8
DEFAULT_255_1_388
10
7.1671553
20
20.8830539
40
0.31246
50
344.598526
51
357.9270698
0
ARC
8
DEFAULT_255_1_388
10
7.0661858
20
20.8899705
40
0.4136265
50
357.4755098
51
0.0224936
0
ARC
8
DEFAULT_255_1_388
10
7.1814735
20
20.8927099
40
0.2983498
50
359.5051035
51
13.4236939
0
ARC
8
DEFAULT_255_1_388
10
7.2789825
20
20.9176637
40
0.1977186
50
12.9497905
51
48.7550905
0
ARC
8
DEFAULT_255_1_388
10
7.2584747
20
20.8896373
40
0.2323321
50
49.509109
51
72.1832965
0
ARC
8
DEFAULT_255_1_388
10
7.2182216
20
20.7701632
40
0.358397
50
71.9008458
51
84.3555134
0
ARC
8
DEFAULT_255_1_388
10
7.200061
20
20.6169712
40
0.512641
50
84.019632
51
89.3326067
0
LINE
8
DEFAULT_255_1_388
10
4.9832637
20
28.4644
11
4.8576682
21
28.8077545
0
LINE
8
DEFAULT_255_1_388
10
4.8576682
20
28.8077545
11
4.3064939
21
28.8077545
0
LINE
8
DEFAULT_255_1_388
10
4.3064939
20
28.8077545
11
4.1827056
21
28.4644
0
LINE
8
DEFAULT_255_1_388
10
4.1827056
20
28.4644
11
4.0037998
21
28.4644
0
LINE
8
DEFAULT_255_1_388
10
4.0037998
20
28.4644
11
4.5061816
21
29.7799898
0
LINE
8
DEFAULT_255_1_388
10
4.5061816
20
29.7799898
11
4.6579805
21
29.7799898
0
LINE
8
DEFAULT_255_1_388
10
4.6579805
20
29.7799898
11
5.1612659
21
28.4644
0
LINE
8
DEFAULT_255_1_388
10
5.1612659
20
28.4644
11
4.9832637
21
28.4644
0
LINE
8
DEFAULT_255_1_388
10
4.5820811
20
29.5658451
11
4.3589006
21
28.9505177
0
LINE
8
DEFAULT_255_1_388
10
4.3589006
20
28.9505177
11
4.806165
21
28.9505177
0
LINE
8
DEFAULT_255_1_388
10
4.806165
20
28.9505177
11
4.5820811
21
29.5658451
0
LINE
8
DEFAULT_255_1_388
10
5.5244988
20
29.7799898
11
5.5244988
21
28.4644
0
LINE
8
DEFAULT_255_1_388
10
5.5244988
20
28.4644
11
5.3510144
21
28.4644
0
LINE
8
DEFAULT_255_1_388
10
5.3510144
20
28.4644
11
5.3510144
21
29.7799898
0
LINE
8
DEFAULT_255_1_388
10
5.3510144
20
29.7799898
11
5.5244988
21
29.7799898
0
LINE
8
DEFAULT_255_1_388
10
6.347646
20
29.7863148
11
6.347646
21
28.4644
0
LINE
8
DEFAULT_255_1_388
10
6.347646
20
28.4644
11
6.179583
21
28.4644
0
LINE
8
DEFAULT_255_1_388
10
6.179583
20
28.4644
11
6.179583
21
29.578495
0
LINE
8
DEFAULT_255_1_388
10
6.179583
20
29.578495
11
5.8425535
21
29.4547066
0
LINE
8
DEFAULT_255_1_388
10
5.8425535
20
29.4547066
11
5.8425535
21
29.6065055
0
LINE
8
DEFAULT_255_1_388
10
5.8425535
20
29.6065055
11
6.3214426
21
29.7863148
0
LINE
8
DEFAULT_255_1_388
10
6.3214426
20
29.7863148
11
6.347646
21
29.7863148
0
LINE
8
DEFAULT_255_1_388
10
7.6993784
20
28.6008382
11
7.6993784
21
28.4644
0
LINE
8
DEFAULT_255_1_388
10
7.6993784
20
28.4644
11
6.8373779
21
28.4644
0
LINE
8
DEFAULT_255_1_388
10
6.8373779
20
28.4644
11
6.8373779
21
28.5845741
0
LINE
8
DEFAULT_255_1_388
10
6.8373779
20
28.5845741
11
7.2927744
21
29.0905702
0
LINE
8
DEFAULT_255_1_388
10
6.9792375
20
29.3923607
11
6.8120781
21
29.3923607
0
LINE
8
DEFAULT_255_1_388
10
7.3912629
20
28.983046
11
7.0388728
21
28.6008382
0
LINE
8
DEFAULT_255_1_388
10
7.0388728
20
28.6008382
11
7.6993784
21
28.6008382
0
ARC
8
DEFAULT_255_1_388
10
5.7751804
20
30.4325983
40
2.0258655
50
318.5132526
51
320.7829045
0
ARC
8
DEFAULT_255_1_388
10
6.3699761
20
29.9484929
40
1.2589638
50
320.7372878
51
323.9739031
0
ARC
8
DEFAULT_255_1_388
10
6.8108692
20
29.6290554
40
0.7145141
50
323.8962701
51
328.64194
0
ARC
8
DEFAULT_255_1_388
10
7.041095
20
29.4870545
40
0.4440242
50
328.8294576
51
331.7891185
0
ARC
8
DEFAULT_255_1_388
10
7.153327
20
29.4291374
40
0.3177517
50
331.4254512
51
352.9365785
0
ARC
8
DEFAULT_255_1_388
10
7.168627
20
29.425705
40
0.3021496
50
353.2257659
51
0.0166158
0
ARC
8
DEFAULT_255_1_388
10
7.1923031
20
29.4282894
40
0.2784847
50
359.486299
51
15.9343185
0
ARC
8
DEFAULT_255_1_388
10
7.2493297
20
29.4436269
40
0.2194403
50
16.1712913
51
43.5286088
0
ARC
8
DEFAULT_255_1_388
10
7.2580242
20
29.4523191
40
0.2071504
50
43.4417391
51
83.1661095
0
ARC
8
DEFAULT_255_1_388
10
7.2429403
20
29.3694316
40
0.2912888
50
82.160179
51
90.1505708
0
ARC
8
DEFAULT_255_1_388
10
7.2393885
20
29.3090279
40
0.3517025
50
89.5460741
51
102.5418361
0
ARC
8
DEFAULT_255_1_388
10
7.2120605
20
29.4249933
40
0.2325748
50
102.1738499
51
129.206123
0
ARC
8
DEFAULT_255_1_388
10
7.2032058
20
29.4389664
40
0.2161591
50
129.72865
51
135.753947
0
ARC
8
DEFAULT_255_1_388
10
7.216854
20
29.4280728
40
0.2335433
50
136.1757367
51
166.3673339
0
ARC
8
DEFAULT_255_1_388
10
7.3301229
20
29.3977148
40
0.3507873
50
165.9090694
51
178.8684636
0
ARC
8
DEFAULT_255_1_388
10
7.4277
20
29.3924263
40
0.4484624
50
178.4391136
51
180.0083808
0
ARC
8
DEFAULT_255_1_388
10
7.2697702
20
29.3968197
40
0.4577138
50
163.2878482
51
180.5581842
0
ARC
8
DEFAULT_255_1_388
10
7.1795743
20
29.4216393
40
0.3641968
50
133.4540601
51
162.947111
0
ARC
8
DEFAULT_255_1_388
10
7.1996625
20
29.4002789
40
0.3935189
50
100.7869829
51
133.4382499
0
ARC
8
DEFAULT_255_1_388
10
7.238787
20
29.2260399
40
0.5720313
50
89.660664
51
101.3702276
0
ARC
8
DEFAULT_255_1_388
10
7.2462478
20
29.2329263
40
0.5651495
50
78.2172678
51
90.412935
0
ARC
8
DEFAULT_255_1_388
10
7.2861944
20
29.4156511
40
0.378122
50
55.9269121
51
78.4888449
0
ARC
8
DEFAULT_255_1_388
10
7.3082659
20
29.4537187
40
0.3342379
50
47.929771
51
55.4049217
0
ARC
8
DEFAULT_255_1_388
10
7.319719
20
29.4653618
40
0.3179217
50
4.334829
51
48.0560205
0
ARC
8
DEFAULT_255_1_388
10
7.1964991
20
29.4462487
40
0.442341
50
359.9251713
51
5.5971671
0
ARC
8
DEFAULT_255_1_388
10
7.2447146
20
29.4525728
40
0.3941854
50
337.8914027
51
358.9967534
0
ARC
8
DEFAULT_255_1_388
10
6.9394716
20
29.5703295
40
0.7213271
50
326.9132501
51
338.3508308
0
ARC
8
DEFAULT_255_1_388
10
6.4910828
20
29.8577105
40
1.2538973
50
319.6471833
51
327.0959558
0
ARC
8
DEFAULT_255_1_388
10
6.0597486
20
30.213505
40
1.8129975
50
317.2588228
51
319.9045804
0
LINE
8
DEFAULT_255_1_388
10
4.9757637
20
36.4019
11
4.8501682
21
36.7452545
0
LINE
8
DEFAULT_255_1_388
10
4.8501682
20
36.7452545
11
4.2989939
21
36.7452545
0
LINE
8
DEFAULT_255_1_388
10
4.2989939
20
36.7452545
11
4.1752056
21
36.4019
0
LINE
8
DEFAULT_255_1_388
10
4.1752056
20
36.4019
11
3.9962998
21
36.4019
0
LINE
8
DEFAULT_255_1_388
10
3.9962998
20
36.4019
11
4.4986816
21
37.7174898
0
LINE
8
DEFAULT_255_1_388
10
4.4986816
20
37.7174898
11
4.6504805
21
37.7174898
0
LINE
8
DEFAULT_255_1_388
10
4.6504805
20
37.7174898
11
5.1537659
21
36.4019
0
LINE
8
DEFAULT_255_1_388
10
5.1537659
20
36.4019
11
4.9757637
21
36.4019
0
LINE
8
DEFAULT_255_1_388
10
4.5745811
20
37.5033451
11
4.3514006
21
36.8880177
0
LINE
8
DEFAULT_255_1_388
10
4.3514006
20
36.8880177
11
4.798665
21
36.8880177
0
LINE
8
DEFAULT_255_1_388
10
4.798665
20
36.8880177
11
4.5745811
21
37.5033451
0
LINE
8
DEFAULT_255_1_388
10
5.5169988
20
37.7174898
11
5.5169988
21
36.4019
0
LINE
8
DEFAULT_255_1_388
10
5.5169988
20
36.4019
11
5.3435144
21
36.4019
0
LINE
8
DEFAULT_255_1_388
10
5.3435144
20
36.4019
11
5.3435144
21
37.7174898
0
LINE
8
DEFAULT_255_1_388
10
5.3435144
20
37.7174898
11
5.5169988
21
37.7174898
0
LINE
8
DEFAULT_255_1_388
10
6.340146
20
37.7238148
11
6.340146
21
36.4019
0
LINE
8
DEFAULT_255_1_388
10
6.340146
20
36.4019
11
6.172083
21
36.4019
0
LINE
8
DEFAULT_255_1_388
10
6.172083
20
36.4019
11
6.172083
21
37.515995
0
LINE
8
DEFAULT_255_1_388
10
6.172083
20
37.515995
11
5.8350535
21
37.3922066
0
LINE
8
DEFAULT_255_1_388
10
5.8350535
20
37.3922066
11
5.8350535
21
37.5440055
0
LINE
8
DEFAULT_255_1_388
10
5.8350535
20
37.5440055
11
6.3139426
21
37.7238148
0
LINE
8
DEFAULT_255_1_388
10
6.3139426
20
37.7238148
11
6.340146
21
37.7238148
0
LINE
8
DEFAULT_255_1_388
10
7.3792451
20
37.7238148
11
7.3792451
21
36.4019
0
LINE
8
DEFAULT_255_1_388
10
7.3792451
20
36.4019
11
7.2111821
21
36.4019
0
LINE
8
DEFAULT_255_1_388
10
7.2111821
20
36.4019
11
7.2111821
21
37.515995
0
LINE
8
DEFAULT_255_1_388
10
7.2111821
20
37.515995
11
6.8741526
21
37.3922066
0
LINE
8
DEFAULT_255_1_388
10
6.8741526
20
37.3922066
11
6.8741526
21
37.5440055
0
LINE
8
DEFAULT_255_1_388
10
6.8741526
20
37.5440055
11
7.3530417
21
37.7238148
0
LINE
8
DEFAULT_255_1_388
10
7.3530417
20
37.7238148
11
7.3792451
21
37.7238148
0
LINE
8
DEFAULT_255_1_388
10
4.9832637
20
44.3394
11
4.8576682
21
44.6827545
0
LINE
8
DEFAULT_255_1_388
10
4.8576682
20
44.6827545
11
4.3064939
21
44.6827545
0
LINE
8
DEFAULT_255_1_388
10
4.3064939
20
44.6827545
11
4.1827056
21
44.3394
0
LINE
8
DEFAULT_255_1_388
10
4.1827056
20
44.3394
11
4.0037998
21
44.3394
0
LINE
8
DEFAULT_255_1_388
10
4.0037998
20
44.3394
11
4.5061816
21
45.6549898
0
LINE
8
DEFAULT_255_1_388
10
4.5061816
20
45.6549898
11
4.6579805
21
45.6549898
0
LINE
8
DEFAULT_255_1_388
10
4.6579805
20
45.6549898
11
5.1612659
21
44.3394
0
LINE
8
DEFAULT_255_1_388
10
5.1612659
20
44.3394
11
4.9832637
21
44.3394
0
LINE
8
DEFAULT_255_1_388
10
4.5820811
20
45.4408451
11
4.3589006
21
44.8255177
0
LINE
8
DEFAULT_255_1_388
10
4.3589006
20
44.8255177
11
4.806165
21
44.8255177
0
LINE
8
DEFAULT_255_1_388
10
4.806165
20
44.8255177
11
4.5820811
21
45.4408451
0
LINE
8
DEFAULT_255_1_388
10
5.5244988
20
45.6549898
11
5.5244988
21
44.3394
0
LINE
8
DEFAULT_255_1_388
10
5.5244988
20
44.3394
11
5.3510144
21
44.3394
0
LINE
8
DEFAULT_255_1_388
10
5.3510144
20
44.3394
11
5.3510144
21
45.6549898
0
LINE
8
DEFAULT_255_1_388
10
5.3510144
20
45.6549898
11
5.5244988
21
45.6549898
0
LINE
8
DEFAULT_255_1_388
10
6.347646
20
45.6613148
11
6.347646
21
44.3394
0
LINE
8
DEFAULT_255_1_388
10
6.347646
20
44.3394
11
6.179583
21
44.3394
0
LINE
8
DEFAULT_255_1_388
10
6.179583
20
44.3394
11
6.179583
21
45.453495
0
LINE
8
DEFAULT_255_1_388
10
6.179583
20
45.453495
11
5.8425535
21
45.3297066
0
LINE
8
DEFAULT_255_1_388
10
5.8425535
20
45.3297066
11
5.8425535
21
45.4815055
0
LINE
8
DEFAULT_255_1_388
10
5.8425535
20
45.4815055
11
6.3214426
21
45.6613148
0
LINE
8
DEFAULT_255_1_388
10
6.3214426
20
45.6613148
11
6.347646
21
45.6613148
0
LINE
8
DEFAULT_255_1_388
10
7.6623323
20
45.117369
11
7.6623323
21
44.9005135
0
LINE
8
DEFAULT_255_1_388
10
6.8319565
20
44.8779244
11
6.8319565
21
45.1011048
0
LINE
8
DEFAULT_255_1_388
10
7.4951729
20
44.8553353
11
7.4951729
21
45.1291153
0
LINE
8
DEFAULT_255_1_388
10
6.999116
20
45.1417652
11
6.999116
21
44.8743102
0
ARC
8
DEFAULT_255_1_388
10
6.2845657
20
44.8950118
40
1.3777776
50
353.8440855
51
0.2287917
0
ARC
8
DEFAULT_255_1_388
10
6.8064674
20
44.8367414
40
0.852639
50
344.4934746
51
353.9763743
0
ARC
8
DEFAULT_255_1_388
10
7.1431481
20
44.7410191
40
0.5026273
50
329.2803599
51
344.7473406
0
ARC
8
DEFAULT_255_1_388
10
7.2546977
20
44.6798038
40
0.3754848
50
324.9361395
51
328.6153007
0
ARC
8
DEFAULT_255_1_388
10
7.2972627
20
44.6500586
40
0.3235566
50
280.5801797
51
324.9173226
0
ARC
8
DEFAULT_255_1_388
10
7.2521256
20
44.8380236
40
0.5167077
50
269.5979457
51
281.6732777
0
ARC
8
DEFAULT_255_1_388
10
7.2440159
20
44.8245113
40
0.5032026
50
256.6228565
51
270.5105488
0
ARC
8
DEFAULT_255_1_388
10
7.1987902
20
44.6503345
40
0.3233092
50
215.8618351
51
257.2787793
0
ARC
8
DEFAULT_255_1_388
10
7.3136609
20
44.7274106
40
0.4615831
50
197.9695203
51
215.2622745
0
ARC
8
DEFAULT_255_1_388
10
7.5932284
20
44.8217641
40
0.7566307
50
187.8816486
51
198.2346584
0
ARC
8
DEFAULT_255_1_388
10
8.0385523
20
44.8860453
40
1.2065653
50
180.8977266
51
188.0054894
0
ARC
8
DEFAULT_255_1_388
10
8.3435736
20
44.89754
40
1.5117443
50
180.7434591
51
181.152202
0
ARC
8
DEFAULT_255_1_388
10
8.1760732
20
45.1065371
40
1.3441277
50
173.7674302
51
180.2315596
0
ARC
8
DEFAULT_255_1_388
10
7.6678601
20
45.1639779
40
0.8326847
50
164.3058537
51
173.9000553
0
ARC
8
DEFAULT_255_1_388
10
7.3402601
20
45.2583652
40
0.4917711
50
148.7922028
51
164.5682288
0
ARC
8
DEFAULT_255_1_388
10
7.2333339
20
45.3180457
40
0.3694204
50
144.5883979
51
148.1161588
0
ARC
8
DEFAULT_255_1_388
10
7.1946084
20
45.3450667
40
0.322202
50
101.6440149
51
144.5142619
0
ARC
8
DEFAULT_255_1_388
10
7.2424276
20
45.1550337
40
0.5180451
50
89.528284
51
102.5820197
0
ARC
8
DEFAULT_255_1_388
10
7.2513268
20
45.1506376
40
0.5224441
50
77.0437914
51
90.508231
0
ARC
8
DEFAULT_255_1_388
10
7.2965522
20
45.3354272
40
0.3322297
50
48.2777708
51
77.4996087
0
ARC
8
DEFAULT_255_1_388
10
7.3047262
20
45.3499557
40
0.315966
50
36.3141586
51
47.6307332
0
ARC
8
DEFAULT_255_1_388
10
7.2069984
20
45.2841159
40
0.4337313
50
18.2931065
51
35.6770203
0
ARC
8
DEFAULT_255_1_388
10
6.9208825
20
45.1859107
40
0.7362203
50
8.0246996
51
18.5605636
0
ARC
8
DEFAULT_255_1_388
10
6.452518
20
45.1167432
40
1.2096583
50
1.127539
51
8.1718423
0
ARC
8
DEFAULT_255_1_388
10
6.0876314
20
45.1024374
40
1.5747719
50
0.5432713
51
1.38669
0
ARC
8
DEFAULT_255_1_388
10
6.2933692
20
45.1331163
40
1.2018103
50
359.8092569
51
4.9408001
0
ARC
8
DEFAULT_255_1_388
10
6.7670274
20
45.17539
40
0.7262727
50
4.8364937
51
12.2906017
0
ARC
8
DEFAULT_255_1_388
10
7.0769738
20
45.2444485
40
0.4087324
50
12.0806994
51
23.8171225
0
ARC
8
DEFAULT_255_1_388
10
7.2090134
20
45.3003508
40
0.2653719
50
24.2874621
51
31.3934353
0
ARC
8
DEFAULT_255_1_388
10
7.268057
20
45.3389822
40
0.1948607
50
30.7407708
51
82.4658033
0
ARC
8
DEFAULT_255_1_388
10
7.2478231
20
45.2396017
40
0.2961198
50
81.1057101
51
90.2187368
0
ARC
8
DEFAULT_255_1_388
10
7.2438043
20
45.2686421
40
0.2670929
50
89.380395
51
105.6763916
0
ARC
8
DEFAULT_255_1_388
10
7.2231765
20
45.343632
40
0.1893189
50
105.7980655
51
149.7387869
0
ARC
8
DEFAULT_255_1_388
10
7.3428905
20
45.2716719
40
0.3289892
50
149.4208441
51
163.628295
0
ARC
8
DEFAULT_255_1_388
10
7.5781135
20
45.1999345
40
0.5749004
50
163.3764549
51
172.141138
0
ARC
8
DEFAULT_255_1_388
10
7.9493856
20
45.1467582
40
0.9499585
50
172.0258462
51
178.0705453
0
ARC
8
DEFAULT_255_1_388
10
8.2915409
20
45.1305682
40
1.2924734
50
177.8639301
51
179.5036263
0
ARC
8
DEFAULT_255_1_388
10
8.1696428
20
44.8702151
40
1.170534
50
179.7995545
51
185.246089
0
ARC
8
DEFAULT_255_1_388
10
7.7148021
20
44.8271404
40
0.7136613
50
185.1411911
51
193.0082205
0
ARC
8
DEFAULT_255_1_388
10
7.4174281
20
44.7568441
40
0.4080987
50
192.7897338
51
205.2507384
0
ARC
8
DEFAULT_255_1_388
10
7.2996491
20
44.7042538
40
0.2791522
50
205.8001921
51
211.2545876
0
ARC
8
DEFAULT_255_1_388
10
7.2408031
20
44.6648132
40
0.2084074
50
210.3789935
51
238.4007996
0
ARC
8
DEFAULT_255_1_388
10
7.2386117
20
44.6700786
40
0.2117943
50
239.6521916
51
265.9793852
0
ARC
8
DEFAULT_255_1_388
10
7.2481965
20
44.7457358
40
0.2879689
50
265.1324455
51
270.0603288
0
ARC
8
DEFAULT_255_1_388
10
7.2514343
20
44.7092418
40
0.2514919
50
269.3314378
51
287.2180039
0
ARC
8
DEFAULT_255_1_388
10
7.2669425
20
44.6526291
40
0.1928357
50
287.7957942
51
329.0808983
0
ARC
8
DEFAULT_255_1_388
10
7.1592182
20
44.7198651
40
0.319808
50
328.6635261
51
343.3325043
0
ARC
8
DEFAULT_255_1_388
10
6.914764
20
44.7960195
40
0.5758408
50
343.0498092
51
351.9392499
0
ARC
8
DEFAULT_255_1_388
10
6.5246962
20
44.8535205
40
0.9701202
50
351.8071632
51
357.7957897
0
ARC
8
DEFAULT_255_1_388
10
6.1612439
20
44.8723724
40
1.3340376
50
357.5870923
51
359.2682493
0
LINE
8
DEFAULT_255_1_388
10
4.9832637
20
52.2769
11
4.8576682
21
52.6202545
0
LINE
8
DEFAULT_255_1_388
10
4.8576682
20
52.6202545
11
4.3064939
21
52.6202545
0
LINE
8
DEFAULT_255_1_388
10
4.3064939
20
52.6202545
11
4.1827056
21
52.2769
0
LINE
8
DEFAULT_255_1_388
10
4.1827056
20
52.2769
11
4.0037998
21
52.2769
0
LINE
8
DEFAULT_255_1_388
10
4.0037998
20
52.2769
11
4.5061816
21
53.5924898
0
LINE
8
DEFAULT_255_1_388
10
4.5061816
20
53.5924898
11
4.6579805
21
53.5924898
0
LINE
8
DEFAULT_255_1_388
10
4.6579805
20
53.5924898
11
5.1612659
21
52.2769
0
LINE
8
DEFAULT_255_1_388
10
5.1612659
20
52.2769
11
4.9832637
21
52.2769
0
LINE
8
DEFAULT_255_1_388
10
4.5820811
20
53.3783451
11
4.3589006
21
52.7630177
0
LINE
8
DEFAULT_255_1_388
10
4.3589006
20
52.7630177
11
4.806165
21
52.7630177
0
LINE
8
DEFAULT_255_1_388
10
4.806165
20
52.7630177
11
4.5820811
21
53.3783451
0
LINE
8
DEFAULT_255_1_388
10
5.5244988
20
53.5924898
11
5.5244988
21
52.2769
0
LINE
8
DEFAULT_255_1_388
10
5.5244988
20
52.2769
11
5.3510144
21
52.2769
0
LINE
8
DEFAULT_255_1_388
10
5.3510144
20
52.2769
11
5.3510144
21
53.5924898
0
LINE
8
DEFAULT_255_1_388
10
5.3510144
20
53.5924898
11
5.5244988
21
53.5924898
0
LINE
8
DEFAULT_255_1_388
10
6.347646
20
53.5988148
11
6.347646
21
52.2769
0
LINE
8
DEFAULT_255_1_388
10
6.347646
20
52.2769
11
6.179583
21
52.2769
0
LINE
8
DEFAULT_255_1_388
10
6.179583
20
52.2769
11
6.179583
21
53.390995
0
LINE
8
DEFAULT_255_1_388
10
6.179583
20
53.390995
11
5.8425535
21
53.2672066
0
LINE
8
DEFAULT_255_1_388
10
5.8425535
20
53.2672066
11
5.8425535
21
53.4190055
0
LINE
8
DEFAULT_255_1_388
10
5.8425535
20
53.4190055
11
6.3214426
21
53.5988148
0
LINE
8
DEFAULT_255_1_388
10
6.3214426
20
53.5988148
11
6.347646
21
53.5988148
0
LINE
8
DEFAULT_255_1_388
10
7.6460681
20
53.0666153
11
7.6460681
21
53.0178229
0
LINE
8
DEFAULT_255_1_388
10
7.0361621
20
52.2759964
11
7.0036338
21
52.2759964
0
LINE
8
DEFAULT_255_1_388
10
7.0036338
20
52.2759964
11
7.0036338
21
52.4169525
0
LINE
8
DEFAULT_255_1_388
10
7.0036338
20
52.4169525
11
7.0388728
21
52.4169525
0
LINE
8
DEFAULT_255_1_388
10
7.4789087
20
53.034087
11
7.4789087
21
53.1009508
0
ARC
8
DEFAULT_255_1_388
10
7.1646179
20
53.1179877
40
0.4089973
50
297.4036461
51
320.0168133
0
ARC
8
DEFAULT_255_1_388
10
7.1972359
20
53.0553072
40
0.3383378
50
270.2631886
51
297.3852322
0
ARC
8
DEFAULT_255_1_388
10
7.1934035
20
53.1090343
40
0.3920983
50
269.9969069
51
270.7871389
0
ARC
8
DEFAULT_255_1_388
10
7.1905358
20
53.1072737
40
0.3903482
50
254.5997295
51
270.4178147
0
ARC
8
DEFAULT_255_1_388
10
7.174489
20
53.0437693
40
0.3248657
50
236.4717231
51
254.3539376
0
ARC
8
DEFAULT_255_1_388
10
7.1920622
20
53.0673999
40
0.3542746
50
208.4727261
51
236.2134628
0
ARC
8
DEFAULT_255_1_388
10
7.2639385
20
53.1113676
40
0.4384402
50
204.3450776
51
209.0455365
0
ARC
8
DEFAULT_255_1_388
10
7.3403761
20
53.14378
40
0.5214459
50
183.9375459
51
204.1275509
0
ARC
8
DEFAULT_255_1_388
10
7.4426067
20
53.1547863
40
0.6242037
50
179.9652726
51
184.3010611
0
ARC
8
DEFAULT_255_1_388
10
7.4155612
20
53.1585004
40
0.5971675
50
166.7585952
51
180.3200491
0
ARC
8
DEFAULT_255_1_388
10
7.320342
20
53.1791979
40
0.4997418
50
154.6954866
51
166.5679151
0
ARC
8
DEFAULT_255_1_388
10
7.2243661
20
53.2275411
40
0.3923208
50
136.3325251
51
155.0871367
0
ARC
8
DEFAULT_255_1_388
10
7.192758
20
53.2546271
40
0.3507618
50
121.2365985
51
135.9680081
0
ARC
8
DEFAULT_255_1_388
10
7.2085645
20
53.2253541
40
0.3839917
50
96.8454764
51
120.9881329
0
ARC
8
DEFAULT_255_1_388
10
7.2249451
20
53.1200942
40
0.4904679
50
89.887204
51
97.2797758
0
ARC
8
DEFAULT_255_1_388
10
7.2308423
20
53.1918652
40
0.418725
50
70.6505767
51
90.6748382
0
ARC
8
DEFAULT_255_1_388
10
7.245612
20
53.2496091
40
0.3593866
50
36.7493297
51
69.8220487
0
ARC
8
DEFAULT_255_1_388
10
7.1332468
20
53.1620446
40
0.5018201
50
15.3958155
51
37.0841102
0
ARC
8
DEFAULT_255_1_388
10
6.8936752
20
53.0922111
40
0.7513436
50
3.9487796
51
15.6798517
0
ARC
8
DEFAULT_255_1_388
10
6.6235394
20
53.067881
40
1.0225293
50
359.9290791
51
4.266464
0
ARC
8
DEFAULT_255_1_388
10
6.1054312
20
53.0103372
40
1.5406551
50
352.8365702
51
0.2783851
0
ARC
8
DEFAULT_255_1_388
10
6.7002542
20
52.9330664
40
0.9408425
50
341.8359339
51
352.9884057
0
ARC
8
DEFAULT_255_1_388
10
7.062353
20
52.8110144
40
0.5587481
50
322.8579243
51
342.1527461
0
ARC
8
DEFAULT_255_1_388
10
7.1595222
20
52.744735
40
0.4413099
50
319.3348471
51
322.100194
0
ARC
8
DEFAULT_255_1_388
10
7.1247153
20
52.7796814
40
0.4904992
50
285.954114
51
318.8878716
0
ARC
8
DEFAULT_255_1_388
10
7.042959
20
53.0395865
40
0.7628991
50
272.9280841
51
286.4924389
0
ARC
8
DEFAULT_255_1_388
10
7.0215894
20
53.293024
40
1.017132
50
270.8209173
51
273.4010121
0
ARC
8
DEFAULT_255_1_388
10
7.0315918
20
53.0882073
40
0.6712943
50
270.6214576
51
281.4062333
0
ARC
8
DEFAULT_255_1_388
10
7.0799642
20
52.856925
40
0.4350167
50
281.1852583
51
299.0622058
0
ARC
8
DEFAULT_255_1_388
10
7.1219887
20
52.7758138
40
0.3437146
50
299.5068171
51
313.1200142
0
ARC
8
DEFAULT_255_1_388
10
7.1244624
20
52.7668959
40
0.3355418
50
313.8525725
51
338.5989631
0
ARC
8
DEFAULT_255_1_388
10
6.9417753
20
52.8419576
40
0.5330317
50
338.2523315
51
351.2431701
0
ARC
8
DEFAULT_255_1_388
10
6.6705503
20
52.8880494
40
0.8081235
50
350.940933
51
357.6690137
0
ARC
8
DEFAULT_255_1_388
10
7.2207383
20
53.1133048
40
0.2581236
50
269.9447107
51
306.8249644
0
ARC
8
DEFAULT_255_1_388
10
7.1940685
20
53.160906
40
0.3122948
50
305.5071046
51
327.0773808
0
ARC
8
DEFAULT_255_1_388
10
7.2073737
20
53.1502445
40
0.2953369
50
327.4106457
51
336.8396801
0
ARC
8
DEFAULT_255_1_388
10
6.8593451
20
53.1045932
40
0.6195743
50
359.663158
51
10.1176387
0
ARC
8
DEFAULT_255_1_388
10
7.0566214
20
53.1410922
40
0.4189561
50
9.9431549
51
26.7699242
0
ARC
8
DEFAULT_255_1_388
10
7.12382
20
53.1720796
40
0.3450125
50
27.2018067
51
34.6833639
0
ARC
8
DEFAULT_255_1_388
10
7.1788813
20
53.213456
40
0.2762035
50
34.124913
51
50.30709
0
ARC
8
DEFAULT_255_1_388
10
7.2291295
20
53.2735741
40
0.1978518
50
50.3850304
51
90.6705051
0
ARC
8
DEFAULT_255_1_388
10
7.2238689
20
53.2393074
40
0.2321235
50
89.2729817
51
111.9140267
0
ARC
8
DEFAULT_255_1_388
10
7.2216777
20
53.2551308
40
0.2166604
50
112.9381864
51
142.5320936
0
ARC
8
DEFAULT_255_1_388
10
7.2831265
20
53.2052392
40
0.2957902
50
142.1024021
51
166.3835244
0
ARC
8
DEFAULT_255_1_388
10
7.4160235
20
53.1709213
40
0.4330361
50
166.1100968
51
178.6653563
0
ARC
8
DEFAULT_255_1_388
10
7.5342161
20
53.1643061
40
0.5513642
50
178.2641888
51
180.010994
0
ARC
8
DEFAULT_255_1_388
10
7.4436662
20
53.1611136
40
0.4608248
50
179.6162225
51
191.8786013
0
ARC
8
DEFAULT_255_1_388
10
7.3063972
20
53.130759
40
0.3202502
50
191.6192934
51
215.2970746
0
ARC
8
DEFAULT_255_1_388
10
7.2824628
20
53.1164963
40
0.2924827
50
215.7258926
51
216.5355437
0
ARC
8
DEFAULT_255_1_388
10
7.2236248
20
53.0691919
40
0.2170661
50
215.7486606
51
239.9728403
0
ARC
8
DEFAULT_255_1_388
10
7.2157413
20
53.0634838
40
0.208217
50
241.065081
51
269.280972
0
ARC
8
DEFAULT_255_1_388
10
7.2204572
20
53.1190327
40
0.2638514
50
268.4083352
51
270.0069622
0
LINE
8
DEFAULT_255_1_388
10
4.9834637
20
60.2144
11
4.8578682
21
60.5577545
0
LINE
8
DEFAULT_255_1_388
10
4.8578682
20
60.5577545
11
4.3066939
21
60.5577545
0
LINE
8
DEFAULT_255_1_388
10
4.3066939
20
60.5577545
11
4.1829056
21
60.2144
0
LINE
8
DEFAULT_255_1_388
10
4.1829056
20
60.2144
11
4.0039998
21
60.2144
0
LINE
8
DEFAULT_255_1_388
10
4.0039998
20
60.2144
11
4.5063816
21
61.5299898
0
LINE
8
DEFAULT_255_1_388
10
4.5063816
20
61.5299898
11
4.6581805
21
61.5299898
0
LINE
8
DEFAULT_255_1_388
10
4.6581805
20
61.5299898
11
5.1614659
21
60.2144
0
LINE
8
DEFAULT_255_1_388
10
5.1614659
20
60.2144
11
4.9834637
21
60.2144
0
LINE
8
DEFAULT_255_1_388
10
4.5822811
20
61.3158451
11
4.3591006
21
60.7005177
0
LINE
8
DEFAULT_255_1_388
10
4.3591006
20
60.7005177
11
4.806365
21
60.7005177
0
LINE
8
DEFAULT_255_1_388
10
4.806365
20
60.7005177
11
4.5822811
21
61.3158451
0
LINE
8
DEFAULT_255_1_388
10
5.5246988
20
61.5299898
11
5.5246988
21
60.2144
0
LINE
8
DEFAULT_255_1_388
10
5.5246988
20
60.2144
11
5.3512144
21
60.2144
0
LINE
8
DEFAULT_255_1_388
10
5.3512144
20
60.2144
11
5.3512144
21
61.5299898
0
LINE
8
DEFAULT_255_1_388
10
5.3512144
20
61.5299898
11
5.5246988
21
61.5299898
0
ARC
8
DEFAULT_255_1_388
10
6.2788293
20
61.183772
40
0.3175098
50
338.8762533
51
0.5167111
0
ARC
8
DEFAULT_255_1_388
10
6.2977887
20
61.17866
40
0.2979894
50
325.8415285
51
338.4793574
0
ARC
8
DEFAULT_255_1_388
10
6.2538521
20
61.2091242
40
0.351452
50
296.7587686
51
325.7536481
0
ARC
8
DEFAULT_255_1_388
10
6.2210149
20
61.2645363
40
0.4157374
50
296.0927901
51
297.3613472
0
ARC
8
DEFAULT_255_1_388
10
6.2504344
20
60.5262593
40
0.395855
50
47.9007294
51
67.1948823
0
ARC
8
DEFAULT_255_1_388
10
6.2724986
20
60.5539599
40
0.360516
50
35.2363914
51
47.551141
0
ARC
8
DEFAULT_255_1_388
10
6.301939
20
60.5736093
40
0.3251343
50
359.2759765
51
35.4014143
0
ARC
8
DEFAULT_255_1_388
10
6.2181316
20
60.5653787
40
0.4089365
50
343.1293083
51
0.5775513
0
ARC
8
DEFAULT_255_1_388
10
6.299643
20
60.5429336
40
0.3244269
50
310.8496669
51
342.7449331
0
ARC
8
DEFAULT_255_1_388
10
6.2526304
20
60.5965913
40
0.3957651
50
281.5472888
51
310.9170406
0
ARC
8
DEFAULT_255_1_388
10
6.2125179
20
60.7712814
40
0.5749654
50
269.619248
51
281.9789564
0
ARC
8
DEFAULT_255_1_388
10
6.2043957
20
60.7713776
40
0.5750649
50
257.4585678
51
270.4285689
0
ARC
8
DEFAULT_255_1_388
10
6.1615477
20
60.5909741
40
0.389671
50
228.7554326
51
257.8484789
0
ARC
8
DEFAULT_255_1_388
10
6.1266962
20
60.5490228
40
0.335154
50
184.0104975
51
228.5071184
0
ARC
8
DEFAULT_255_1_388
10
6.2575355
20
60.568943
40
0.4671891
50
179.9315832
51
185.3253753
0
ARC
8
DEFAULT_255_1_388
10
6.1251867
20
60.5731592
40
0.33486
50
145.6796023
51
180.6259786
0
ARC
8
DEFAULT_255_1_388
10
6.1435633
20
60.5603271
40
0.3572723
50
115.5537685
51
145.6415986
0
ARC
8
DEFAULT_255_1_388
10
6.1818677
20
60.4917087
40
0.4357296
50
113.243307
51
116.2057839
0
ARC
8
DEFAULT_255_1_388
10
6.1647329
20
61.2114379
40
0.3549126
50
222.9549744
51
244.1370481
0
ARC
8
DEFAULT_255_1_388
10
6.1509972
20
61.1960378
40
0.3343711
50
213.3436887
51
222.6274467
0
ARC
8
DEFAULT_255_1_388
10
6.1294042
20
61.1813653
40
0.3082678
50
180.431584
51
213.271499
0
ARC
8
DEFAULT_255_1_388
10
6.192904
20
61.1866296
40
0.3718363
50
179.9991191
51
181.1690594
0
ARC
8
DEFAULT_255_1_388
10
6.2401496
20
61.1905072
40
0.4190996
50
164.6186169
51
180.529336
0
ARC
8
DEFAULT_255_1_388
10
6.1391145
20
61.217678
40
0.3144772
50
132.2455553
51
164.5090724
0
ARC
8
DEFAULT_255_1_388
10
6.1714124
20
61.181107
40
0.3632644
50
100.7053914
51
132.1386381
0
ARC
8
DEFAULT_255_1_388
10
6.2057185
20
61.0261118
40
0.5219578
50
89.6730358
51
101.2451698
0
ARC
8
DEFAULT_255_1_388
10
6.2127176
20
61.0457648
40
0.5023124
50
76.287748
51
90.4586006
0
ARC
8
DEFAULT_255_1_388
10
6.2471678
20
61.1832671
40
0.3605639
50
47.8240511
51
76.4266241
0
ARC
8
DEFAULT_255_1_388
10
6.2722062
20
61.2125599
40
0.3220463
50
6.9168387
51
47.6262497
0
ARC
8
DEFAULT_255_1_388
10
6.1387515
20
61.1879004
40
0.4575765
50
359.8415968
51
7.9697453
0
ARC
8
DEFAULT_255_1_388
10
6.1771785
20
60.5758519
40
0.2827228
50
359.445363
51
16.9256873
0
ARC
8
DEFAULT_255_1_388
10
6.2299219
20
60.5903781
40
0.2280396
50
17.2920767
51
45.4630727
0
ARC
8
DEFAULT_255_1_388
10
6.2238354
20
60.5851324
40
0.2360485
50
45.30305
51
83.1920945
0
ARC
8
DEFAULT_255_1_388
10
6.2077099
20
60.4949473
40
0.3275527
50
82.2612665
51
90.1434275
0
ARC
8
DEFAULT_255_1_388
10
6.2042375
20
60.5211869
40
0.3013237
50
89.4956434
51
104.8580688
0
ARC
8
DEFAULT_255_1_388
10
6.1843565
20
60.5965455
40
0.2233867
50
104.8856641
51
135.244616
0
ARC
8
DEFAULT_255_1_388
10
6.1899554
20
60.5915352
40
0.2308906
50
135.3399546
51
172.1044062
0
ARC
8
DEFAULT_255_1_388
10
6.2807079
20
60.5741667
40
0.3232034
50
171.2645637
51
180.186429
0
ARC
8
DEFAULT_255_1_388
10
6.2617083
20
60.5705426
40
0.304213
50
179.5154935
51
193.6464289
0
ARC
8
DEFAULT_255_1_388
10
6.1698759
20
60.5471473
40
0.209456
50
193.3540274
51
225.8258581
0
ARC
8
DEFAULT_255_1_388
10
6.1744631
20
60.5551076
40
0.2183738
50
226.4180634
51
255.8552336
0
ARC
8
DEFAULT_255_1_388
10
6.2033098
20
60.6604521
40
0.3275812
50
255.4654104
51
268.7987425
0
ARC
8
DEFAULT_255_1_388
10
6.2086274
20
60.7546545
40
0.4218877
50
268.3449238
51
270.0094605
0
ARC
8
DEFAULT_255_1_388
10
6.2112507
20
60.6778094
40
0.3450519
50
269.5759586
51
282.0820163
0
ARC
8
DEFAULT_255_1_388
10
6.2365544
20
60.5659363
40
0.2303642
50
281.752014
51
306.6056188
0
ARC
8
DEFAULT_255_1_388
10
6.2476352
20
60.5477802
40
0.2091906
50
307.1346085
51
314.027845
0
ARC
8
DEFAULT_255_1_388
10
6.2435864
20
60.5507459
40
0.2141385
50
314.2552483
51
350.1694025
0
ARC
8
DEFAULT_255_1_388
10
6.1478101
20
60.5715175
40
0.312082
50
349.4140529
51
0.2933014
0
ARC
8
DEFAULT_255_1_388
10
6.2063378
20
61.1518924
40
0.2588377
50
89.477747
51
105.729729
0
ARC
8
DEFAULT_255_1_388
10
6.1910298
20
61.2087367
40
0.1999733
50
105.9233417
51
135.1660906
0
ARC
8
DEFAULT_255_1_388
10
6.1933329
20
61.2071412
40
0.2027322
50
135.3052302
51
168.9883645
0
ARC
8
DEFAULT_255_1_388
10
6.2864345
20
61.1857996
40
0.2982129
50
168.3801673
51
180.3602268
0
ARC
8
DEFAULT_255_1_388
10
6.2607462
20
61.1815622
40
0.2725291
50
179.5033122
51
194.9125571
0
ARC
8
DEFAULT_255_1_388
10
6.1948869
20
61.1642427
40
0.204431
50
194.9720816
51
224.194444
0
ARC
8
DEFAULT_255_1_388
10
6.1917234
20
61.1616635
40
0.2003651
50
224.2962453
51
262.015664
0
ARC
8
DEFAULT_255_1_388
10
6.2077238
20
61.2439315
40
0.2840925
50
261.1245923
51
270.1962896
0
ARC
8
DEFAULT_255_1_388
10
6.2110719
20
61.2228859
40
0.2630559
50
269.4827276
51
285.0987215
0
ARC
8
DEFAULT_255_1_388
10
6.2284156
20
61.1578175
40
0.1957162
50
285.1585357
51
315.9484501
0
ARC
8
DEFAULT_255_1_388
10
6.2184029
20
61.1670315
40
0.2093195
50
316.0413965
51
351.916092
0
ARC
8
DEFAULT_255_1_388
10
6.1359403
20
61.1829323
40
0.2932279
50
351.105835
51
0.1939062
0
ARC
8
DEFAULT_255_1_388
10
6.1655038
20
61.1863224
40
0.2636739
50
359.4789618
51
16.0678224
0
ARC
8
DEFAULT_255_1_388
10
6.2190509
20
61.2007721
40
0.2082215
50
16.3252067
51
44.7913869
0
ARC
8
DEFAULT_255_1_388
10
6.2170572
20
61.200832
40
0.2095992
50
44.3957814
51
88.2499162
0
ARC
8
DEFAULT_255_1_388
10
6.2087906
20
61.1320006
40
0.2787189
50
86.9833854
51
90.0192215
0
LINE
8
DEFAULT_255_1_388
10
4.9834637
20
68.1519
11
4.8578682
21
68.4952545
0
LINE
8
DEFAULT_255_1_388
10
4.8578682
20
68.4952545
11
4.3066939
21
68.4952545
0
LINE
8
DEFAULT_255_1_388
10
4.3066939
20
68.4952545
11
4.1829056
21
68.1519
0
LINE
8
DEFAULT_255_1_388
10
4.1829056
20
68.1519
11
4.0039998
21
68.1519
0
LINE
8
DEFAULT_255_1_388
10
4.0039998
20
68.1519
11
4.5063816
21
69.4674898
0
LINE
8
DEFAULT_255_1_388
10
4.5063816
20
69.4674898
11
4.6581805
21
69.4674898
0
LINE
8
DEFAULT_255_1_388
10
4.6581805
20
69.4674898
11
5.1614659
21
68.1519
0
LINE
8
DEFAULT_255_1_388
10
5.1614659
20
68.1519
11
4.9834637
21
68.1519
0
LINE
8
DEFAULT_255_1_388
10
4.5822811
20
69.2533451
11
4.3591006
21
68.6380177
0
LINE
8
DEFAULT_255_1_388
10
4.3591006
20
68.6380177
11
4.806365
21
68.6380177
0
LINE
8
DEFAULT_255_1_388
10
4.806365
20
68.6380177
11
4.5822811
21
69.2533451
0
LINE
8
DEFAULT_255_1_388
10
5.5246988
20
69.4674898
11
5.5246988
21
68.1519
0
LINE
8
DEFAULT_255_1_388
10
5.5246988
20
68.1519
11
5.3512144
21
68.1519
0
LINE
8
DEFAULT_255_1_388
10
5.3512144
20
68.1519
11
5.3512144
21
69.4674898
0
LINE
8
DEFAULT_255_1_388
10
5.3512144
20
69.4674898
11
5.5246988
21
69.4674898
0
LINE
8
DEFAULT_255_1_388
10
6.6478294
20
69.4674898
11
6.6478294
21
69.3735191
0
LINE
8
DEFAULT_255_1_388
10
6.6478294
20
69.3735191
11
6.10298
21
68.1519
0
LINE
8
DEFAULT_255_1_388
10
6.10298
20
68.1519
11
5.9276885
21
68.1519
0
LINE
8
DEFAULT_255_1_388
10
5.9276885
20
68.1519
11
6.4707308
21
69.330148
0
LINE
8
DEFAULT_255_1_388
10
6.4707308
20
69.330148
11
5.758722
21
69.330148
0
LINE
8
DEFAULT_255_1_388
10
5.758722
20
69.330148
11
5.758722
21
69.4674898
0
LINE
8
DEFAULT_255_1_388
10
5.758722
20
69.4674898
11
6.6478294
21
69.4674898
0
LINE
8
DEFAULT_255_1_388
10
4.9834637
20
76.0894
11
4.8578682
21
76.4327545
0
LINE
8
DEFAULT_255_1_388
10
4.8578682
20
76.4327545
11
4.3066939
21
76.4327545
0
LINE
8
DEFAULT_255_1_388
10
4.3066939
20
76.4327545
11
4.1829056
21
76.0894
0
LINE
8
DEFAULT_255_1_388
10
4.1829056
20
76.0894
11
4.0039998
21
76.0894
0
LINE
8
DEFAULT_255_1_388
10
4.0039998
20
76.0894
11
4.5063816
21
77.4049898
0
LINE
8
DEFAULT_255_1_388
10
4.5063816
20
77.4049898
11
4.6581805
21
77.4049898
0
LINE
8
DEFAULT_255_1_388
10
4.6581805
20
77.4049898
11
5.1614659
21
76.0894
0
LINE
8
DEFAULT_255_1_388
10
5.1614659
20
76.0894
11
4.9834637
21
76.0894
0
LINE
8
DEFAULT_255_1_388
10
4.5822811
20
77.1908451
11
4.3591006
21
76.5755177
0
LINE
8
DEFAULT_255_1_388
10
4.3591006
20
76.5755177
11
4.806365
21
76.5755177
0
LINE
8
DEFAULT_255_1_388
10
4.806365
20
76.5755177
11
4.5822811
21
77.1908451
0
LINE
8
DEFAULT_255_1_388
10
5.5246988
20
77.4049898
11
5.5246988
21
76.0894
0
LINE
8
DEFAULT_255_1_388
10
5.5246988
20
76.0894
11
5.3512144
21
76.0894
0
LINE
8
DEFAULT_255_1_388
10
5.3512144
20
76.0894
11
5.3512144
21
77.4049898
0
LINE
8
DEFAULT_255_1_388
10
5.3512144
20
77.4049898
11
5.5246988
21
77.4049898
0
LINE
8
DEFAULT_255_1_388
10
6.424649
20
77.4058934
11
6.4544666
21
77.4058934
0
LINE
8
DEFAULT_255_1_388
10
6.4544666
20
77.4058934
11
6.4544666
21
77.2640338
0
LINE
8
DEFAULT_255_1_388
10
6.4544666
20
77.2640338
11
6.4237454
21
77.2640338
0
LINE
8
DEFAULT_255_1_388
10
5.808418
20
76.5899747
11
5.808418
21
76.6541278
0
LINE
8
DEFAULT_255_1_388
10
5.976481
20
76.6324422
11
5.976481
21
76.5709999
0
ARC
8
DEFAULT_255_1_388
10
6.4296346
20
76.7017826
40
0.562282
50
90.6001079
51
104.5146616
0
ARC
8
DEFAULT_255_1_388
10
6.3859305
20
76.86431
40
0.3939917
50
104.2855758
51
133.8630124
0
ARC
8
DEFAULT_255_1_388
10
6.4043558
20
76.8521243
40
0.4155734
50
134.5304124
51
161.6210222
0
ARC
8
DEFAULT_255_1_388
10
6.590349
20
76.7865421
40
0.6127682
50
161.2850533
51
174.2074364
0
ARC
8
DEFAULT_255_1_388
10
6.7493057
20
76.7646437
40
0.7731446
50
173.7817938
51
174.9251711
0
ARC
8
DEFAULT_255_1_388
10
6.236725
20
76.609127
40
0.3412588
50
95.8332067
51
138.995412
0
ARC
8
DEFAULT_255_1_388
10
6.2618531
20
76.4652695
40
0.4870358
50
89.8755506
51
97.0540979
0
ARC
8
DEFAULT_255_1_388
10
6.267192
20
76.5592841
40
0.3930432
50
71.6407016
51
90.6240821
0
ARC
8
DEFAULT_255_1_388
10
6.2841313
20
76.6216433
40
0.3285421
50
39.6368051
51
71.0190743
0
ARC
8
DEFAULT_255_1_388
10
6.2125221
20
76.5597586
40
0.4231706
50
10.6588054
51
39.9044509
0
ARC
8
DEFAULT_255_1_388
10
6.0383767
20
76.5219223
40
0.60133
50
359.6827842
51
11.1326896
0
ARC
8
DEFAULT_255_1_388
10
6.0339102
20
76.5139715
40
0.6058047
50
347.2485908
51
0.4371098
0
ARC
8
DEFAULT_255_1_388
10
6.2214888
20
76.4688379
40
0.4128987
50
318.1408565
51
347.6118497
0
ARC
8
DEFAULT_255_1_388
10
6.2580484
20
76.4387903
40
0.3656244
50
275.6342406
51
317.824739
0
ARC
8
DEFAULT_255_1_388
10
6.2332005
20
76.5849827
40
0.513655
50
269.8872513
51
276.7916069
0
ARC
8
DEFAULT_255_1_388
10
6.2270198
20
76.4696181
40
0.398323
50
246.9139443
51
270.7436787
0
ARC
8
DEFAULT_255_1_388
10
6.2277394
20
76.4536044
40
0.3839368
50
218.1665534
51
245.8780431
0
ARC
8
DEFAULT_255_1_388
10
6.3266766
20
76.5363903
40
0.5128958
50
191.4115343
51
218.6077624
0
ARC
8
DEFAULT_255_1_388
10
6.5447082
20
76.5852777
40
0.7363054
50
179.6344971
51
191.7836758
0
ARC
8
DEFAULT_255_1_388
10
7.1726957
20
76.6616495
40
1.3642984
50
171.4523743
51
180.3158856
0
ARC
8
DEFAULT_255_1_388
10
6.6782684
20
76.7385895
40
0.8639311
50
157.9802296
51
171.6246761
0
ARC
8
DEFAULT_255_1_388
10
6.4292034
20
76.8379038
40
0.5958004
50
141.4299236
51
157.8541251
0
ARC
8
DEFAULT_255_1_388
10
6.3570118
20
76.8889746
40
0.5075416
50
102.871586
51
140.8564533
0
ARC
8
DEFAULT_255_1_388
10
6.429867
20
76.6144943
40
0.7914163
50
90.377773
51
103.5868422
0
ARC
8
DEFAULT_255_1_388
10
6.2343192
20
76.5464543
40
0.2667015
50
89.8751238
51
126.2072139
0
ARC
8
DEFAULT_255_1_388
10
6.2394663
20
76.5290847
40
0.2838229
50
124.9742447
51
144.8960197
0
ARC
8
DEFAULT_255_1_388
10
6.2196908
20
76.5451981
40
0.2583845
50
145.2974778
51
160.2660922
0
ARC
8
DEFAULT_255_1_388
10
6.5653396
20
76.5674151
40
0.5888695
50
179.6512124
51
190.285571
0
ARC
8
DEFAULT_255_1_388
10
6.3747876
20
76.5314968
40
0.3949683
50
190.0944895
51
207.5099647
0
ARC
8
DEFAULT_255_1_388
10
6.3111457
20
76.5012177
40
0.3245464
50
207.9585471
51
216.325377
0
ARC
8
DEFAULT_255_1_388
10
6.2729095
20
76.4697712
40
0.2751259
50
215.7661336
51
232.5457193
0
ARC
8
DEFAULT_255_1_388
10
6.229821
20
76.4150273
40
0.2054668
50
232.8005815
51
270.6605497
0
ARC
8
DEFAULT_255_1_388
10
6.2349635
20
76.4559853
40
0.2464268
50
269.3550767
51
288.474612
0
ARC
8
DEFAULT_255_1_388
10
6.2454142
20
76.4166721
40
0.2058436
50
289.1831976
51
322.9685307
0
ARC
8
DEFAULT_255_1_388
10
6.1766243
20
76.4709279
40
0.2934408
50
322.6007085
51
346.5183319
0
ARC
8
DEFAULT_255_1_388
10
6.0463999
20
76.5041434
40
0.4278249
50
346.2584622
51
358.7739592
0
ARC
8
DEFAULT_255_1_388
10
5.9312575
20
76.5103829
40
0.5430876
50
358.3757628
51
0.0082477
0
ARC
8
DEFAULT_255_1_388
10
6.0169393
20
76.5134856
40
0.4574157
50
359.6211417
51
11.28403
0
ARC
8
DEFAULT_255_1_388
10
6.1605999
20
76.5434535
40
0.3106708
50
11.0483152
51
31.8145585
0
ARC
8
DEFAULT_255_1_388
10
6.1953705
20
76.5623045
40
0.2711963
50
32.3028554
51
38.0820598
0
ARC
8
DEFAULT_255_1_388
10
6.2426938
20
76.6051717
40
0.2075566
50
36.8249851
51
85.741667
0
ARC
8
DEFAULT_255_1_388
10
6.235135
20
76.5488065
40
0.2643487
50
85.0150021
51
90.050843
0
LINE
8
DEFAULT_255_1_388
10
4.9834637
20
84.0269
11
4.8578682
21
84.3702545
0
LINE
8
DEFAULT_255_1_388
10
4.8578682
20
84.3702545
11
4.3066939
21
84.3702545
0
LINE
8
DEFAULT_255_1_388
10
4.3066939
20
84.3702545
11
4.1829056
21
84.0269
0
LINE
8
DEFAULT_255_1_388
10
4.1829056
20
84.0269
11
4.0039998
21
84.0269
0
LINE
8
DEFAULT_255_1_388
10
4.0039998
20
84.0269
11
4.5063816
21
85.3424898
0
LINE
8
DEFAULT_255_1_388
10
4.5063816
20
85.3424898
11
4.6581805
21
85.3424898
0
LINE
8
DEFAULT_255_1_388
10
4.6581805
20
85.3424898
11
5.1614659
21
84.0269
0
LINE
8
DEFAULT_255_1_388
10
5.1614659
20
84.0269
11
4.9834637
21
84.0269
0
LINE
8
DEFAULT_255_1_388
10
4.5822811
20
85.1283451
11
4.3591006
21
84.5130177
0
LINE
8
DEFAULT_255_1_388
10
4.3591006
20
84.5130177
11
4.806365
21
84.5130177
0
LINE
8
DEFAULT_255_1_388
10
4.806365
20
84.5130177
11
4.5822811
21
85.1283451
0
LINE
8
DEFAULT_255_1_388
10
5.5246988
20
85.3424898
11
5.5246988
21
84.0269
0
LINE
8
DEFAULT_255_1_388
10
5.5246988
20
84.0269
11
5.3512144
21
84.0269
0
LINE
8
DEFAULT_255_1_388
10
5.3512144
20
84.0269
11
5.3512144
21
85.3424898
0
LINE
8
DEFAULT_255_1_388
10
5.3512144
20
85.3424898
11
5.5246988
21
85.3424898
0
LINE
8
DEFAULT_255_1_388
10
6.0090093
20
84.6521666
11
5.8752818
21
84.6865021
0
LINE
8
DEFAULT_255_1_388
10
5.8752818
20
84.6865021
11
5.9421456
21
85.3424898
0
LINE
8
DEFAULT_255_1_388
10
5.9421456
20
85.3424898
11
6.6162046
21
85.3424898
0
LINE
8
DEFAULT_255_1_388
10
6.6162046
20
85.3424898
11
6.6162046
21
85.1879803
0
LINE
8
DEFAULT_255_1_388
10
6.6162046
20
85.1879803
11
6.0840052
21
85.1879803
0
LINE
8
DEFAULT_255_1_388
10
6.0840052
20
85.1879803
11
6.0442483
21
84.8292652
0
LINE
8
DEFAULT_255_1_388
10
5.8282964
20
84.3729652
11
5.9864202
21
84.3729652
0
LINE
8
DEFAULT_255_1_388
10
6.053284
20
84.6883092
11
6.0090093
21
84.6521666
0
ARC
8
DEFAULT_255_1_388
10
6.2529097
20
84.4715241
40
0.4141476
50
93.7181681
51
120.253934
0
ARC
8
DEFAULT_255_1_388
10
6.2635149
20
84.3806284
40
0.5055616
50
89.9660471
51
94.2495185
0
ARC
8
DEFAULT_255_1_388
10
6.2680971
20
84.4469154
40
0.4392953
50
73.8045384
51
90.5585736
0
ARC
8
DEFAULT_255_1_388
10
6.2945229
20
84.543452
40
0.3392225
50
41.3071072
51
73.543002
0
ARC
8
DEFAULT_255_1_388
10
6.2477049
20
84.5031461
40
0.4009977
50
13.5075837
51
41.2174839
0
ARC
8
DEFAULT_255_1_388
10
6.0630146
20
84.4547907
40
0.5918864
50
1.1330171
51
13.8830737
0
ARC
8
DEFAULT_255_1_388
10
5.9033792
20
84.4462522
40
0.7516787
50
359.9925091
51
1.5431298
0
ARC
8
DEFAULT_255_1_388
10
6.0478407
20
84.4416027
40
0.6072343
50
347.8572712
51
0.4294349
0
ARC
8
DEFAULT_255_1_388
10
6.2447542
20
84.3969898
40
0.4053482
50
323.6727442
51
348.1674594
0
ARC
8
DEFAULT_255_1_388
10
6.2778506
20
84.3768175
40
0.3667495
50
316.8171818
51
323.1486802
0
ARC
8
DEFAULT_255_1_388
10
6.284763
20
84.3726612
40
0.358869
50
281.839603
51
316.5458142
0
ARC
8
DEFAULT_255_1_388
10
6.2424917
20
84.5476363
40
0.5388223
50
269.5770964
51
282.4214641
0
ARC
8
DEFAULT_255_1_388
10
6.2344838
20
84.523593
40
0.5147801
50
256.2425863
51
270.4486481
0
ARC
8
DEFAULT_255_1_388
10
6.2008366
20
84.3886124
40
0.3756708
50
228.9024379
51
256.33135
0
ARC
8
DEFAULT_255_1_388
10
6.1925346
20
84.3755054
40
0.360344
50
193.7536029
51
228.5272638
0
ARC
8
DEFAULT_255_1_388
10
6.3317911
20
84.4163463
40
0.5053599
50
184.9244437
51
194.4976052
0
ARC
8
DEFAULT_255_1_388
10
6.3534552
20
84.4203722
40
0.3700839
50
187.3596909
51
198.6733728
0
ARC
8
DEFAULT_255_1_388
10
6.2353796
20
84.3794373
40
0.2451195
50
198.4453795
51
217.7945479
0
ARC
8
DEFAULT_255_1_388
10
6.2020968
20
84.3558563
40
0.2043754
50
218.2887146
51
228.5613203
0
ARC
8
DEFAULT_255_1_388
10
6.2130975
20
84.3706902
40
0.2227819
50
228.9652423
51
258.1237049
0
ARC
8
DEFAULT_255_1_388
10
6.2362412
20
84.4697964
40
0.3245374
50
257.7260585
51
270.4013717
0
ARC
8
DEFAULT_255_1_388
10
6.241291
20
84.4197255
40
0.2744726
50
269.4204315
51
286.420998
0
ARC
8
DEFAULT_255_1_388
10
6.2579966
20
84.3590705
40
0.2115721
50
286.7250065
51
320.6004665
0
ARC
8
DEFAULT_255_1_388
10
6.2148882
20
84.3940527
40
0.2670878
50
320.6712228
51
344.5440474
0
ARC
8
DEFAULT_255_1_388
10
6.0847596
20
84.4322394
40
0.4026927
50
344.241448
51
356.735803
0
ARC
8
DEFAULT_255_1_388
10
5.9443903
20
84.4438656
40
0.5435085
50
356.3547471
51
0.0507222
0
ARC
8
DEFAULT_255_1_388
10
6.0946168
20
84.4473812
40
0.3932934
50
359.5579289
51
12.9534322
0
ARC
8
DEFAULT_255_1_388
10
6.2133008
20
84.4761586
40
0.2711827
50
12.6489751
51
41.608121
0
ARC
8
DEFAULT_255_1_388
10
6.2392168
20
84.4981946
40
0.2371737
50
41.7851122
51
85.9892156
0
ARC
8
DEFAULT_255_1_388
10
6.2253478
20
84.4066738
40
0.3295244
50
84.6965848
51
90.0672125
0
ARC
8
DEFAULT_255_1_388
10
6.2227045
20
84.3315118
40
0.4046926
50
89.6804991
51
99.161352
0
ARC
8
DEFAULT_255_1_388
10
6.1996055
20
84.4695848
40
0.2647044
50
98.9836248
51
113.8905702
0
ARC
8
DEFAULT_255_1_388
10
6.1737729
20
84.5305118
40
0.1985386
50
114.195234
51
127.3641866
0
LINE
8
DEFAULT_255_1_388
10
5.1157637
20
91.9644
11
4.9901682
21
92.3077545
0
LINE
8
DEFAULT_255_1_388
10
4.9901682
20
92.3077545
11
4.4389939
21
92.3077545
0
LINE
8
DEFAULT_255_1_388
10
4.4389939
20
92.3077545
11
4.3152056
21
91.9644
0
LINE
8
DEFAULT_255_1_388
10
4.3152056
20
91.9644
11
4.1362998
21
91.9644
0
LINE
8
DEFAULT_255_1_388
10
4.1362998
20
91.9644
11
4.6386816
21
93.2799898
0
LINE
8
DEFAULT_255_1_388
10
4.6386816
20
93.2799898
11
4.7904805
21
93.2799898
0
LINE
8
DEFAULT_255_1_388
10
4.7904805
20
93.2799898
11
5.2937659
21
91.9644
0
LINE
8
DEFAULT_255_1_388
10
5.2937659
20
91.9644
11
5.1157637
21
91.9644
0
LINE
8
DEFAULT_255_1_388
10
4.7145811
20
93.0658451
11
4.4914006
21
92.4505177
0
LINE
8
DEFAULT_255_1_388
10
4.4914006
20
92.4505177
11
4.938665
21
92.4505177
0
LINE
8
DEFAULT_255_1_388
10
4.938665
20
92.4505177
11
4.7145811
21
93.0658451
0
LINE
8
DEFAULT_255_1_388
10
5.6569988
20
93.2799898
11
5.6569988
21
91.9644
0
LINE
8
DEFAULT_255_1_388
10
5.6569988
20
91.9644
11
5.4835144
21
91.9644
0
LINE
8
DEFAULT_255_1_388
10
5.4835144
20
91.9644
11
5.4835144
21
93.2799898
0
LINE
8
DEFAULT_255_1_388
10
5.4835144
20
93.2799898
11
5.6569988
21
93.2799898
0
LINE
8
DEFAULT_255_1_388
10
6.6364626
20
93.2799898
11
6.6364626
21
92.406243
0
LINE
8
DEFAULT_255_1_388
10
6.6364626
20
92.406243
11
6.8189827
21
92.406243
0
LINE
8
DEFAULT_255_1_388
10
6.8189827
20
92.406243
11
6.8189827
21
92.2698048
0
LINE
8
DEFAULT_255_1_388
10
6.8189827
20
92.2698048
11
6.6364626
21
92.2698048
0
LINE
8
DEFAULT_255_1_388
10
6.6364626
20
92.2698048
11
6.6364626
21
91.9644
0
LINE
8
DEFAULT_255_1_388
10
6.6364626
20
91.9644
11
6.4683997
21
91.9644
0
LINE
8
DEFAULT_255_1_388
10
6.4683997
20
91.9644
11
6.4683997
21
92.2698048
0
LINE
8
DEFAULT_255_1_388
10
6.4683997
20
92.2698048
11
5.8693364
21
92.2698048
0
LINE
8
DEFAULT_255_1_388
10
5.8693364
20
92.2698048
11
5.8693364
21
92.3682933
0
LINE
8
DEFAULT_255_1_388
10
5.8693364
20
92.3682933
11
6.4584604
21
93.2799898
0
LINE
8
DEFAULT_255_1_388
10
6.4584604
20
93.2799898
11
6.6364626
21
93.2799898
0
LINE
8
DEFAULT_255_1_388
10
6.4485212
20
93.0152455
11
6.059085
21
92.406243
0
LINE
8
DEFAULT_255_1_388
10
6.059085
20
92.406243
11
6.4683997
21
92.406243
0
LINE
8
DEFAULT_255_1_388
10
6.4683997
20
92.406243
11
6.4683997
21
93.051388
0
LINE
8
DEFAULT_255_1_388
10
6.4683997
20
93.051388
11
6.4485212
21
93.0152455
0
LINE
8
DEFAULT_255_1_388
10
4.9834637
20
99.9019
11
4.8578682
21
100.2452545
0
LINE
8
DEFAULT_255_1_388
10
4.8578682
20
100.2452545
11
4.3066939
21
100.2452545
0
LINE
8
DEFAULT_255_1_388
10
4.3066939
20
100.2452545
11
4.1829056
21
99.9019
0
LINE
8
DEFAULT_255_1_388
10
4.1829056
20
99.9019
11
4.0039998
21
99.9019
0
LINE
8
DEFAULT_255_1_388
10
4.0039998
20
99.9019
11
4.5063816
21
101.2174898
0
LINE
8
DEFAULT_255_1_388
10
4.5063816
20
101.2174898
11
4.6581805
21
101.2174898
0
LINE
8
DEFAULT_255_1_388
10
4.6581805
20
101.2174898
11
5.1614659
21
99.9019
0
LINE
8
DEFAULT_255_1_388
10
5.1614659
20
99.9019
11
4.9834637
21
99.9019
0
LINE
8
DEFAULT_255_1_388
10
4.5822811
20
101.0033451
11
4.3591006
21
100.3880177
0
LINE
8
DEFAULT_255_1_388
10
4.3591006
20
100.3880177
11
4.806365
21
100.3880177
0
LINE
8
DEFAULT_255_1_388
10
4.806365
20
100.3880177
11
4.5822811
21
101.0033451
0
LINE
8
DEFAULT_255_1_388
10
5.5246988
20
101.2174898
11
5.5246988
21
99.9019
0
LINE
8
DEFAULT_255_1_388
10
5.5246988
20
99.9019
11
5.3512144
21
99.9019
0
LINE
8
DEFAULT_255_1_388
10
5.3512144
20
99.9019
11
5.3512144
21
101.2174898
0
LINE
8
DEFAULT_255_1_388
10
5.3512144
20
101.2174898
11
5.5246988
21
101.2174898
0
LINE
8
DEFAULT_255_1_388
10
6.0415376
20
100.5045775
11
6.0415376
21
100.6410157
0
LINE
8
DEFAULT_255_1_388
10
6.0415376
20
100.6410157
11
6.1671331
21
100.6410157
0
LINE
8
DEFAULT_255_1_388
10
5.9529883
20
100.8723282
11
5.7858289
21
100.8723282
0
LINE
8
DEFAULT_255_1_388
10
5.7740826
20
100.2488688
11
5.9421456
21
100.2488688
0
LINE
8
DEFAULT_255_1_388
10
6.1671331
20
100.5045775
11
6.0415376
21
100.5045775
0
ARC
8
DEFAULT_255_1_388
10
6.1638558
20
101.0226922
40
0.3816905
50
270.491971
51
281.8953028
0
ARC
8
DEFAULT_255_1_388
10
6.1909985
20
100.8987199
40
0.2547877
50
281.6690378
51
301.2943765
0
ARC
8
DEFAULT_255_1_388
10
6.2101436
20
100.8636926
40
0.2149197
50
301.7834992
51
311.754567
0
ARC
8
DEFAULT_255_1_388
10
6.2204477
20
100.852265
40
0.1995326
50
311.7325027
51
354.2803031
0
ARC
8
DEFAULT_255_1_388
10
6.1386893
20
100.866328
40
0.2823461
50
353.0941646
51
0.1174696
0
ARC
8
DEFAULT_255_1_388
10
6.0868451
20
100.8716874
40
0.3342238
50
359.1804452
51
15.0452323
0
ARC
8
DEFAULT_255_1_388
10
6.2382509
20
100.9158546
40
0.1765747
50
13.957816
51
77.6713812
0
ARC
8
DEFAULT_255_1_388
10
6.1947745
20
100.7600464
40
0.3381982
50
76.111571
51
90.7028736
0
ARC
8
DEFAULT_255_1_388
10
6.1881157
20
100.790825
40
0.3074046
50
89.5321574
51
103.5319393
0
ARC
8
DEFAULT_255_1_388
10
6.1655541
20
100.8807443
40
0.2147041
50
103.2930114
51
133.5619756
0
ARC
8
DEFAULT_255_1_388
10
6.1605482
20
100.8874351
40
0.2064084
50
133.8349761
51
173.5343225
0
ARC
8
DEFAULT_255_1_388
10
6.241914
20
100.8730144
40
0.2889266
50
172.5097183
51
180.1360699
0
ARC
8
DEFAULT_255_1_388
10
6.1348904
20
100.876888
40
0.3490913
50
155.3483706
51
180.7484035
0
ARC
8
DEFAULT_255_1_388
10
6.129388
20
100.8736519
40
0.3454798
50
131.5745177
51
154.4799474
0
ARC
8
DEFAULT_255_1_388
10
6.1646162
20
100.8380422
40
0.3955058
50
96.9874487
51
131.9690874
0
ARC
8
DEFAULT_255_1_388
10
6.1893055
20
100.6979407
40
0.537622
50
89.8592909
51
97.7827481
0
ARC
8
DEFAULT_255_1_388
10
6.1947164
20
100.668436
40
0.5671399
50
78.3654493
51
90.4132586
0
ARC
8
DEFAULT_255_1_388
10
6.2349805
20
100.8550918
40
0.3762034
50
56.6229818
51
78.6387103
0
ARC
8
DEFAULT_255_1_388
10
6.2591634
20
100.8973846
40
0.3275964
50
47.0254604
51
56.085558
0
ARC
8
DEFAULT_255_1_388
10
6.2613885
20
100.9018189
40
0.3228382
50
10.9207523
51
46.777927
0
ARC
8
DEFAULT_255_1_388
10
6.1079479
20
100.8663401
40
0.4802559
50
359.6364235
51
11.6087615
0
ARC
8
DEFAULT_255_1_388
10
6.3143645
20
100.8646404
40
0.273833
50
332.3549969
51
359.7179765
0
ARC
8
DEFAULT_255_1_388
10
6.2412045
20
100.8993285
40
0.3547505
50
325.2332381
51
332.8746682
0
ARC
8
DEFAULT_255_1_388
10
6.2583628
20
100.8873763
40
0.3338396
50
292.9803892
51
325.2391113
0
ARC
8
DEFAULT_255_1_388
10
6.2272824
20
100.9478679
40
0.4016959
50
292.542178
51
293.6931461
0
ARC
8
DEFAULT_255_1_388
10
6.2716396
20
100.2213036
40
0.372079
50
57.643292
51
72.8626085
0
ARC
8
DEFAULT_255_1_388
10
6.3115231
20
100.2859273
40
0.2961455
50
36.7246661
51
57.4701329
0
ARC
8
DEFAULT_255_1_388
10
6.3102387
20
100.287347
40
0.2963321
50
8.054535
51
36.3561529
0
ARC
8
DEFAULT_255_1_388
10
6.213206
20
100.2699073
40
0.3948682
50
359.8316595
51
8.5873361
0
ARC
8
DEFAULT_255_1_388
10
6.1709534
20
100.264497
40
0.4371398
50
343.9831631
51
0.557075
0
ARC
8
DEFAULT_255_1_388
10
6.2706584
20
100.2371963
40
0.3337749
50
311.6358204
51
343.7652116
0
ARC
8
DEFAULT_255_1_388
10
6.2280837
20
100.2851955
40
0.3979351
50
279.7829743
51
311.625622
0
ARC
8
DEFAULT_255_1_388
10
6.1941973
20
100.4468642
40
0.5630417
50
269.7285092
51
280.3857694
0
ARC
8
DEFAULT_255_1_388
10
6.1872286
20
100.4422241
40
0.5584119
50
256.6827433
51
270.4412869
0
ARC
8
DEFAULT_255_1_388
10
6.1491272
20
100.2864698
40
0.3980715
50
229.4223821
51
256.8554507
0
ARC
8
DEFAULT_255_1_388
10
6.1024825
20
100.2339683
40
0.3278564
50
181.8183354
51
229.6455015
0
ARC
8
DEFAULT_255_1_388
10
6.2194435
20
100.2486825
40
0.4453611
50
179.9760419
51
183.2330638
0
ARC
8
DEFAULT_255_1_388
10
6.2000987
20
100.2463781
40
0.2579652
50
179.4467996
51
196.2871626
0
ARC
8
DEFAULT_255_1_388
10
6.1452441
20
100.2313709
40
0.2011057
50
196.5661293
51
227.7059371
0
ARC
8
DEFAULT_255_1_388
10
6.1637048
20
100.2520155
40
0.2287994
50
227.7653015
51
257.8763321
0
ARC
8
DEFAULT_255_1_388
10
6.1890131
20
100.3580961
40
0.3378385
50
257.4583525
51
270.4267406
0
ARC
8
DEFAULT_255_1_388
10
6.1941381
20
100.390723
40
0.3704652
50
269.5965319
51
280.8788143
0
ARC
8
DEFAULT_255_1_388
10
6.2199609
20
100.2617529
40
0.2389415
50
280.6347277
51
299.8594068
0
ARC
8
DEFAULT_255_1_388
10
6.2414379
20
100.2209736
40
0.19289
50
300.3575552
51
314.5515667
0
ARC
8
DEFAULT_255_1_388
10
6.2321054
20
100.2278025
40
0.204312
50
315.0730962
51
345.0429362
0
ARC
8
DEFAULT_255_1_388
10
6.1282562
20
100.2580539
40
0.31246
50
344.598526
51
357.9270698
0
ARC
8
DEFAULT_255_1_388
10
6.0272867
20
100.2649705
40
0.4136265
50
357.4755098
51
0.0224936
0
ARC
8
DEFAULT_255_1_388
10
6.1425744
20
100.2677099
40
0.2983498
50
359.5051035
51
13.4236939
0
ARC
8
DEFAULT_255_1_388
10
6.2400834
20
100.2926637
40
0.1977186
50
12.9497905
51
48.7550905
0
ARC
8
DEFAULT_255_1_388
10
6.2195756
20
100.2646373
40
0.2323321
50
49.509109
51
72.1832965
0
ARC
8
DEFAULT_255_1_388
10
6.1793224
20
100.1451632
40
0.358397
50
71.9008458
51
84.3555134
0
ARC
8
DEFAULT_255_1_388
10
6.1611619
20
99.9919712
40
0.512641
50
84.019632
51
89.3326067
0
LINE
8
DEFAULT_255_1_388
10
4.9834637
20
107.8394
11
4.8578682
21
108.1827545
0
LINE
8
DEFAULT_255_1_388
10
4.8578682
20
108.1827545
11
4.3066939
21
108.1827545
0
LINE
8
DEFAULT_255_1_388
10
4.3066939
20
108.1827545
11
4.1829056
21
107.8394
0
LINE
8
DEFAULT_255_1_388
10
4.1829056
20
107.8394
11
4.0039998
21
107.8394
0
LINE
8
DEFAULT_255_1_388
10
4.0039998
20
107.8394
11
4.5063816
21
109.1549898
0
LINE
8
DEFAULT_255_1_388
10
4.5063816
20
109.1549898
11
4.6581805
21
109.1549898
0
LINE
8
DEFAULT_255_1_388
10
4.6581805
20
109.1549898
11
5.1614659
21
107.8394
0
LINE
8
DEFAULT_255_1_388
10
5.1614659
20
107.8394
11
4.9834637
21
107.8394
0
LINE
8
DEFAULT_255_1_388
10
4.5822811
20
108.9408451
11
4.3591006
21
108.3255177
0
LINE
8
DEFAULT_255_1_388
10
4.3591006
20
108.3255177
11
4.806365
21
108.3255177
0
LINE
8
DEFAULT_255_1_388
10
4.806365
20
108.3255177
11
4.5822811
21
108.9408451
0
LINE
8
DEFAULT_255_1_388
10
5.5246988
20
109.1549898
11
5.5246988
21
107.8394
0
LINE
8
DEFAULT_255_1_388
10
5.5246988
20
107.8394
11
5.3512144
21
107.8394
0
LINE
8
DEFAULT_255_1_388
10
5.3512144
20
107.8394
11
5.3512144
21
109.1549898
0
LINE
8
DEFAULT_255_1_388
10
5.3512144
20
109.1549898
11
5.5246988
21
109.1549898
0
LINE
8
DEFAULT_255_1_388
10
6.6604793
20
107.9758382
11
6.6604793
21
107.8394
0
LINE
8
DEFAULT_255_1_388
10
6.6604793
20
107.8394
11
5.7984788
21
107.8394
0
LINE
8
DEFAULT_255_1_388
10
5.7984788
20
107.8394
11
5.7984788
21
107.9595741
0
LINE
8
DEFAULT_255_1_388
10
5.7984788
20
107.9595741
11
6.2538753
21
108.4655702
0
LINE
8
DEFAULT_255_1_388
10
5.9403384
20
108.7673607
11
5.773179
21
108.7673607
0
LINE
8
DEFAULT_255_1_388
10
6.3523638
20
108.358046
11
5.9999737
21
107.9758382
0
LINE
8
DEFAULT_255_1_388
10
5.9999737
20
107.9758382
11
6.6604793
21
107.9758382
0
ARC
8
DEFAULT_255_1_388
10
4.7362812
20
109.8075983
40
2.0258655
50
318.5132526
51
320.7829045
0
ARC
8
DEFAULT_255_1_388
10
5.3310769
20
109.3234929
40
1.2589638
50
320.7372878
51
323.9739031
0
ARC
8
DEFAULT_255_1_388
10
5.7719701
20
109.0040554
40
0.7145141
50
323.8962701
51
328.64194
0
ARC
8
DEFAULT_255_1_388
10
6.0021959
20
108.8620545
40
0.4440242
50
328.8294576
51
331.7891185
0
ARC
8
DEFAULT_255_1_388
10
6.1144279
20
108.8041374
40
0.3177517
50
331.4254512
51
352.9365785
0
ARC
8
DEFAULT_255_1_388
10
6.1297279
20
108.800705
40
0.3021496
50
353.2257659
51
0.0166158
0
ARC
8
DEFAULT_255_1_388
10
6.1534039
20
108.8032894
40
0.2784847
50
359.486299
51
15.9343185
0
ARC
8
DEFAULT_255_1_388
10
6.2104306
20
108.8186269
40
0.2194403
50
16.1712913
51
43.5286088
0
ARC
8
DEFAULT_255_1_388
10
6.2191251
20
108.8273191
40
0.2071504
50
43.4417391
51
83.1661095
0
ARC
8
DEFAULT_255_1_388
10
6.2040412
20
108.7444316
40
0.2912888
50
82.160179
51
90.1505708
0
ARC
8
DEFAULT_255_1_388
10
6.2004893
20
108.6840279
40
0.3517025
50
89.5460741
51
102.5418361
0
ARC
8
DEFAULT_255_1_388
10
6.1731613
20
108.7999933
40
0.2325748
50
102.1738499
51
129.206123
0
ARC
8
DEFAULT_255_1_388
10
6.1643067
20
108.8139664
40
0.2161591
50
129.72865
51
135.753947
0
ARC
8
DEFAULT_255_1_388
10
6.1779549
20
108.8030728
40
0.2335433
50
136.1757367
51
166.3673339
0
ARC
8
DEFAULT_255_1_388
10
6.2912237
20
108.7727148
40
0.3507873
50
165.9090694
51
178.8684636
0
ARC
8
DEFAULT_255_1_388
10
6.3888009
20
108.7674263
40
0.4484624
50
178.4391136
51
180.0083808
0
ARC
8
DEFAULT_255_1_388
10
6.230871
20
108.7718197
40
0.4577138
50
163.2878482
51
180.5581842
0
ARC
8
DEFAULT_255_1_388
10
6.1406752
20
108.7966393
40
0.3641968
50
133.4540601
51
162.947111
0
ARC
8
DEFAULT_255_1_388
10
6.1607633
20
108.7752789
40
0.3935189
50
100.7869829
51
133.4382499
0
ARC
8
DEFAULT_255_1_388
10
6.1998878
20
108.6010399
40
0.5720313
50
89.660664
51
101.3702276
0
ARC
8
DEFAULT_255_1_388
10
6.2073487
20
108.6079263
40
0.5651495
50
78.2172678
51
90.412935
0
ARC
8
DEFAULT_255_1_388
10
6.2472953
20
108.7906511
40
0.378122
50
55.9269121
51
78.4888449
0
ARC
8
DEFAULT_255_1_388
10
6.2693668
20
108.8287187
40
0.3342379
50
47.929771
51
55.4049217
0
ARC
8
DEFAULT_255_1_388
10
6.2808198
20
108.8403618
40
0.3179217
50
4.334829
51
48.0560205
0
ARC
8
DEFAULT_255_1_388
10
6.1576
20
108.8212487
40
0.442341
50
359.9251713
51
5.5971671
0
ARC
8
DEFAULT_255_1_388
10
6.2058155
20
108.8275728
40
0.3941854
50
337.8914027
51
358.9967534
0
ARC
8
DEFAULT_255_1_388
10
5.9005725
20
108.9453295
40
0.7213271
50
326.9132501
51
338.3508308
0
ARC
8
DEFAULT_255_1_388
10
5.4521837
20
109.2327105
40
1.2538973
50
319.6471833
51
327.0959558
0
ARC
8
DEFAULT_255_1_388
10
5.0208495
20
109.588505
40
1.8129975
50
317.2588228
51
319.9045804
0
LINE
8
DEFAULT_255_1_388
10
4.9750637
20
115.7769
11
4.8494682
21
116.1202545
0
LINE
8
DEFAULT_255_1_388
10
4.8494682
20
116.1202545
11
4.2982939
21
116.1202545
0
LINE
8
DEFAULT_255_1_388
10
4.2982939
20
116.1202545
11
4.1745056
21
115.7769
0
LINE
8
DEFAULT_255_1_388
10
4.1745056
20
115.7769
11
3.9955998
21
115.7769
0
LINE
8
DEFAULT_255_1_388
10
3.9955998
20
115.7769
11
4.4979816
21
117.0924898
0
LINE
8
DEFAULT_255_1_388
10
4.4979816
20
117.0924898
11
4.6497805
21
117.0924898
0
LINE
8
DEFAULT_255_1_388
10
4.6497805
20
117.0924898
11
5.1530659
21
115.7769
0
LINE
8
DEFAULT_255_1_388
10
5.1530659
20
115.7769
11
4.9750637
21
115.7769
0
LINE
8
DEFAULT_255_1_388
10
4.5738811
20
116.8783451
11
4.3507006
21
116.2630177
0
LINE
8
DEFAULT_255_1_388
10
4.3507006
20
116.2630177
11
4.797965
21
116.2630177
0
LINE
8
DEFAULT_255_1_388
10
4.797965
20
116.2630177
11
4.5738811
21
116.8783451
0
LINE
8
DEFAULT_255_1_388
10
5.5162988
20
117.0924898
11
5.5162988
21
115.7769
0
LINE
8
DEFAULT_255_1_388
10
5.5162988
20
115.7769
11
5.3428144
21
115.7769
0
LINE
8
DEFAULT_255_1_388
10
5.3428144
20
115.7769
11
5.3428144
21
117.0924898
0
LINE
8
DEFAULT_255_1_388
10
5.3428144
20
117.0924898
11
5.5162988
21
117.0924898
0
LINE
8
DEFAULT_255_1_388
10
6.339446
20
117.0988148
11
6.339446
21
115.7769
0
LINE
8
DEFAULT_255_1_388
10
6.339446
20
115.7769
11
6.171383
21
115.7769
0
LINE
8
DEFAULT_255_1_388
10
6.171383
20
115.7769
11
6.171383
21
116.890995
0
LINE
8
DEFAULT_255_1_388
10
6.171383
20
116.890995
11
5.8343535
21
116.7672066
0
LINE
8
DEFAULT_255_1_388
10
5.8343535
20
116.7672066
11
5.8343535
21
116.9190055
0
LINE
8
DEFAULT_255_1_388
10
5.8343535
20
116.9190055
11
6.3132426
21
117.0988148
0
LINE
8
DEFAULT_255_1_388
10
6.3132426
20
117.0988148
11
6.339446
21
117.0988148
0
LINE
8
DEFAULT_255_1_388
10
4.9834637
20
123.7144
11
4.8578682
21
124.0577545
0
LINE
8
DEFAULT_255_1_388
10
4.8578682
20
124.0577545
11
4.3066939
21
124.0577545
0
LINE
8
DEFAULT_255_1_388
10
4.3066939
20
124.0577545
11
4.1829056
21
123.7144
0
LINE
8
DEFAULT_255_1_388
10
4.1829056
20
123.7144
11
4.0039998
21
123.7144
0
LINE
8
DEFAULT_255_1_388
10
4.0039998
20
123.7144
11
4.5063816
21
125.0299898
0
LINE
8
DEFAULT_255_1_388
10
4.5063816
20
125.0299898
11
4.6581805
21
125.0299898
0
LINE
8
DEFAULT_255_1_388
10
4.6581805
20
125.0299898
11
5.1614659
21
123.7144
0
LINE
8
DEFAULT_255_1_388
10
5.1614659
20
123.7144
11
4.9834637
21
123.7144
0
LINE
8
DEFAULT_255_1_388
10
4.5822811
20
124.8158451
11
4.3591006
21
124.2005177
0
LINE
8
DEFAULT_255_1_388
10
4.3591006
20
124.2005177
11
4.806365
21
124.2005177
0
LINE
8
DEFAULT_255_1_388
10
4.806365
20
124.2005177
11
4.5822811
21
124.8158451
0
LINE
8
DEFAULT_255_1_388
10
5.5246988
20
125.0299898
11
5.5246988
21
123.7144
0
LINE
8
DEFAULT_255_1_388
10
5.5246988
20
123.7144
11
5.3512144
21
123.7144
0
LINE
8
DEFAULT_255_1_388
10
5.3512144
20
123.7144
11
5.3512144
21
125.0299898
0
LINE
8
DEFAULT_255_1_388
10
5.3512144
20
125.0299898
11
5.5246988
21
125.0299898
0
LINE
8
DEFAULT_255_1_388
10
6.6234332
20
124.492369
11
6.6234332
21
124.2755135
0
LINE
8
DEFAULT_255_1_388
10
5.7930574
20
124.2529244
11
5.7930574
21
124.4761048
0
LINE
8
DEFAULT_255_1_388
10
6.4562737
20
124.2303353
11
6.4562737
21
124.5041153
0
LINE
8
DEFAULT_255_1_388
10
5.9602168
20
124.5167652
11
5.9602168
21
124.2493102
0
ARC
8
DEFAULT_255_1_388
10
5.2456666
20
124.2700118
40
1.3777776
50
353.8440855
51
0.2287917
0
ARC
8
DEFAULT_255_1_388
10
5.7675683
20
124.2117414
40
0.852639
50
344.4934746
51
353.9763743
0
ARC
8
DEFAULT_255_1_388
10
6.104249
20
124.1160191
40
0.5026273
50
329.2803599
51
344.7473406
0
ARC
8
DEFAULT_255_1_388
10
6.2157986
20
124.0548038
40
0.3754848
50
324.9361395
51
328.6153007
0
ARC
8
DEFAULT_255_1_388
10
6.2583636
20
124.0250586
40
0.3235566
50
280.5801797
51
324.9173226
0
ARC
8
DEFAULT_255_1_388
10
6.2132264
20
124.2130236
40
0.5167077
50
269.5979457
51
281.6732777
0
ARC
8
DEFAULT_255_1_388
10
6.2051168
20
124.1995113
40
0.5032026
50
256.6228565
51
270.5105488
0
ARC
8
DEFAULT_255_1_388
10
6.1598911
20
124.0253345
40
0.3233092
50
215.8618351
51
257.2787793
0
ARC
8
DEFAULT_255_1_388
10
6.2747618
20
124.1024106
40
0.4615831
50
197.9695203
51
215.2622745
0
ARC
8
DEFAULT_255_1_388
10
6.5543293
20
124.1967641
40
0.7566307
50
187.8816486
51
198.2346584
0
ARC
8
DEFAULT_255_1_388
10
6.9996531
20
124.2610453
40
1.2065653
50
180.8977266
51
188.0054894
0
ARC
8
DEFAULT_255_1_388
10
7.3046745
20
124.27254
40
1.5117443
50
180.7434591
51
181.152202
0
ARC
8
DEFAULT_255_1_388
10
7.1371741
20
124.4815371
40
1.3441277
50
173.7674302
51
180.2315596
0
ARC
8
DEFAULT_255_1_388
10
6.628961
20
124.5389779
40
0.8326847
50
164.3058537
51
173.9000553
0
ARC
8
DEFAULT_255_1_388
10
6.301361
20
124.6333652
40
0.4917711
50
148.7922028
51
164.5682288
0
ARC
8
DEFAULT_255_1_388
10
6.1944347
20
124.6930457
40
0.3694204
50
144.5883979
51
148.1161588
0
ARC
8
DEFAULT_255_1_388
10
6.1557093
20
124.7200667
40
0.322202
50
101.6440149
51
144.5142619
0
ARC
8
DEFAULT_255_1_388
10
6.2035285
20
124.5300337
40
0.5180451
50
89.528284
51
102.5820197
0
ARC
8
DEFAULT_255_1_388
10
6.2124277
20
124.5256376
40
0.5224441
50
77.0437914
51
90.508231
0
ARC
8
DEFAULT_255_1_388
10
6.2576531
20
124.7104272
40
0.3322297
50
48.2777708
51
77.4996087
0
ARC
8
DEFAULT_255_1_388
10
6.265827
20
124.7249557
40
0.315966
50
36.3141586
51
47.6307332
0
ARC
8
DEFAULT_255_1_388
10
6.1680993
20
124.6591159
40
0.4337313
50
18.2931065
51
35.6770203
0
ARC
8
DEFAULT_255_1_388
10
5.8819834
20
124.5609107
40
0.7362203
50
8.0246996
51
18.5605636
0
ARC
8
DEFAULT_255_1_388
10
5.4136189
20
124.4917432
40
1.2096583
50
1.127539
51
8.1718423
0
ARC
8
DEFAULT_255_1_388
10
5.0487322
20
124.4774374
40
1.5747719
50
0.5432713
51
1.38669
0
ARC
8
DEFAULT_255_1_388
10
5.2544701
20
124.5081163
40
1.2018103
50
359.8092569
51
4.9408001
0
ARC
8
DEFAULT_255_1_388
10
5.7281282
20
124.55039
40
0.7262727
50
4.8364937
51
12.2906017
0
ARC
8
DEFAULT_255_1_388
10
6.0380747
20
124.6194485
40
0.4087324
50
12.0806994
51
23.8171225
0
ARC
8
DEFAULT_255_1_388
10
6.1701143
20
124.6753508
40
0.2653719
50
24.2874621
51
31.3934353
0
ARC
8
DEFAULT_255_1_388
10
6.2291579
20
124.7139822
40
0.1948607
50
30.7407708
51
82.4658033
0
ARC
8
DEFAULT_255_1_388
10
6.208924
20
124.6146017
40
0.2961198
50
81.1057101
51
90.2187368
0
ARC
8
DEFAULT_255_1_388
10
6.2049052
20
124.6436421
40
0.2670929
50
89.380395
51
105.6763916
0
ARC
8
DEFAULT_255_1_388
10
6.1842774
20
124.718632
40
0.1893189
50
105.7980655
51
149.7387869
0
ARC
8
DEFAULT_255_1_388
10
6.3039914
20
124.6466719
40
0.3289892
50
149.4208441
51
163.628295
0
ARC
8
DEFAULT_255_1_388
10
6.5392144
20
124.5749345
40
0.5749004
50
163.3764549
51
172.141138
0
ARC
8
DEFAULT_255_1_388
10
6.9104865
20
124.5217582
40
0.9499585
50
172.0258462
51
178.0705453
0
ARC
8
DEFAULT_255_1_388
10
7.2526418
20
124.5055682
40
1.2924734
50
177.8639301
51
179.5036263
0
ARC
8
DEFAULT_255_1_388
10
7.1307436
20
124.2452151
40
1.170534
50
179.7995545
51
185.246089
0
ARC
8
DEFAULT_255_1_388
10
6.675903
20
124.2021404
40
0.7136613
50
185.1411911
51
193.0082205
0
ARC
8
DEFAULT_255_1_388
10
6.378529
20
124.1318441
40
0.4080987
50
192.7897338
51
205.2507384
0
ARC
8
DEFAULT_255_1_388
10
6.26075
20
124.0792538
40
0.2791522
50
205.8001921
51
211.2545876
0
ARC
8
DEFAULT_255_1_388
10
6.2019039
20
124.0398132
40
0.2084074
50
210.3789935
51
238.4007996
0
ARC
8
DEFAULT_255_1_388
10
6.1997125
20
124.0450786
40
0.2117943
50
239.6521916
51
265.9793852
0
ARC
8
DEFAULT_255_1_388
10
6.2092974
20
124.1207358
40
0.2879689
50
265.1324455
51
270.0603288
0
ARC
8
DEFAULT_255_1_388
10
6.2125351
20
124.0842418
40
0.2514919
50
269.3314378
51
287.2180039
0
ARC
8
DEFAULT_255_1_388
10
6.2280433
20
124.0276291
40
0.1928357
50
287.7957942
51
329.0808983
0
ARC
8
DEFAULT_255_1_388
10
6.1203191
20
124.0948651
40
0.319808
50
328.6635261
51
343.3325043
0
ARC
8
DEFAULT_255_1_388
10
5.8758649
20
124.1710195
40
0.5758408
50
343.0498092
51
351.9392499
0
ARC
8
DEFAULT_255_1_388
10
5.4857971
20
124.2285205
40
0.9701202
50
351.8071632
51
357.7957897
0
ARC
8
DEFAULT_255_1_388
10
5.1223448
20
124.2473724
40
1.3340376
50
357.5870923
51
359.2682493
0
LINE
8
DEFAULT_255_1_388
10
23.1190856
20
132.429869
11
23.1190856
21
132.2130135
0
LINE
8
DEFAULT_255_1_388
10
22.2887099
20
132.1904244
11
22.2887099
21
132.4136048
0
LINE
8
DEFAULT_255_1_388
10
22.9519262
20
132.1678353
11
22.9519262
21
132.4416153
0
LINE
8
DEFAULT_255_1_388
10
22.4558693
20
132.4542652
11
22.4558693
21
132.1868102
0
ARC
8
DEFAULT_255_1_388
10
21.741319
20
132.2075118
40
1.3777776
50
353.8440855
51
0.2287917
0
ARC
8
DEFAULT_255_1_388
10
22.2632208
20
132.1492414
40
0.852639
50
344.4934746
51
353.9763743
0
ARC
8
DEFAULT_255_1_388
10
22.5999015
20
132.0535191
40
0.5026273
50
329.2803599
51
344.7473406
0
ARC
8
DEFAULT_255_1_388
10
22.7114511
20
131.9923038
40
0.3754848
50
324.9361395
51
328.6153007
0
ARC
8
DEFAULT_255_1_388
10
22.7540161
20
131.9625586
40
0.3235566
50
280.5801797
51
324.9173226
0
ARC
8
DEFAULT_255_1_388
10
22.7088789
20
132.1505236
40
0.5167077
50
269.5979457
51
281.6732777
0
ARC
8
DEFAULT_255_1_388
10
22.7007693
20
132.1370113
40
0.5032026
50
256.6228565
51
270.5105488
0
ARC
8
DEFAULT_255_1_388
10
22.6555435
20
131.9628345
40
0.3233092
50
215.8618351
51
257.2787793
0
ARC
8
DEFAULT_255_1_388
10
22.7704142
20
132.0399106
40
0.4615831
50
197.9695203
51
215.2622745
0
ARC
8
DEFAULT_255_1_388
10
23.0499818
20
132.1342641
40
0.7566307
50
187.8816486
51
198.2346584
0
ARC
8
DEFAULT_255_1_388
10
23.4953056
20
132.1985453
40
1.2065653
50
180.8977266
51
188.0054894
0
ARC
8
DEFAULT_255_1_388
10
23.800327
20
132.21004
40
1.5117443
50
180.7434591
51
181.152202
0
ARC
8
DEFAULT_255_1_388
10
23.6328266
20
132.4190371
40
1.3441277
50
173.7674302
51
180.2315596
0
ARC
8
DEFAULT_255_1_388
10
23.1246135
20
132.4764779
40
0.8326847
50
164.3058537
51
173.9000553
0
ARC
8
DEFAULT_255_1_388
10
22.7970135
20
132.5708652
40
0.4917711
50
148.7922028
51
164.5682288
0
ARC
8
DEFAULT_255_1_388
10
22.6900872
20
132.6305457
40
0.3694204
50
144.5883979
51
148.1161588
0
ARC
8
DEFAULT_255_1_388
10
22.6513618
20
132.6575667
40
0.322202
50
101.6440149
51
144.5142619
0
ARC
8
DEFAULT_255_1_388
10
22.699181
20
132.4675337
40
0.5180451
50
89.528284
51
102.5820197
0
ARC
8
DEFAULT_255_1_388
10
22.7080802
20
132.4631376
40
0.5224441
50
77.0437914
51
90.508231
0
ARC
8
DEFAULT_255_1_388
10
22.7533055
20
132.6479272
40
0.3322297
50
48.2777708
51
77.4996087
0
ARC
8
DEFAULT_255_1_388
10
22.7614795
20
132.6624557
40
0.315966
50
36.3141586
51
47.6307332
0
ARC
8
DEFAULT_255_1_388
10
22.6637518
20
132.5966159
40
0.4337313
50
18.2931065
51
35.6770203
0
ARC
8
DEFAULT_255_1_388
10
22.3776358
20
132.4984107
40
0.7362203
50
8.0246996
51
18.5605636
0
ARC
8
DEFAULT_255_1_388
10
21.9092714
20
132.4292432
40
1.2096583
50
1.127539
51
8.1718423
0
ARC
8
DEFAULT_255_1_388
10
21.5443847
20
132.4149374
40
1.5747719
50
0.5432713
51
1.38669
0
ARC
8
DEFAULT_255_1_388
10
21.7501226
20
132.4456163
40
1.2018103
50
359.8092569
51
4.9408001
0
ARC
8
DEFAULT_255_1_388
10
22.2237807
20
132.48789
40
0.7262727
50
4.8364937
51
12.2906017
0
ARC
8
DEFAULT_255_1_388
10
22.5337272
20
132.5569485
40
0.4087324
50
12.0806994
51
23.8171225
0
ARC
8
DEFAULT_255_1_388
10
22.6657668
20
132.6128508
40
0.2653719
50
24.2874621
51
31.3934353
0
ARC
8
DEFAULT_255_1_388
10
22.7248104
20
132.6514822
40
0.1948607
50
30.7407708
51
82.4658033
0
ARC
8
DEFAULT_255_1_388
10
22.7045765
20
132.5521017
40
0.2961198
50
81.1057101
51
90.2187368
0
ARC
8
DEFAULT_255_1_388
10
22.7005577
20
132.5811421
40
0.2670929
50
89.380395
51
105.6763916
0
ARC
8
DEFAULT_255_1_388
10
22.6799299
20
132.656132
40
0.1893189
50
105.7980655
51
149.7387869
0
ARC
8
DEFAULT_255_1_388
10
22.7996439
20
132.5841719
40
0.3289892
50
149.4208441
51
163.628295
0
ARC
8
DEFAULT_255_1_388
10
23.0348668
20
132.5124345
40
0.5749004
50
163.3764549
51
172.141138
0
ARC
8
DEFAULT_255_1_388
10
23.406139
20
132.4592582
40
0.9499585
50
172.0258462
51
178.0705453
0
ARC
8
DEFAULT_255_1_388
10
23.7482943
20
132.4430682
40
1.2924734
50
177.8639301
51
179.5036263
0
ARC
8
DEFAULT_255_1_388
10
23.6263961
20
132.1827151
40
1.170534
50
179.7995545
51
185.246089
0
ARC
8
DEFAULT_255_1_388
10
23.1715554
20
132.1396404
40
0.7136613
50
185.1411911
51
193.0082205
0
ARC
8
DEFAULT_255_1_388
10
22.8741815
20
132.0693441
40
0.4080987
50
192.7897338
51
205.2507384
0
ARC
8
DEFAULT_255_1_388
10
22.7564025
20
132.0167538
40
0.2791522
50
205.8001921
51
211.2545876
0
ARC
8
DEFAULT_255_1_388
10
22.6975564
20
131.9773132
40
0.2084074
50
210.3789935
51
238.4007996
0
ARC
8
DEFAULT_255_1_388
10
22.695365
20
131.9825786
40
0.2117943
50
239.6521916
51
265.9793852
0
ARC
8
DEFAULT_255_1_388
10
22.7049499
20
132.0582358
40
0.2879689
50
265.1324455
51
270.0603288
0
ARC
8
DEFAULT_255_1_388
10
22.7081876
20
132.0217418
40
0.2514919
50
269.3314378
51
287.2180039
0
ARC
8
DEFAULT_255_1_388
10
22.7236958
20
131.9651291
40
0.1928357
50
287.7957942
51
329.0808983
0
ARC
8
DEFAULT_255_1_388
10
22.6159715
20
132.0323651
40
0.319808
50
328.6635261
51
343.3325043
0
ARC
8
DEFAULT_255_1_388
10
22.3715174
20
132.1085195
40
0.5758408
50
343.0498092
51
351.9392499
0
ARC
8
DEFAULT_255_1_388
10
21.9814496
20
132.1660205
40
0.9701202
50
351.8071632
51
357.7957897
0
ARC
8
DEFAULT_255_1_388
10
21.6179973
20
132.1848724
40
1.3340376
50
357.5870923
51
359.2682493
0
LINE
8
DEFAULT_255_1_388
10
23.4380439
20
132.9674898
11
23.8121196
21
131.8823089
0
LINE
8
DEFAULT_255_1_388
10
23.8121196
20
131.8823089
11
24.1880024
21
132.9674898
0
LINE
8
DEFAULT_255_1_388
10
24.1880024
20
132.9674898
11
24.3777509
21
132.9674898
0
LINE
8
DEFAULT_255_1_388
10
24.3777509
20
132.9674898
11
23.8898261
21
131.6519
0
LINE
8
DEFAULT_255_1_388
10
23.8898261
20
131.6519
11
23.7362202
21
131.6519
0
LINE
8
DEFAULT_255_1_388
10
23.7362202
20
131.6519
11
23.2491989
21
132.9674898
0
LINE
8
DEFAULT_255_1_388
10
23.2491989
20
132.9674898
11
23.4380439
21
132.9674898
0
ENDSEC
0
EOF