0
SECTION
2
HEADER
9
$MEASUREMENT
70
1
0
ENDSEC
0
SECTION
2
TABLES
0
TABLE
2
LTYPE
0
LTYPE
72
65
70
64
2
CONTINUOUS
3
______
73
0
40
0
0
ENDTAB
0
TABLE
2
LAYER
0
LAYER
2
DEFAULT_255_2_778
70
0
62
255
6
CONTINUOUS
0
LAYER
2
DEFAULT_255_1_388
70
0
62
255
6
CONTINUOUS
0
LAYER
2
DEFAULT_255_2_778_1
70
0
62
255
6
CONTINUOUS
0
ENDTAB
0
ENDSEC
0
SECTION
2
ENTITIES
0
ARC
8
DEFAULT_255_2_778
10
3.5700693
20
115.4926525
40
0.7914215
50
129.1312896
51
180.1450914
0
ARC
8
DEFAULT_255_2_778
10
3.5703345
20
115.4931396
40
0.7912112
50
89.854026
51
129.1684493
0
ARC
8
DEFAULT_255_2_778
10
25.7993937
20
115.4928261
40
0.7915249
50
39.4792447
51
90.147911
0
ARC
8
DEFAULT_255_2_778
10
25.7999935
20
115.4926728
40
0.7911595
50
359.8533901
51
39.5154338
0
ARC
8
DEFAULT_255_2_778
10
25.7996693
20
-1.9863998
40
0.7914836
50
309.4761667
51
0.1482649
0
ARC
8
DEFAULT_255_2_778
10
25.799398
20
-1.9868309
40
0.7913235
50
269.8517415
51
309.511178
0
ARC
8
DEFAULT_255_2_778
10
3.570342
20
-1.9867727
40
0.7913815
50
219.1282118
51
270.1454017
0
ARC
8
DEFAULT_255_2_778
10
3.5700247
20
-1.9863902
40
0.7913769
50
179.8524075
51
219.1641908
0
LINE
8
DEFAULT_255_2_778
10
3.5723503
20
116.2843483
11
25.7973503
21
116.2843483
0
LINE
8
DEFAULT_255_2_778
10
26.5911503
20
115.4906483
11
26.5911503
21
-1.9843517
0
LINE
8
DEFAULT_255_2_778
10
25.7973503
20
-2.7781517
11
3.5723503
21
-2.7781517
0
LINE
8
DEFAULT_255_2_778
10
2.7786503
20
-1.9843517
11
2.7786503
21
115.4906483
0
LINE
8
DEFAULT_255_1_388
10
9.820432
20
-0.2223532
11
9.9948199
21
-0.2223532
0
LINE
8
DEFAULT_255_1_388
10
8.9819242
20
-0.0434475
11
8.9819242
21
0.0830516
0
LINE
8
DEFAULT_255_1_388
10
9.9948199
20
0.2529217
11
9.820432
21
0.2529217
0
LINE
8
DEFAULT_255_1_388
10
9.1563121
20
0.0785337
11
9.1563121
21
-0.0488688
0
ARC
8
DEFAULT_255_1_388
10
9.3782433
20
-0.1551671
40
0.6202263
50
340.1774904
51
353.7812217
0
ARC
8
DEFAULT_255_1_388
10
9.5550286
20
-0.2210107
40
0.4315926
50
311.4560052
51
340.4420756
0
ARC
8
DEFAULT_255_1_388
10
9.5512826
20
-0.2085335
40
0.4434573
50
282.4332229
51
310.7514507
0
ARC
8
DEFAULT_255_1_388
10
9.5018644
20
-0.0043297
40
0.6535262
50
269.9358869
51
282.8096729
0
ARC
8
DEFAULT_255_1_388
10
9.4960583
20
0.1469329
40
0.8048043
50
269.9995752
51
270.3612856
0
ARC
8
DEFAULT_255_1_388
10
9.4901073
20
-0.1329219
40
0.5249831
50
250.7885263
51
270.6488451
0
ARC
8
DEFAULT_255_1_388
10
9.4711898
20
-0.2046147
40
0.4510942
50
219.3628377
51
250.0611024
0
ARC
8
DEFAULT_255_1_388
10
9.5644772
20
-0.1253347
40
0.5735046
50
193.5480293
51
219.5755675
0
ARC
8
DEFAULT_255_1_388
10
9.8312981
20
-0.056048
40
0.849146
50
181.1220183
51
193.8754971
0
ARC
8
DEFAULT_255_1_388
10
10.0636214
20
-0.0436086
40
1.0816971
50
179.9914644
51
181.5398227
0
ARC
8
DEFAULT_255_1_388
10
9.8559525
20
0.0872586
40
0.8740384
50
169.5837606
51
180.275782
0
ARC
8
DEFAULT_255_1_388
10
9.6492873
20
0.1254439
40
0.6638751
50
155.0367033
51
169.6002779
0
ARC
8
DEFAULT_255_1_388
10
9.5215331
20
0.1870336
40
0.5220662
50
136.7831557
51
155.2472983
0
ARC
8
DEFAULT_255_1_388
10
9.4777122
20
0.2242577
40
0.4646502
50
121.7633063
51
136.4281161
0
ARC
8
DEFAULT_255_1_388
10
9.4928962
20
0.1962049
40
0.4964979
50
95.6460018
51
121.5489589
0
ARC
8
DEFAULT_255_1_388
10
9.5105936
20
0.0714704
40
0.6223912
50
89.9245727
51
96.1375919
0
ARC
8
DEFAULT_255_1_388
10
9.5162641
20
0.0848721
40
0.6090084
50
76.6779212
51
90.456405
0
ARC
8
DEFAULT_255_1_388
10
9.5605454
20
0.263806
40
0.42469
50
47.4858803
51
76.9287069
0
ARC
8
DEFAULT_255_1_388
10
9.5440068
20
0.2525623
40
0.4441778
50
16.5424081
51
46.8934505
0
ARC
8
DEFAULT_255_1_388
10
9.3631118
20
0.1931265
40
0.6345318
50
5.4072971
51
17.0363711
0
ARC
8
DEFAULT_255_1_388
10
9.2012843
20
0.1671304
40
0.6250632
50
7.8888693
51
15.9242022
0
ARC
8
DEFAULT_255_1_388
10
9.4247828
20
0.2320309
40
0.3923364
50
15.7650676
51
27.9410069
0
ARC
8
DEFAULT_255_1_388
10
9.5489997
20
0.2985317
40
0.2514401
50
27.8167196
51
46.4007942
0
ARC
8
DEFAULT_255_1_388
10
9.5545839
20
0.2978882
40
0.2480958
50
47.4372362
51
75.0695672
0
ARC
8
DEFAULT_255_1_388
10
9.5198675
20
0.1770277
40
0.3738281
50
74.7009379
51
87.8124314
0
ARC
8
DEFAULT_255_1_388
10
9.5116292
20
0.0586659
40
0.4924321
50
87.3802571
51
90.0251599
0
ARC
8
DEFAULT_255_1_388
10
9.5072939
20
0.1906997
40
0.3604218
50
89.3451886
51
108.5744412
0
ARC
8
DEFAULT_255_1_388
10
9.4918931
20
0.2484836
40
0.3007661
50
109.2998307
51
143.3037387
0
ARC
8
DEFAULT_255_1_388
10
9.5776221
20
0.1825584
40
0.4089031
50
143.075267
51
163.1918576
0
ARC
8
DEFAULT_255_1_388
10
9.7972055
20
0.1132652
40
0.6391492
50
162.9375929
51
174.6208776
0
ARC
8
DEFAULT_255_1_388
10
10.0926437
20
0.0808711
40
0.9363344
50
174.342123
51
180.1430283
0
ARC
8
DEFAULT_255_1_388
10
9.9878978
20
-0.0534883
40
0.8315986
50
179.6817261
51
189.150555
0
ARC
8
DEFAULT_255_1_388
10
9.7065727
20
-0.1003441
40
0.5464044
50
188.9911061
51
203.5772363
0
ARC
8
DEFAULT_255_1_388
10
9.5851019
20
-0.1507461
40
0.4149206
50
203.9075402
51
215.1312435
0
ARC
8
DEFAULT_255_1_388
10
9.4812817
20
-0.2312093
40
0.2837747
50
213.9071511
51
263.8848919
0
ARC
8
DEFAULT_255_1_388
10
9.495381
20
-0.1429481
40
0.3730641
50
263.1757928
51
270.1031044
0
ARC
8
DEFAULT_255_1_388
10
9.498989
20
-0.0026489
40
0.5133712
50
269.6722503
51
279.0606936
0
ARC
8
DEFAULT_255_1_388
10
9.5290045
20
-0.184085
40
0.3294739
50
278.8749101
51
293.6349581
0
ARC
8
DEFAULT_255_1_388
10
9.5650249
20
-0.2686749
40
0.2375405
50
293.8553806
51
310.0518171
0
ARC
8
DEFAULT_255_1_388
10
9.5655758
20
-0.2756979
40
0.2318463
50
311.0644687
51
332.0111037
0
ARC
8
DEFAULT_255_1_388
10
9.4314431
20
-0.2017298
40
0.3850112
50
331.6586806
51
343.2877423
0
ARC
8
DEFAULT_255_1_388
10
9.1993896
20
-0.1304194
40
0.6277712
50
343.1446576
51
351.0103568
0
ARC
8
DEFAULT_255_1_388
10
9.036122
20
-0.1004127
40
0.7937327
50
350.71248
51
351.1626997
0
LINE
8
DEFAULT_255_1_388
10
10.4176881
20
0.6757898
11
10.4176881
21
-0.6398
0
LINE
8
DEFAULT_255_1_388
10
10.4176881
20
-0.6398
11
10.2442037
21
-0.6398
0
LINE
8
DEFAULT_255_1_388
10
10.2442037
20
-0.6398
11
10.2442037
21
0.6757898
0
LINE
8
DEFAULT_255_1_388
10
10.2442037
20
0.6757898
11
10.4176881
21
0.6757898
0
LINE
8
DEFAULT_255_1_388
10
10.9019986
20
-0.0145334
11
10.7682711
21
0.0198021
0
LINE
8
DEFAULT_255_1_388
10
10.7682711
20
0.0198021
11
10.8351349
21
0.6757898
0
LINE
8
DEFAULT_255_1_388
10
10.8351349
20
0.6757898
11
11.5091939
21
0.6757898
0
LINE
8
DEFAULT_255_1_388
10
11.5091939
20
0.6757898
11
11.5091939
21
0.5212803
0
LINE
8
DEFAULT_255_1_388
10
11.5091939
20
0.5212803
11
10.9769945
21
0.5212803
0
LINE
8
DEFAULT_255_1_388
10
10.9769945
20
0.5212803
11
10.9372376
21
0.1625652
0
LINE
8
DEFAULT_255_1_388
10
10.7212857
20
-0.2937348
11
10.8794095
21
-0.2937348
0
LINE
8
DEFAULT_255_1_388
10
10.9462733
20
0.0216092
11
10.9019986
21
-0.0145334
0
ARC
8
DEFAULT_255_1_388
10
11.145899
20
-0.1951759
40
0.4141476
50
93.7181681
51
120.253934
0
ARC
8
DEFAULT_255_1_388
10
11.1565042
20
-0.2860716
40
0.5055616
50
89.9660471
51
94.2495185
0
ARC
8
DEFAULT_255_1_388
10
11.1610864
20
-0.2197846
40
0.4392953
50
73.8045384
51
90.5585736
0
ARC
8
DEFAULT_255_1_388
10
11.1875122
20
-0.123248
40
0.3392225
50
41.3071072
51
73.543002
0
ARC
8
DEFAULT_255_1_388
10
11.1406942
20
-0.1635539
40
0.4009977
50
13.5075837
51
41.2174839
0
ARC
8
DEFAULT_255_1_388
10
10.9560039
20
-0.2119093
40
0.5918864
50
1.1330171
51
13.8830737
0
ARC
8
DEFAULT_255_1_388
10
10.7963685
20
-0.2204478
40
0.7516787
50
359.9925091
51
1.5431298
0
ARC
8
DEFAULT_255_1_388
10
10.94083
20
-0.2250973
40
0.6072343
50
347.8572712
51
0.4294349
0
ARC
8
DEFAULT_255_1_388
10
11.1377435
20
-0.2697102
40
0.4053482
50
323.6727442
51
348.1674594
0
ARC
8
DEFAULT_255_1_388
10
11.1708399
20
-0.2898825
40
0.3667495
50
316.8171818
51
323.1486802
0
ARC
8
DEFAULT_255_1_388
10
11.1777523
20
-0.2940388
40
0.358869
50
281.839603
51
316.5458142
0
ARC
8
DEFAULT_255_1_388
10
11.135481
20
-0.1190637
40
0.5388223
50
269.5770964
51
282.4214641
0
ARC
8
DEFAULT_255_1_388
10
11.1274731
20
-0.143107
40
0.5147801
50
256.2425863
51
270.4486481
0
ARC
8
DEFAULT_255_1_388
10
11.0938259
20
-0.2780876
40
0.3756708
50
228.9024379
51
256.33135
0
ARC
8
DEFAULT_255_1_388
10
11.0855239
20
-0.2911946
40
0.360344
50
193.7536029
51
228.5272638
0
ARC
8
DEFAULT_255_1_388
10
11.2247804
20
-0.2503537
40
0.5053599
50
184.9244437
51
194.4976052
0
ARC
8
DEFAULT_255_1_388
10
11.2464445
20
-0.2463278
40
0.3700839
50
187.3596909
51
198.6733728
0
ARC
8
DEFAULT_255_1_388
10
11.1283689
20
-0.2872627
40
0.2451195
50
198.4453795
51
217.7945479
0
ARC
8
DEFAULT_255_1_388
10
11.0950861
20
-0.3108437
40
0.2043754
50
218.2887146
51
228.5613203
0
ARC
8
DEFAULT_255_1_388
10
11.1060868
20
-0.2960098
40
0.2227819
50
228.9652423
51
258.1237049
0
ARC
8
DEFAULT_255_1_388
10
11.1292306
20
-0.1969036
40
0.3245374
50
257.7260585
51
270.4013717
0
ARC
8
DEFAULT_255_1_388
10
11.1342804
20
-0.2469745
40
0.2744726
50
269.4204315
51
286.420998
0
ARC
8
DEFAULT_255_1_388
10
11.1509859
20
-0.3076295
40
0.2115721
50
286.7250065
51
320.6004665
0
ARC
8
DEFAULT_255_1_388
10
11.1078775
20
-0.2726473
40
0.2670878
50
320.6712228
51
344.5440474
0
ARC
8
DEFAULT_255_1_388
10
10.9777489
20
-0.2344606
40
0.4026927
50
344.241448
51
356.735803
0
ARC
8
DEFAULT_255_1_388
10
10.8373796
20
-0.2228344
40
0.5435085
50
356.3547471
51
0.0507222
0
ARC
8
DEFAULT_255_1_388
10
10.9876061
20
-0.2193188
40
0.3932934
50
359.5579289
51
12.9534322
0
ARC
8
DEFAULT_255_1_388
10
11.1062901
20
-0.1905414
40
0.2711827
50
12.6489751
51
41.608121
0
ARC
8
DEFAULT_255_1_388
10
11.1322061
20
-0.1685054
40
0.2371737
50
41.7851122
51
85.9892156
0
ARC
8
DEFAULT_255_1_388
10
11.1183371
20
-0.2600262
40
0.3295244
50
84.6965848
51
90.0672125
0
ARC
8
DEFAULT_255_1_388
10
11.1156938
20
-0.3351882
40
0.4046926
50
89.6804991
51
99.161352
0
ARC
8
DEFAULT_255_1_388
10
11.0925948
20
-0.1971152
40
0.2647044
50
98.9836248
51
113.8905702
0
ARC
8
DEFAULT_255_1_388
10
11.0667623
20
-0.1361882
40
0.1985386
50
114.195234
51
127.3641866
0
LINE
8
DEFAULT_255_1_388
10
12.4362511
20
0.6757898
11
12.4362511
21
-0.197957
0
LINE
8
DEFAULT_255_1_388
10
12.4362511
20
-0.197957
11
12.6187711
21
-0.197957
0
LINE
8
DEFAULT_255_1_388
10
12.6187711
20
-0.197957
11
12.6187711
21
-0.3343952
0
LINE
8
DEFAULT_255_1_388
10
12.6187711
20
-0.3343952
11
12.4362511
21
-0.3343952
0
LINE
8
DEFAULT_255_1_388
10
12.4362511
20
-0.3343952
11
12.4362511
21
-0.6398
0
LINE
8
DEFAULT_255_1_388
10
12.4362511
20
-0.6398
11
12.2681881
21
-0.6398
0
LINE
8
DEFAULT_255_1_388
10
12.2681881
20
-0.6398
11
12.2681881
21
-0.3343952
0
LINE
8
DEFAULT_255_1_388
10
12.2681881
20
-0.3343952
11
11.6691249
21
-0.3343952
0
LINE
8
DEFAULT_255_1_388
10
11.6691249
20
-0.3343952
11
11.6691249
21
-0.2359067
0
LINE
8
DEFAULT_255_1_388
10
11.6691249
20
-0.2359067
11
12.2582489
21
0.6757898
0
LINE
8
DEFAULT_255_1_388
10
12.2582489
20
0.6757898
11
12.4362511
21
0.6757898
0
LINE
8
DEFAULT_255_1_388
10
12.2483097
20
0.4110455
11
11.8588734
21
-0.197957
0
LINE
8
DEFAULT_255_1_388
10
11.8588734
20
-0.197957
11
12.2681881
21
-0.197957
0
LINE
8
DEFAULT_255_1_388
10
12.2681881
20
-0.197957
11
12.2681881
21
0.447188
0
LINE
8
DEFAULT_255_1_388
10
12.2681881
20
0.447188
11
12.2483097
21
0.4110455
0
LINE
8
DEFAULT_255_1_388
10
13.6316668
20
-0.5033618
11
13.6316668
21
-0.6398
0
LINE
8
DEFAULT_255_1_388
10
13.6316668
20
-0.6398
11
12.7696664
21
-0.6398
0
LINE
8
DEFAULT_255_1_388
10
12.7696664
20
-0.6398
11
12.7696664
21
-0.5196259
0
LINE
8
DEFAULT_255_1_388
10
12.7696664
20
-0.5196259
11
13.2250628
21
-0.0136298
0
LINE
8
DEFAULT_255_1_388
10
12.911526
20
0.2881607
11
12.7443666
21
0.2881607
0
LINE
8
DEFAULT_255_1_388
10
13.3235514
20
-0.121154
11
12.9711612
21
-0.5033618
0
LINE
8
DEFAULT_255_1_388
10
12.9711612
20
-0.5033618
11
13.6316668
21
-0.5033618
0
ARC
8
DEFAULT_255_1_388
10
11.7074688
20
1.3283983
40
2.0258655
50
318.5132526
51
320.7829045
0
ARC
8
DEFAULT_255_1_388
10
12.3022645
20
0.8442929
40
1.2589638
50
320.7372878
51
323.9739031
0
ARC
8
DEFAULT_255_1_388
10
12.7431577
20
0.5248554
40
0.7145141
50
323.8962701
51
328.64194
0
ARC
8
DEFAULT_255_1_388
10
12.9733834
20
0.3828545
40
0.4440242
50
328.8294576
51
331.7891185
0
ARC
8
DEFAULT_255_1_388
10
13.0856154
20
0.3249374
40
0.3177517
50
331.4254512
51
352.9365785
0
ARC
8
DEFAULT_255_1_388
10
13.1009154
20
0.321505
40
0.3021496
50
353.2257659
51
0.0166158
0
ARC
8
DEFAULT_255_1_388
10
13.1245915
20
0.3240894
40
0.2784847
50
359.486299
51
15.9343185
0
ARC
8
DEFAULT_255_1_388
10
13.1816182
20
0.3394269
40
0.2194403
50
16.1712913
51
43.5286088
0
ARC
8
DEFAULT_255_1_388
10
13.1903126
20
0.3481191
40
0.2071504
50
43.4417391
51
83.1661095
0
ARC
8
DEFAULT_255_1_388
10
13.1752287
20
0.2652316
40
0.2912888
50
82.160179
51
90.1505708
0
ARC
8
DEFAULT_255_1_388
10
13.1716769
20
0.2048279
40
0.3517025
50
89.5460741
51
102.5418361
0
ARC
8
DEFAULT_255_1_388
10
13.1443489
20
0.3207933
40
0.2325748
50
102.1738499
51
129.206123
0
ARC
8
DEFAULT_255_1_388
10
13.1354942
20
0.3347664
40
0.2161591
50
129.72865
51
135.753947
0
ARC
8
DEFAULT_255_1_388
10
13.1491424
20
0.3238728
40
0.2335433
50
136.1757367
51
166.3673339
0
ARC
8
DEFAULT_255_1_388
10
13.2624113
20
0.2935148
40
0.3507873
50
165.9090694
51
178.8684636
0
ARC
8
DEFAULT_255_1_388
10
13.3599884
20
0.2882263
40
0.4484624
50
178.4391136
51
180.0083808
0
ARC
8
DEFAULT_255_1_388
10
13.2020586
20
0.2926197
40
0.4577138
50
163.2878482
51
180.5581842
0
ARC
8
DEFAULT_255_1_388
10
13.1118627
20
0.3174393
40
0.3641968
50
133.4540601
51
162.947111
0
ARC
8
DEFAULT_255_1_388
10
13.1319509
20
0.2960789
40
0.3935189
50
100.7869829
51
133.4382499
0
ARC
8
DEFAULT_255_1_388
10
13.1710754
20
0.1218399
40
0.5720313
50
89.660664
51
101.3702276
0
ARC
8
DEFAULT_255_1_388
10
13.1785363
20
0.1287263
40
0.5651495
50
78.2172678
51
90.412935
0
ARC
8
DEFAULT_255_1_388
10
13.2184828
20
0.3114511
40
0.378122
50
55.9269121
51
78.4888449
0
ARC
8
DEFAULT_255_1_388
10
13.2405544
20
0.3495187
40
0.3342379
50
47.929771
51
55.4049217
0
ARC
8
DEFAULT_255_1_388
10
13.2520074
20
0.3611618
40
0.3179217
50
4.334829
51
48.0560205
0
ARC
8
DEFAULT_255_1_388
10
13.1287876
20
0.3420487
40
0.442341
50
359.9251713
51
5.5971671
0
ARC
8
DEFAULT_255_1_388
10
13.177003
20
0.3483728
40
0.3941854
50
337.8914027
51
358.9967534
0
ARC
8
DEFAULT_255_1_388
10
12.87176
20
0.4661295
40
0.7213271
50
326.9132501
51
338.3508308
0
ARC
8
DEFAULT_255_1_388
10
12.4233712
20
0.7535105
40
1.2538973
50
319.6471833
51
327.0959558
0
ARC
8
DEFAULT_255_1_388
10
11.992037
20
1.109305
40
1.8129975
50
317.2588228
51
319.9045804
0
LINE
8
DEFAULT_255_1_388
10
14.1738055
20
-0.0127263
11
14.1738055
21
-0.1491645
0
LINE
8
DEFAULT_255_1_388
10
14.1738055
20
-0.1491645
11
13.7328661
21
-0.1491645
0
LINE
8
DEFAULT_255_1_388
10
13.7328661
20
-0.1491645
11
13.7328661
21
-0.0127263
0
LINE
8
DEFAULT_255_1_388
10
13.7328661
20
-0.0127263
11
14.1738055
21
-0.0127263
0
LINE
8
DEFAULT_255_1_388
10
14.726787
20
-0.6398
11
14.3626505
21
-0.6398
0
LINE
8
DEFAULT_255_1_388
10
14.3626505
20
-0.6398
11
14.3626505
21
0.6757898
0
LINE
8
DEFAULT_255_1_388
10
14.3626505
20
0.6757898
11
14.7340155
21
0.6757898
0
LINE
8
DEFAULT_255_1_388
10
15.3141039
20
0.0622696
11
15.3141039
21
-0.0217619
0
LINE
8
DEFAULT_255_1_388
10
14.7385333
20
0.5330267
11
14.5361349
21
0.5330267
0
LINE
8
DEFAULT_255_1_388
10
14.5361349
20
0.5330267
11
14.5361349
21
-0.4979404
0
LINE
8
DEFAULT_255_1_388
10
14.5361349
20
-0.4979404
11
14.7186549
21
-0.4979404
0
LINE
8
DEFAULT_255_1_388
10
15.1424266
20
-0.0181477
11
15.1424266
21
0.0586553
0
ARC
8
DEFAULT_255_1_388
10
14.738395
20
0.0159436
40
0.6598608
50
75.4100343
51
90.3802731
0
ARC
8
DEFAULT_255_1_388
10
14.7642195
20
0.1235691
40
0.5492049
50
60.1455157
51
75.1889627
0
ARC
8
DEFAULT_255_1_388
10
14.7820786
20
0.1546914
40
0.5133226
50
26.525419
51
60.1451222
0
ARC
8
DEFAULT_255_1_388
10
14.6560573
20
0.0878642
40
0.6559324
50
7.4029944
51
26.832209
0
ARC
8
DEFAULT_255_1_388
10
14.476697
20
0.0599229
40
0.8374103
50
0.1605597
51
7.7176135
0
ARC
8
DEFAULT_255_1_388
10
14.495137
20
-0.0260679
40
0.8189782
50
348.7289744
51
0.30125
0
ARC
8
DEFAULT_255_1_388
10
14.6814834
20
-0.0630844
40
0.628991
50
333.0706936
51
348.7181455
0
ARC
8
DEFAULT_255_1_388
10
14.7902462
20
-0.1221551
40
0.5052808
50
299.2531435
51
333.4571133
0
ARC
8
DEFAULT_255_1_388
10
14.7496493
20
-0.0450371
40
0.5924066
50
278.1072193
51
299.0340218
0
ARC
8
DEFAULT_255_1_388
10
14.7208542
20
0.1245979
40
0.7644209
50
270.4446841
51
278.4508355
0
ARC
8
DEFAULT_255_1_388
10
14.7232026
20
0.02003
40
0.5179903
50
269.4969684
51
284.0204874
0
ARC
8
DEFAULT_255_1_388
10
14.7631744
20
-0.1335585
40
0.3592968
50
283.7699076
51
318.1557121
0
ARC
8
DEFAULT_255_1_388
10
14.7252289
20
-0.1051601
40
0.4065308
50
318.7417595
51
343.687252
0
ARC
8
DEFAULT_255_1_388
10
14.5222868
20
-0.0417725
40
0.6191194
50
343.3324891
51
355.8548594
0
ARC
8
DEFAULT_255_1_388
10
14.2861905
20
-0.0193281
40
0.856237
50
355.4988754
51
0.0789913
0
ARC
8
DEFAULT_255_1_388
10
14.3742705
20
0.063408
40
0.7681709
50
359.6455047
51
9.8607559
0
ARC
8
DEFAULT_255_1_388
10
14.6398428
20
0.1113664
40
0.498312
50
9.6573037
51
26.1931522
0
ARC
8
DEFAULT_255_1_388
10
14.7442503
20
0.1598587
40
0.3832303
50
26.5777895
51
40.1533752
0
ARC
8
DEFAULT_255_1_388
10
14.7730168
20
0.182302
40
0.3467742
50
40.3839958
51
80.1430923
0
ARC
8
DEFAULT_255_1_388
10
14.7362423
20
0.0192486
40
0.5137832
50
79.2153636
51
89.7445174
0
LINE
8
DEFAULT_255_1_388
10
16.0595445
20
-0.1247683
11
15.7496219
21
-0.1247683
0
LINE
8
DEFAULT_255_1_388
10
15.7496219
20
-0.1247683
11
15.7496219
21
-0.6398
0
LINE
8
DEFAULT_255_1_388
10
15.7496219
20
-0.6398
11
15.5761375
21
-0.6398
0
LINE
8
DEFAULT_255_1_388
10
15.5761375
20
-0.6398
11
15.5761375
21
0.6757898
0
LINE
8
DEFAULT_255_1_388
10
15.5761375
20
0.6757898
11
16.0613517
21
0.6757898
0
LINE
8
DEFAULT_255_1_388
10
15.7496219
20
0.5330267
11
15.7496219
21
0.0170914
0
LINE
8
DEFAULT_255_1_388
10
15.7496219
20
0.0170914
11
16.0613517
21
0.0170914
0
LINE
8
DEFAULT_255_1_388
10
16.0712909
20
0.5330267
11
15.7496219
21
0.5330267
0
ARC
8
DEFAULT_255_1_388
10
16.066089
20
-0.0058666
40
0.6816729
50
78.8380084
51
90.398184
0
ARC
8
DEFAULT_255_1_388
10
16.112892
20
0.2214796
40
0.449571
50
58.9633273
51
79.0810717
0
ARC
8
DEFAULT_255_1_388
10
16.1468305
20
0.2844823
40
0.3781049
50
48.0194715
51
58.4475592
0
ARC
8
DEFAULT_255_1_388
10
16.1568125
20
0.2940818
40
0.3642936
50
3.3374546
51
48.1766642
0
ARC
8
DEFAULT_255_1_388
10
16.0182932
20
0.2741581
40
0.5038766
50
359.9483251
51
4.6822857
0
ARC
8
DEFAULT_255_1_388
10
16.0322855
20
0.2693779
40
0.4899031
50
346.1879032
51
0.5059221
0
ARC
8
DEFAULT_255_1_388
10
16.1851646
20
0.2296763
40
0.3319729
50
310.8832219
51
346.5426612
0
ARC
8
DEFAULT_255_1_388
10
16.1504495
20
0.2765853
40
0.3901853
50
286.6925305
51
310.228778
0
ARC
8
DEFAULT_255_1_388
10
16.0864224
20
0.4779585
40
0.6014737
50
274.6848219
51
287.0247342
0
ARC
8
DEFAULT_255_1_388
10
16.0610773
20
0.7264088
40
0.8511785
50
269.8968222
51
275.0192639
0
ARC
8
DEFAULT_255_1_388
10
16.0641767
20
0.4926144
40
0.4755314
50
269.6596206
51
279.4150542
0
ARC
8
DEFAULT_255_1_388
10
16.0931225
20
0.3248945
40
0.3053379
50
279.2050006
51
294.9901776
0
ARC
8
DEFAULT_255_1_388
10
16.1257859
20
0.2520353
40
0.2255036
50
295.2886769
51
311.2912669
0
ARC
8
DEFAULT_255_1_388
10
16.13376
20
0.2401938
40
0.2113522
50
311.7853512
51
347.2860549
0
ARC
8
DEFAULT_255_1_388
10
16.0230762
20
0.268643
40
0.3256011
50
346.6891629
51
0.1057086
0
ARC
8
DEFAULT_255_1_388
10
15.9308222
20
0.2719247
40
0.417863
50
359.63239
51
359.9961329
0
ARC
8
DEFAULT_255_1_388
10
16.0472827
20
0.2746987
40
0.3014155
50
359.4673371
51
15.5931159
0
ARC
8
DEFAULT_255_1_388
10
16.1175889
20
0.2936937
40
0.2285918
50
15.7441779
51
46.620186
0
ARC
8
DEFAULT_255_1_388
10
16.1009649
20
0.2745361
40
0.2539359
50
46.8628482
51
75.6676625
0
ARC
8
DEFAULT_255_1_388
10
16.0678706
20
0.1554243
40
0.3775415
50
75.2763152
51
88.2916439
0
ARC
8
DEFAULT_255_1_388
10
16.0612705
20
0.0552097
40
0.4779221
50
87.8589087
51
88.7986197
0
LINE
8
DEFAULT_255_1_388
10
17.0652118
20
-0.0127263
11
17.0652118
21
-0.1491645
0
LINE
8
DEFAULT_255_1_388
10
17.0652118
20
-0.1491645
11
16.6242723
21
-0.1491645
0
LINE
8
DEFAULT_255_1_388
10
16.6242723
20
-0.1491645
11
16.6242723
21
-0.0127263
0
LINE
8
DEFAULT_255_1_388
10
16.6242723
20
-0.0127263
11
17.0652118
21
-0.0127263
0
LINE
8
DEFAULT_255_1_388
10
17.3660987
20
0.6757898
11
17.6832499
21
0.1716009
0
LINE
8
DEFAULT_255_1_388
10
17.6832499
20
0.1716009
11
17.9985938
21
0.6757898
0
LINE
8
DEFAULT_255_1_388
10
17.9985938
20
0.6757898
11
18.2027994
21
0.6757898
0
LINE
8
DEFAULT_255_1_388
10
18.2027994
20
0.6757898
11
17.7871598
21
0.0234163
0
LINE
8
DEFAULT_255_1_388
10
17.7871598
20
0.0234163
11
18.2127386
21
-0.6398
0
LINE
8
DEFAULT_255_1_388
10
18.2127386
20
-0.6398
11
18.0067259
21
-0.6398
0
LINE
8
DEFAULT_255_1_388
10
18.0067259
20
-0.6398
11
17.6832499
21
-0.1265754
0
LINE
8
DEFAULT_255_1_388
10
17.6832499
20
-0.1265754
11
17.3579667
21
-0.6398
0
LINE
8
DEFAULT_255_1_388
10
17.3579667
20
-0.6398
11
17.1528575
21
-0.6398
0
LINE
8
DEFAULT_255_1_388
10
17.1528575
20
-0.6398
11
17.5793399
21
0.0234163
0
LINE
8
DEFAULT_255_1_388
10
17.5793399
20
0.0234163
11
17.1627967
21
0.6757898
0
LINE
8
DEFAULT_255_1_388
10
17.1627967
20
0.6757898
11
17.3660987
21
0.6757898
0
LINE
8
DEFAULT_255_1_388
10
19.184974
20
-0.2223532
11
19.3593619
21
-0.2223532
0
LINE
8
DEFAULT_255_1_388
10
18.3464662
20
-0.0434475
11
18.3464662
21
0.0830516
0
LINE
8
DEFAULT_255_1_388
10
19.3593619
20
0.2529217
11
19.184974
21
0.2529217
0
LINE
8
DEFAULT_255_1_388
10
18.5208541
20
0.0785337
11
18.5208541
21
-0.0488688
0
ARC
8
DEFAULT_255_1_388
10
18.7427853
20
-0.1551671
40
0.6202263
50
340.1774904
51
353.7812217
0
ARC
8
DEFAULT_255_1_388
10
18.9195706
20
-0.2210107
40
0.4315926
50
311.4560052
51
340.4420756
0
ARC
8
DEFAULT_255_1_388
10
18.9158246
20
-0.2085335
40
0.4434573
50
282.4332229
51
310.7514507
0
ARC
8
DEFAULT_255_1_388
10
18.8664063
20
-0.0043297
40
0.6535262
50
269.9358869
51
282.8096729
0
ARC
8
DEFAULT_255_1_388
10
18.8606003
20
0.1469329
40
0.8048043
50
269.9995752
51
270.3612856
0
ARC
8
DEFAULT_255_1_388
10
18.8546493
20
-0.1329219
40
0.5249831
50
250.7885263
51
270.6488451
0
ARC
8
DEFAULT_255_1_388
10
18.8357318
20
-0.2046147
40
0.4510942
50
219.3628377
51
250.0611024
0
ARC
8
DEFAULT_255_1_388
10
18.9290192
20
-0.1253347
40
0.5735046
50
193.5480293
51
219.5755675
0
ARC
8
DEFAULT_255_1_388
10
19.1958401
20
-0.056048
40
0.849146
50
181.1220183
51
193.8754971
0
ARC
8
DEFAULT_255_1_388
10
19.4281634
20
-0.0436086
40
1.0816971
50
179.9914644
51
181.5398227
0
ARC
8
DEFAULT_255_1_388
10
19.2204945
20
0.0872586
40
0.8740384
50
169.5837606
51
180.275782
0
ARC
8
DEFAULT_255_1_388
10
19.0138293
20
0.1254439
40
0.6638751
50
155.0367033
51
169.6002779
0
ARC
8
DEFAULT_255_1_388
10
18.8860751
20
0.1870336
40
0.5220662
50
136.7831557
51
155.2472983
0
ARC
8
DEFAULT_255_1_388
10
18.8422542
20
0.2242577
40
0.4646502
50
121.7633063
51
136.4281161
0
ARC
8
DEFAULT_255_1_388
10
18.8574381
20
0.1962049
40
0.4964979
50
95.6460018
51
121.5489589
0
ARC
8
DEFAULT_255_1_388
10
18.8751356
20
0.0714704
40
0.6223912
50
89.9245727
51
96.1375919
0
ARC
8
DEFAULT_255_1_388
10
18.8808061
20
0.0848721
40
0.6090084
50
76.6779212
51
90.456405
0
ARC
8
DEFAULT_255_1_388
10
18.9250874
20
0.263806
40
0.42469
50
47.4858803
51
76.9287069
0
ARC
8
DEFAULT_255_1_388
10
18.9085488
20
0.2525623
40
0.4441778
50
16.5424081
51
46.8934505
0
ARC
8
DEFAULT_255_1_388
10
18.7276537
20
0.1931265
40
0.6345318
50
5.4072971
51
17.0363711
0
ARC
8
DEFAULT_255_1_388
10
18.5658263
20
0.1671304
40
0.6250632
50
7.8888693
51
15.9242022
0
ARC
8
DEFAULT_255_1_388
10
18.7893248
20
0.2320309
40
0.3923364
50
15.7650676
51
27.9410069
0
ARC
8
DEFAULT_255_1_388
10
18.9135417
20
0.2985317
40
0.2514401
50
27.8167196
51
46.4007942
0
ARC
8
DEFAULT_255_1_388
10
18.9191259
20
0.2978882
40
0.2480958
50
47.4372362
51
75.0695672
0
ARC
8
DEFAULT_255_1_388
10
18.8844095
20
0.1770277
40
0.3738281
50
74.7009379
51
87.8124314
0
ARC
8
DEFAULT_255_1_388
10
18.8761712
20
0.0586659
40
0.4924321
50
87.3802571
51
90.0251599
0
ARC
8
DEFAULT_255_1_388
10
18.8718359
20
0.1906997
40
0.3604218
50
89.3451886
51
108.5744412
0
ARC
8
DEFAULT_255_1_388
10
18.8564351
20
0.2484836
40
0.3007661
50
109.2998307
51
143.3037387
0
ARC
8
DEFAULT_255_1_388
10
18.9421641
20
0.1825584
40
0.4089031
50
143.075267
51
163.1918576
0
ARC
8
DEFAULT_255_1_388
10
19.1617475
20
0.1132652
40
0.6391492
50
162.9375929
51
174.6208776
0
ARC
8
DEFAULT_255_1_388
10
19.4571857
20
0.0808711
40
0.9363344
50
174.342123
51
180.1430283
0
ARC
8
DEFAULT_255_1_388
10
19.3524398
20
-0.0534883
40
0.8315986
50
179.6817261
51
189.150555
0
ARC
8
DEFAULT_255_1_388
10
19.0711147
20
-0.1003441
40
0.5464044
50
188.9911061
51
203.5772363
0
ARC
8
DEFAULT_255_1_388
10
18.9496439
20
-0.1507461
40
0.4149206
50
203.9075402
51
215.1312435
0
ARC
8
DEFAULT_255_1_388
10
18.8458237
20
-0.2312093
40
0.2837747
50
213.9071511
51
263.8848919
0
ARC
8
DEFAULT_255_1_388
10
18.859923
20
-0.1429481
40
0.3730641
50
263.1757928
51
270.1031044
0
ARC
8
DEFAULT_255_1_388
10
18.863531
20
-0.0026489
40
0.5133712
50
269.6722503
51
279.0606936
0
ARC
8
DEFAULT_255_1_388
10
18.8935465
20
-0.184085
40
0.3294739
50
278.8749101
51
293.6349581
0
ARC
8
DEFAULT_255_1_388
10
18.9295669
20
-0.2686749
40
0.2375405
50
293.8553806
51
310.0518171
0
ARC
8
DEFAULT_255_1_388
10
18.9301177
20
-0.2756979
40
0.2318463
50
311.0644687
51
332.0111037
0
ARC
8
DEFAULT_255_1_388
10
18.7959851
20
-0.2017298
40
0.3850112
50
331.6586806
51
343.2877423
0
ARC
8
DEFAULT_255_1_388
10
18.5639316
20
-0.1304194
40
0.6277712
50
343.1446576
51
351.0103568
0
ARC
8
DEFAULT_255_1_388
10
18.4006639
20
-0.1004127
40
0.7937327
50
350.71248
51
351.1626997
0
ARC
8
DEFAULT_255_2_778
10
17.2644097
20
113.1401171
40
0.9020291
50
36.6388597
51
62.8867982
0
ARC
8
DEFAULT_255_2_778
10
17.3470568
20
114.4076537
40
0.5690038
50
305.2567636
51
359.2313325
0
ARC
8
DEFAULT_255_2_778
10
17.3487044
20
114.4034224
40
0.5673153
50
359.6564073
51
359.9965367
0
ARC
8
DEFAULT_255_2_778
10
17.3579024
20
114.4032304
40
0.5581173
50
0.0161948
51
44.9914988
0
ARC
8
DEFAULT_255_2_778
10
17.3578898
20
114.4034752
40
0.5579531
50
44.9727995
51
90.0082066
0
ARC
8
DEFAULT_255_2_778
10
17.3578103
20
114.3986243
40
0.5628041
50
90.0000418
51
90.3054948
0
ARC
8
DEFAULT_255_2_778
10
17.2854142
20
113.1927344
40
0.8779024
50
272.428255
51
302.0472027
0
ARC
8
DEFAULT_255_2_778
10
17.2988911
20
113.1582487
40
0.841549
50
302.5153244
51
0.4882776
0
ARC
8
DEFAULT_255_2_778
10
17.3076108
20
113.1862449
40
0.833059
50
358.5675863
51
29.0157619
0
ARC
8
DEFAULT_255_2_778
10
15.0986513
20
113.1390655
40
0.9032652
50
36.6636783
51
62.8800292
0
ARC
8
DEFAULT_255_2_778
10
15.181148
20
114.4080795
40
0.5698185
50
305.2984654
51
359.1896208
0
ARC
8
DEFAULT_255_2_778
10
15.1825372
20
114.4034256
40
0.5683825
50
359.6567283
51
359.9965559
0
ARC
8
DEFAULT_255_2_778
10
15.1929628
20
114.4032968
40
0.5579568
50
0.0097156
51
44.9837975
0
ARC
8
DEFAULT_255_2_778
10
15.192701
20
114.4032544
40
0.5581721
50
44.9678738
51
90.0065375
0
ARC
8
DEFAULT_255_2_778
10
15.1926813
20
114.3858869
40
0.5755396
50
90.0043847
51
90.2659865
0
ARC
8
DEFAULT_255_2_778
10
15.1204968
20
113.1928822
40
0.8780507
50
272.42898
51
302.0445025
0
ARC
8
DEFAULT_255_2_778
10
15.1340929
20
113.1582943
40
0.8415468
50
302.5093151
51
0.4851764
0
ARC
8
DEFAULT_255_2_778
10
15.1418024
20
113.1859974
40
0.8340609
50
358.5863171
51
28.9970314
0
LINE
8
DEFAULT_255_2_778
10
13.3940095
20
113.6784203
11
12.9371095
21
114.9614203
0
LINE
8
DEFAULT_255_2_778
10
12.9371095
20
114.9614203
11
12.5923095
21
114.9614203
0
LINE
8
DEFAULT_255_2_778
10
12.5923095
20
114.9614203
11
12.5923095
21
113.6784203
0
LINE
8
DEFAULT_255_2_778
10
12.5923095
20
113.6784203
11
13.3940095
21
113.6784203
0
LINE
8
DEFAULT_255_2_778
10
12.5923095
20
112.8767203
11
13.0173095
21
112.8767203
0
LINE
8
DEFAULT_255_2_778
10
13.0173095
20
112.8767203
11
13.2096095
21
112.3156203
0
LINE
8
DEFAULT_255_2_778
10
13.2096095
20
112.3156203
11
13.8750095
21
112.3156203
0
LINE
8
DEFAULT_255_2_778
10
13.8750095
20
112.3156203
11
13.4181095
21
113.5983203
0
LINE
8
DEFAULT_255_2_778
10
13.4181095
20
113.5983203
11
12.5923095
21
113.5983203
0
LINE
8
DEFAULT_255_2_778
10
12.5923095
20
113.5983203
11
12.5923095
21
112.8767203
0
LINE
8
DEFAULT_255_2_778
10
12.5122095
20
114.9614203
11
12.1674095
21
114.9614203
0
LINE
8
DEFAULT_255_2_778
10
12.1674095
20
114.9614203
11
11.7105095
21
113.6784203
0
LINE
8
DEFAULT_255_2_778
10
11.7105095
20
113.6784203
11
12.5122095
21
113.6784203
0
LINE
8
DEFAULT_255_2_778
10
12.5122095
20
113.6784203
11
12.5122095
21
114.9614203
0
LINE
8
DEFAULT_255_2_778
10
11.6864095
20
113.5983203
11
11.2292095
21
112.3156203
0
LINE
8
DEFAULT_255_2_778
10
11.2292095
20
112.3156203
11
11.8946095
21
112.3156203
0
LINE
8
DEFAULT_255_2_778
10
11.8946095
20
112.3156203
11
12.0870095
21
112.8767203
0
LINE
8
DEFAULT_255_2_778
10
12.0870095
20
112.8767203
11
12.5119095
21
112.8767203
0
LINE
8
DEFAULT_255_2_778
10
12.5119095
20
112.8767203
11
12.5119095
21
113.5983203
0
LINE
8
DEFAULT_255_2_778
10
12.5119095
20
113.5983203
11
11.6864095
21
113.5983203
0
LINE
8
DEFAULT_255_2_778
10
16.2804095
20
114.9614203
11
17.0820095
21
114.9614203
0
LINE
8
DEFAULT_255_2_778
10
17.0820095
20
114.9614203
11
17.0820095
21
113.6784203
0
LINE
8
DEFAULT_255_2_778
10
17.0820095
20
113.6784203
11
16.2804095
21
113.6784203
0
LINE
8
DEFAULT_255_2_778
10
16.2804095
20
113.6784203
11
16.2804095
21
114.9614203
0
LINE
8
DEFAULT_255_2_778
10
17.3548095
20
114.9614203
11
17.1625095
21
114.9614203
0
LINE
8
DEFAULT_255_2_778
10
17.1625095
20
114.9614203
11
17.1625095
21
113.6784203
0
LINE
8
DEFAULT_255_2_778
10
17.1625095
20
113.6784203
11
17.9882095
21
113.6784203
0
LINE
8
DEFAULT_255_2_778
10
17.9882095
20
113.6784203
11
17.9882095
21
113.6784203
0
LINE
8
DEFAULT_255_2_778
10
16.2804095
20
113.5983203
11
17.0820095
21
113.5983203
0
LINE
8
DEFAULT_255_2_778
10
17.0820095
20
113.5983203
11
17.0820095
21
112.3156203
0
LINE
8
DEFAULT_255_2_778
10
17.0820095
20
112.3156203
11
16.2804095
21
112.3156203
0
LINE
8
DEFAULT_255_2_778
10
16.2804095
20
112.3156203
11
16.2804095
21
113.5983203
0
LINE
8
DEFAULT_255_2_778
10
17.1622095
20
112.3156203
11
17.3226095
21
112.3156203
0
LINE
8
DEFAULT_255_2_778
10
18.0361095
20
113.5903203
11
17.1622095
21
113.5903203
0
LINE
8
DEFAULT_255_2_778
10
17.1622095
20
113.5903203
11
17.1622095
21
112.3156203
0
LINE
8
DEFAULT_255_2_778
10
17.1622095
20
112.3156203
11
17.1622095
21
112.3156203
0
LINE
8
DEFAULT_255_2_778
10
14.1155095
20
114.9614203
11
14.9172095
21
114.9614203
0
LINE
8
DEFAULT_255_2_778
10
14.9172095
20
114.9614203
11
14.9172095
21
113.6784203
0
LINE
8
DEFAULT_255_2_778
10
14.9172095
20
113.6784203
11
14.1155095
21
113.6784203
0
LINE
8
DEFAULT_255_2_778
10
14.1155095
20
113.6784203
11
14.1155095
21
114.9614203
0
LINE
8
DEFAULT_255_2_778
10
15.1900095
20
114.9614203
11
14.9977095
21
114.9614203
0
LINE
8
DEFAULT_255_2_778
10
14.9977095
20
114.9614203
11
14.9977095
21
113.6784203
0
LINE
8
DEFAULT_255_2_778
10
14.9977095
20
113.6784203
11
15.8234095
21
113.6784203
0
LINE
8
DEFAULT_255_2_778
10
15.8234095
20
113.6784203
11
15.8232095
21
113.6784203
0
LINE
8
DEFAULT_255_2_778
10
14.1155095
20
113.5983203
11
14.9172095
21
113.5983203
0
LINE
8
DEFAULT_255_2_778
10
14.9172095
20
113.5983203
11
14.9172095
21
112.3156203
0
LINE
8
DEFAULT_255_2_778
10
14.9172095
20
112.3156203
11
14.1155095
21
112.3156203
0
LINE
8
DEFAULT_255_2_778
10
14.1155095
20
112.3156203
11
14.1155095
21
113.5983203
0
LINE
8
DEFAULT_255_2_778
10
14.9974095
20
112.3156203
11
15.1577095
21
112.3156203
0
LINE
8
DEFAULT_255_2_778
10
15.8713095
20
113.5903203
11
14.9974095
21
113.5903203
0
LINE
8
DEFAULT_255_2_778
10
14.9974095
20
113.5903203
11
14.9974095
21
112.3156203
0
LINE
8
DEFAULT_255_2_778
10
14.9974095
20
112.3156203
11
14.9974095
21
112.3156203
0
LINE
8
DEFAULT_255_1_388
10
10.9772637
20
109.8238
11
10.8516682
21
110.1671545
0
LINE
8
DEFAULT_255_1_388
10
10.8516682
20
110.1671545
11
10.3004939
21
110.1671545
0
LINE
8
DEFAULT_255_1_388
10
10.3004939
20
110.1671545
11
10.1767056
21
109.8238
0
LINE
8
DEFAULT_255_1_388
10
10.1767056
20
109.8238
11
9.9977998
21
109.8238
0
LINE
8
DEFAULT_255_1_388
10
9.9977998
20
109.8238
11
10.5001816
21
111.1393898
0
LINE
8
DEFAULT_255_1_388
10
10.5001816
20
111.1393898
11
10.6519805
21
111.1393898
0
LINE
8
DEFAULT_255_1_388
10
10.6519805
20
111.1393898
11
11.1552659
21
109.8238
0
LINE
8
DEFAULT_255_1_388
10
11.1552659
20
109.8238
11
10.9772637
21
109.8238
0
LINE
8
DEFAULT_255_1_388
10
10.5760811
20
110.9252451
11
10.3529006
21
110.3099177
0
LINE
8
DEFAULT_255_1_388
10
10.3529006
20
110.3099177
11
10.800165
21
110.3099177
0
LINE
8
DEFAULT_255_1_388
10
10.800165
20
110.3099177
11
10.5760811
21
110.9252451
0
LINE
8
DEFAULT_255_1_388
10
12.1157549
20
110.2412468
11
12.2901428
21
110.2412468
0
LINE
8
DEFAULT_255_1_388
10
11.2772471
20
110.4201525
11
11.2772471
21
110.5466516
0
LINE
8
DEFAULT_255_1_388
10
12.2901428
20
110.7165217
11
12.1157549
21
110.7165217
0
LINE
8
DEFAULT_255_1_388
10
11.451635
20
110.5421337
11
11.451635
21
110.4147312
0
ARC
8
DEFAULT_255_1_388
10
11.6735662
20
110.3084329
40
0.6202263
50
340.1774904
51
353.7812217
0
ARC
8
DEFAULT_255_1_388
10
11.8503515
20
110.2425893
40
0.4315926
50
311.4560052
51
340.4420756
0
ARC
8
DEFAULT_255_1_388
10
11.8466055
20
110.2550665
40
0.4434573
50
282.4332229
51
310.7514507
0
ARC
8
DEFAULT_255_1_388
10
11.7971873
20
110.4592703
40
0.6535262
50
269.9358869
51
282.8096729
0
ARC
8
DEFAULT_255_1_388
10
11.7913812
20
110.6105329
40
0.8048043
50
269.9995752
51
270.3612856
0
ARC
8
DEFAULT_255_1_388
10
11.7854302
20
110.3306781
40
0.5249831
50
250.7885263
51
270.6488451
0
ARC
8
DEFAULT_255_1_388
10
11.7665127
20
110.2589853
40
0.4510942
50
219.3628377
51
250.0611024
0
ARC
8
DEFAULT_255_1_388
10
11.8598001
20
110.3382653
40
0.5735046
50
193.5480293
51
219.5755675
0
ARC
8
DEFAULT_255_1_388
10
12.126621
20
110.407552
40
0.849146
50
181.1220183
51
193.8754971
0
ARC
8
DEFAULT_255_1_388
10
12.3589443
20
110.4199914
40
1.0816971
50
179.9914644
51
181.5398227
0
ARC
8
DEFAULT_255_1_388
10
12.1512754
20
110.5508586
40
0.8740384
50
169.5837606
51
180.275782
0
ARC
8
DEFAULT_255_1_388
10
11.9446102
20
110.5890439
40
0.6638751
50
155.0367033
51
169.6002779
0
ARC
8
DEFAULT_255_1_388
10
11.816856
20
110.6506336
40
0.5220662
50
136.7831557
51
155.2472983
0
ARC
8
DEFAULT_255_1_388
10
11.7730351
20
110.6878577
40
0.4646502
50
121.7633063
51
136.4281161
0
ARC
8
DEFAULT_255_1_388
10
11.7882191
20
110.6598049
40
0.4964979
50
95.6460018
51
121.5489589
0
ARC
8
DEFAULT_255_1_388
10
11.8059165
20
110.5350704
40
0.6223912
50
89.9245727
51
96.1375919
0
ARC
8
DEFAULT_255_1_388
10
11.811587
20
110.5484721
40
0.6090084
50
76.6779212
51
90.456405
0
ARC
8
DEFAULT_255_1_388
10
11.8558683
20
110.727406
40
0.42469
50
47.4858803
51
76.9287069
0
ARC
8
DEFAULT_255_1_388
10
11.8393297
20
110.7161623
40
0.4441778
50
16.5424081
51
46.8934505
0
ARC
8
DEFAULT_255_1_388
10
11.6584347
20
110.6567265
40
0.6345318
50
5.4072971
51
17.0363711
0
ARC
8
DEFAULT_255_1_388
10
11.4966072
20
110.6307304
40
0.6250632
50
7.8888693
51
15.9242022
0
ARC
8
DEFAULT_255_1_388
10
11.7201057
20
110.6956309
40
0.3923364
50
15.7650676
51
27.9410069
0
ARC
8
DEFAULT_255_1_388
10
11.8443226
20
110.7621317
40
0.2514401
50
27.8167196
51
46.4007942
0
ARC
8
DEFAULT_255_1_388
10
11.8499068
20
110.7614882
40
0.2480958
50
47.4372362
51
75.0695672
0
ARC
8
DEFAULT_255_1_388
10
11.8151904
20
110.6406277
40
0.3738281
50
74.7009379
51
87.8124314
0
ARC
8
DEFAULT_255_1_388
10
11.8069521
20
110.5222659
40
0.4924321
50
87.3802571
51
90.0251599
0
ARC
8
DEFAULT_255_1_388
10
11.8026168
20
110.6542997
40
0.3604218
50
89.3451886
51
108.5744412
0
ARC
8
DEFAULT_255_1_388
10
11.787216
20
110.7120836
40
0.3007661
50
109.2998307
51
143.3037387
0
ARC
8
DEFAULT_255_1_388
10
11.872945
20
110.6461584
40
0.4089031
50
143.075267
51
163.1918576
0
ARC
8
DEFAULT_255_1_388
10
12.0925284
20
110.5768652
40
0.6391492
50
162.9375929
51
174.6208776
0
ARC
8
DEFAULT_255_1_388
10
12.3879666
20
110.5444711
40
0.9363344
50
174.342123
51
180.1430283
0
ARC
8
DEFAULT_255_1_388
10
12.2832207
20
110.4101117
40
0.8315986
50
179.6817261
51
189.150555
0
ARC
8
DEFAULT_255_1_388
10
12.0018956
20
110.3632559
40
0.5464044
50
188.9911061
51
203.5772363
0
ARC
8
DEFAULT_255_1_388
10
11.8804248
20
110.3128539
40
0.4149206
50
203.9075402
51
215.1312435
0
ARC
8
DEFAULT_255_1_388
10
11.7766046
20
110.2323907
40
0.2837747
50
213.9071511
51
263.8848919
0
ARC
8
DEFAULT_255_1_388
10
11.7907039
20
110.3206519
40
0.3730641
50
263.1757928
51
270.1031044
0
ARC
8
DEFAULT_255_1_388
10
11.7943119
20
110.4609511
40
0.5133712
50
269.6722503
51
279.0606936
0
ARC
8
DEFAULT_255_1_388
10
11.8243274
20
110.279515
40
0.3294739
50
278.8749101
51
293.6349581
0
ARC
8
DEFAULT_255_1_388
10
11.8603478
20
110.1949251
40
0.2375405
50
293.8553806
51
310.0518171
0
ARC
8
DEFAULT_255_1_388
10
11.8608987
20
110.1879021
40
0.2318463
50
311.0644687
51
332.0111037
0
ARC
8
DEFAULT_255_1_388
10
11.726766
20
110.2618702
40
0.3850112
50
331.6586806
51
343.2877423
0
ARC
8
DEFAULT_255_1_388
10
11.4947125
20
110.3331806
40
0.6277712
50
343.1446576
51
351.0103568
0
ARC
8
DEFAULT_255_1_388
10
11.3314449
20
110.3631873
40
0.7937327
50
350.71248
51
351.1626997
0
LINE
8
DEFAULT_255_1_388
10
12.6940361
20
110.4490666
11
12.5603086
21
110.4834021
0
LINE
8
DEFAULT_255_1_388
10
12.5603086
20
110.4834021
11
12.6271724
21
111.1393898
0
LINE
8
DEFAULT_255_1_388
10
12.6271724
20
111.1393898
11
13.3012314
21
111.1393898
0
LINE
8
DEFAULT_255_1_388
10
13.3012314
20
111.1393898
11
13.3012314
21
110.9848803
0
LINE
8
DEFAULT_255_1_388
10
13.3012314
20
110.9848803
11
12.769032
21
110.9848803
0
LINE
8
DEFAULT_255_1_388
10
12.769032
20
110.9848803
11
12.7292751
21
110.6261652
0
LINE
8
DEFAULT_255_1_388
10
12.5133232
20
110.1698652
11
12.671447
21
110.1698652
0
LINE
8
DEFAULT_255_1_388
10
12.7383108
20
110.4852092
11
12.6940361
21
110.4490666
0
ARC
8
DEFAULT_255_1_388
10
12.9379365
20
110.2684241
40
0.4141476
50
93.7181681
51
120.253934
0
ARC
8
DEFAULT_255_1_388
10
12.9485417
20
110.1775284
40
0.5055616
50
89.9660471
51
94.2495185
0
ARC
8
DEFAULT_255_1_388
10
12.9531239
20
110.2438154
40
0.4392953
50
73.8045384
51
90.5585736
0
ARC
8
DEFAULT_255_1_388
10
12.9795497
20
110.340352
40
0.3392225
50
41.3071072
51
73.543002
0
ARC
8
DEFAULT_255_1_388
10
12.9327317
20
110.3000461
40
0.4009977
50
13.5075837
51
41.2174839
0
ARC
8
DEFAULT_255_1_388
10
12.7480414
20
110.2516907
40
0.5918864
50
1.1330171
51
13.8830737
0
ARC
8
DEFAULT_255_1_388
10
12.588406
20
110.2431522
40
0.7516787
50
359.9925091
51
1.5431298
0
ARC
8
DEFAULT_255_1_388
10
12.7328675
20
110.2385027
40
0.6072343
50
347.8572712
51
0.4294349
0
ARC
8
DEFAULT_255_1_388
10
12.929781
20
110.1938898
40
0.4053482
50
323.6727442
51
348.1674594
0
ARC
8
DEFAULT_255_1_388
10
12.9628774
20
110.1737175
40
0.3667495
50
316.8171818
51
323.1486802
0
ARC
8
DEFAULT_255_1_388
10
12.9697898
20
110.1695612
40
0.358869
50
281.839603
51
316.5458142
0
ARC
8
DEFAULT_255_1_388
10
12.9275185
20
110.3445363
40
0.5388223
50
269.5770964
51
282.4214641
0
ARC
8
DEFAULT_255_1_388
10
12.9195106
20
110.320493
40
0.5147801
50
256.2425863
51
270.4486481
0
ARC
8
DEFAULT_255_1_388
10
12.8858634
20
110.1855124
40
0.3756708
50
228.9024379
51
256.33135
0
ARC
8
DEFAULT_255_1_388
10
12.8775614
20
110.1724054
40
0.360344
50
193.7536029
51
228.5272638
0
ARC
8
DEFAULT_255_1_388
10
13.0168179
20
110.2132463
40
0.5053599
50
184.9244437
51
194.4976052
0
ARC
8
DEFAULT_255_1_388
10
13.038482
20
110.2172722
40
0.3700839
50
187.3596909
51
198.6733728
0
ARC
8
DEFAULT_255_1_388
10
12.9204064
20
110.1763373
40
0.2451195
50
198.4453795
51
217.7945479
0
ARC
8
DEFAULT_255_1_388
10
12.8871236
20
110.1527563
40
0.2043754
50
218.2887146
51
228.5613203
0
ARC
8
DEFAULT_255_1_388
10
12.8981243
20
110.1675902
40
0.2227819
50
228.9652423
51
258.1237049
0
ARC
8
DEFAULT_255_1_388
10
12.9212681
20
110.2666964
40
0.3245374
50
257.7260585
51
270.4013717
0
ARC
8
DEFAULT_255_1_388
10
12.9263179
20
110.2166255
40
0.2744726
50
269.4204315
51
286.420998
0
ARC
8
DEFAULT_255_1_388
10
12.9430234
20
110.1559705
40
0.2115721
50
286.7250065
51
320.6004665
0
ARC
8
DEFAULT_255_1_388
10
12.899915
20
110.1909527
40
0.2670878
50
320.6712228
51
344.5440474
0
ARC
8
DEFAULT_255_1_388
10
12.7697864
20
110.2291394
40
0.4026927
50
344.241448
51
356.735803
0
ARC
8
DEFAULT_255_1_388
10
12.6294171
20
110.2407656
40
0.5435085
50
356.3547471
51
0.0507222
0
ARC
8
DEFAULT_255_1_388
10
12.7796436
20
110.2442812
40
0.3932934
50
359.5579289
51
12.9534322
0
ARC
8
DEFAULT_255_1_388
10
12.8983276
20
110.2730586
40
0.2711827
50
12.6489751
51
41.608121
0
ARC
8
DEFAULT_255_1_388
10
12.9242436
20
110.2950946
40
0.2371737
50
41.7851122
51
85.9892156
0
ARC
8
DEFAULT_255_1_388
10
12.9103746
20
110.2035738
40
0.3295244
50
84.6965848
51
90.0672125
0
ARC
8
DEFAULT_255_1_388
10
12.9077313
20
110.1284118
40
0.4046926
50
89.6804991
51
99.161352
0
ARC
8
DEFAULT_255_1_388
10
12.8846323
20
110.2664848
40
0.2647044
50
98.9836248
51
113.8905702
0
ARC
8
DEFAULT_255_1_388
10
12.8587998
20
110.3274118
40
0.1985386
50
114.195234
51
127.3641866
0
LINE
8
DEFAULT_255_1_388
10
14.3475591
20
110.601769
11
14.3475591
21
110.3849135
0
LINE
8
DEFAULT_255_1_388
10
13.5171833
20
110.3623244
11
13.5171833
21
110.5855048
0
LINE
8
DEFAULT_255_1_388
10
14.1803997
20
110.3397353
11
14.1803997
21
110.6135153
0
LINE
8
DEFAULT_255_1_388
10
13.6843428
20
110.6261652
11
13.6843428
21
110.3587102
0
ARC
8
DEFAULT_255_1_388
10
12.9697925
20
110.3794118
40
1.3777776
50
353.8440855
51
0.2287917
0
ARC
8
DEFAULT_255_1_388
10
13.4916942
20
110.3211414
40
0.852639
50
344.4934746
51
353.9763743
0
ARC
8
DEFAULT_255_1_388
10
13.8283749
20
110.2254191
40
0.5026273
50
329.2803599
51
344.7473406
0
ARC
8
DEFAULT_255_1_388
10
13.9399245
20
110.1642038
40
0.3754848
50
324.9361395
51
328.6153007
0
ARC
8
DEFAULT_255_1_388
10
13.9824895
20
110.1344586
40
0.3235566
50
280.5801797
51
324.9173226
0
ARC
8
DEFAULT_255_1_388
10
13.9373524
20
110.3224236
40
0.5167077
50
269.5979457
51
281.6732777
0
ARC
8
DEFAULT_255_1_388
10
13.9292427
20
110.3089113
40
0.5032026
50
256.6228565
51
270.5105488
0
ARC
8
DEFAULT_255_1_388
10
13.884017
20
110.1347345
40
0.3233092
50
215.8618351
51
257.2787793
0
ARC
8
DEFAULT_255_1_388
10
13.9988877
20
110.2118106
40
0.4615831
50
197.9695203
51
215.2622745
0
ARC
8
DEFAULT_255_1_388
10
14.2784552
20
110.3061641
40
0.7566307
50
187.8816486
51
198.2346584
0
ARC
8
DEFAULT_255_1_388
10
14.7237791
20
110.3704453
40
1.2065653
50
180.8977266
51
188.0054894
0
ARC
8
DEFAULT_255_1_388
10
15.0288004
20
110.38194
40
1.5117443
50
180.7434591
51
181.152202
0
ARC
8
DEFAULT_255_1_388
10
14.8613
20
110.5909371
40
1.3441277
50
173.7674302
51
180.2315596
0
ARC
8
DEFAULT_255_1_388
10
14.3530869
20
110.6483779
40
0.8326847
50
164.3058537
51
173.9000553
0
ARC
8
DEFAULT_255_1_388
10
14.0254869
20
110.7427652
40
0.4917711
50
148.7922028
51
164.5682288
0
ARC
8
DEFAULT_255_1_388
10
13.9185607
20
110.8024457
40
0.3694204
50
144.5883979
51
148.1161588
0
ARC
8
DEFAULT_255_1_388
10
13.8798352
20
110.8294667
40
0.322202
50
101.6440149
51
144.5142619
0
ARC
8
DEFAULT_255_1_388
10
13.9276544
20
110.6394337
40
0.5180451
50
89.528284
51
102.5820197
0
ARC
8
DEFAULT_255_1_388
10
13.9365536
20
110.6350376
40
0.5224441
50
77.0437914
51
90.508231
0
ARC
8
DEFAULT_255_1_388
10
13.981779
20
110.8198272
40
0.3322297
50
48.2777708
51
77.4996087
0
ARC
8
DEFAULT_255_1_388
10
13.989953
20
110.8343557
40
0.315966
50
36.3141586
51
47.6307332
0
ARC
8
DEFAULT_255_1_388
10
13.8922252
20
110.7685159
40
0.4337313
50
18.2931065
51
35.6770203
0
ARC
8
DEFAULT_255_1_388
10
13.6061093
20
110.6703107
40
0.7362203
50
8.0246996
51
18.5605636
0
ARC
8
DEFAULT_255_1_388
10
13.1377448
20
110.6011432
40
1.2096583
50
1.127539
51
8.1718423
0
ARC
8
DEFAULT_255_1_388
10
12.7728582
20
110.5868374
40
1.5747719
50
0.5432713
51
1.38669
0
ARC
8
DEFAULT_255_1_388
10
12.978596
20
110.6175163
40
1.2018103
50
359.8092569
51
4.9408001
0
ARC
8
DEFAULT_255_1_388
10
13.4522542
20
110.65979
40
0.7262727
50
4.8364937
51
12.2906017
0
ARC
8
DEFAULT_255_1_388
10
13.7622007
20
110.7288485
40
0.4087324
50
12.0806994
51
23.8171225
0
ARC
8
DEFAULT_255_1_388
10
13.8942403
20
110.7847508
40
0.2653719
50
24.2874621
51
31.3934353
0
ARC
8
DEFAULT_255_1_388
10
13.9532838
20
110.8233822
40
0.1948607
50
30.7407708
51
82.4658033
0
ARC
8
DEFAULT_255_1_388
10
13.9330499
20
110.7240017
40
0.2961198
50
81.1057101
51
90.2187368
0
ARC
8
DEFAULT_255_1_388
10
13.9290311
20
110.7530421
40
0.2670929
50
89.380395
51
105.6763916
0
ARC
8
DEFAULT_255_1_388
10
13.9084033
20
110.828032
40
0.1893189
50
105.7980655
51
149.7387869
0
ARC
8
DEFAULT_255_1_388
10
14.0281173
20
110.7560719
40
0.3289892
50
149.4208441
51
163.628295
0
ARC
8
DEFAULT_255_1_388
10
14.2633403
20
110.6843345
40
0.5749004
50
163.3764549
51
172.141138
0
ARC
8
DEFAULT_255_1_388
10
14.6346124
20
110.6311582
40
0.9499585
50
172.0258462
51
178.0705453
0
ARC
8
DEFAULT_255_1_388
10
14.9767677
20
110.6149682
40
1.2924734
50
177.8639301
51
179.5036263
0
ARC
8
DEFAULT_255_1_388
10
14.8548696
20
110.3546151
40
1.170534
50
179.7995545
51
185.246089
0
ARC
8
DEFAULT_255_1_388
10
14.4000289
20
110.3115404
40
0.7136613
50
185.1411911
51
193.0082205
0
ARC
8
DEFAULT_255_1_388
10
14.1026549
20
110.2412441
40
0.4080987
50
192.7897338
51
205.2507384
0
ARC
8
DEFAULT_255_1_388
10
13.9848759
20
110.1886538
40
0.2791522
50
205.8001921
51
211.2545876
0
ARC
8
DEFAULT_255_1_388
10
13.9260299
20
110.1492132
40
0.2084074
50
210.3789935
51
238.4007996
0
ARC
8
DEFAULT_255_1_388
10
13.9238385
20
110.1544786
40
0.2117943
50
239.6521916
51
265.9793852
0
ARC
8
DEFAULT_255_1_388
10
13.9334233
20
110.2301358
40
0.2879689
50
265.1324455
51
270.0603288
0
ARC
8
DEFAULT_255_1_388
10
13.9366611
20
110.1936418
40
0.2514919
50
269.3314378
51
287.2180039
0
ARC
8
DEFAULT_255_1_388
10
13.9521693
20
110.1370291
40
0.1928357
50
287.7957942
51
329.0808983
0
ARC
8
DEFAULT_255_1_388
10
13.844445
20
110.2042651
40
0.319808
50
328.6635261
51
343.3325043
0
ARC
8
DEFAULT_255_1_388
10
13.5999908
20
110.2804195
40
0.5758408
50
343.0498092
51
351.9392499
0
ARC
8
DEFAULT_255_1_388
10
13.209923
20
110.3379205
40
0.9701202
50
351.8071632
51
357.7957897
0
ARC
8
DEFAULT_255_1_388
10
12.8464707
20
110.3567724
40
1.3340376
50
357.5870923
51
359.2682493
0
LINE
8
DEFAULT_255_1_388
10
15.3866582
20
110.601769
11
15.3866582
21
110.3849135
0
LINE
8
DEFAULT_255_1_388
10
14.5562825
20
110.3623244
11
14.5562825
21
110.5855048
0
LINE
8
DEFAULT_255_1_388
10
15.2194988
20
110.3397353
11
15.2194988
21
110.6135153
0
LINE
8
DEFAULT_255_1_388
10
14.7234419
20
110.6261652
11
14.7234419
21
110.3587102
0
ARC
8
DEFAULT_255_1_388
10
14.0088916
20
110.3794118
40
1.3777776
50
353.8440855
51
0.2287917
0
ARC
8
DEFAULT_255_1_388
10
14.5307933
20
110.3211414
40
0.852639
50
344.4934746
51
353.9763743
0
ARC
8
DEFAULT_255_1_388
10
14.8674741
20
110.2254191
40
0.5026273
50
329.2803599
51
344.7473406
0
ARC
8
DEFAULT_255_1_388
10
14.9790236
20
110.1642038
40
0.3754848
50
324.9361395
51
328.6153007
0
ARC
8
DEFAULT_255_1_388
10
15.0215886
20
110.1344586
40
0.3235566
50
280.5801797
51
324.9173226
0
ARC
8
DEFAULT_255_1_388
10
14.9764515
20
110.3224236
40
0.5167077
50
269.5979457
51
281.6732777
0
ARC
8
DEFAULT_255_1_388
10
14.9683418
20
110.3089113
40
0.5032026
50
256.6228565
51
270.5105488
0
ARC
8
DEFAULT_255_1_388
10
14.9231161
20
110.1347345
40
0.3233092
50
215.8618351
51
257.2787793
0
ARC
8
DEFAULT_255_1_388
10
15.0379868
20
110.2118106
40
0.4615831
50
197.9695203
51
215.2622745
0
ARC
8
DEFAULT_255_1_388
10
15.3175544
20
110.3061641
40
0.7566307
50
187.8816486
51
198.2346584
0
ARC
8
DEFAULT_255_1_388
10
15.7628782
20
110.3704453
40
1.2065653
50
180.8977266
51
188.0054894
0
ARC
8
DEFAULT_255_1_388
10
16.0678996
20
110.38194
40
1.5117443
50
180.7434591
51
181.152202
0
ARC
8
DEFAULT_255_1_388
10
15.9003992
20
110.5909371
40
1.3441277
50
173.7674302
51
180.2315596
0
ARC
8
DEFAULT_255_1_388
10
15.392186
20
110.6483779
40
0.8326847
50
164.3058537
51
173.9000553
0
ARC
8
DEFAULT_255_1_388
10
15.064586
20
110.7427652
40
0.4917711
50
148.7922028
51
164.5682288
0
ARC
8
DEFAULT_255_1_388
10
14.9576598
20
110.8024457
40
0.3694204
50
144.5883979
51
148.1161588
0
ARC
8
DEFAULT_255_1_388
10
14.9189343
20
110.8294667
40
0.322202
50
101.6440149
51
144.5142619
0
ARC
8
DEFAULT_255_1_388
10
14.9667535
20
110.6394337
40
0.5180451
50
89.528284
51
102.5820197
0
ARC
8
DEFAULT_255_1_388
10
14.9756527
20
110.6350376
40
0.5224441
50
77.0437914
51
90.508231
0
ARC
8
DEFAULT_255_1_388
10
15.0208781
20
110.8198272
40
0.3322297
50
48.2777708
51
77.4996087
0
ARC
8
DEFAULT_255_1_388
10
15.0290521
20
110.8343557
40
0.315966
50
36.3141586
51
47.6307332
0
ARC
8
DEFAULT_255_1_388
10
14.9313243
20
110.7685159
40
0.4337313
50
18.2931065
51
35.6770203
0
ARC
8
DEFAULT_255_1_388
10
14.6452084
20
110.6703107
40
0.7362203
50
8.0246996
51
18.5605636
0
ARC
8
DEFAULT_255_1_388
10
14.1768439
20
110.6011432
40
1.2096583
50
1.127539
51
8.1718423
0
ARC
8
DEFAULT_255_1_388
10
13.8119573
20
110.5868374
40
1.5747719
50
0.5432713
51
1.38669
0
ARC
8
DEFAULT_255_1_388
10
14.0176952
20
110.6175163
40
1.2018103
50
359.8092569
51
4.9408001
0
ARC
8
DEFAULT_255_1_388
10
14.4913533
20
110.65979
40
0.7262727
50
4.8364937
51
12.2906017
0
ARC
8
DEFAULT_255_1_388
10
14.8012998
20
110.7288485
40
0.4087324
50
12.0806994
51
23.8171225
0
ARC
8
DEFAULT_255_1_388
10
14.9333394
20
110.7847508
40
0.2653719
50
24.2874621
51
31.3934353
0
ARC
8
DEFAULT_255_1_388
10
14.992383
20
110.8233822
40
0.1948607
50
30.7407708
51
82.4658033
0
ARC
8
DEFAULT_255_1_388
10
14.972149
20
110.7240017
40
0.2961198
50
81.1057101
51
90.2187368
0
ARC
8
DEFAULT_255_1_388
10
14.9681302
20
110.7530421
40
0.2670929
50
89.380395
51
105.6763916
0
ARC
8
DEFAULT_255_1_388
10
14.9475024
20
110.828032
40
0.1893189
50
105.7980655
51
149.7387869
0
ARC
8
DEFAULT_255_1_388
10
15.0672164
20
110.7560719
40
0.3289892
50
149.4208441
51
163.628295
0
ARC
8
DEFAULT_255_1_388
10
15.3024394
20
110.6843345
40
0.5749004
50
163.3764549
51
172.141138
0
ARC
8
DEFAULT_255_1_388
10
15.6737115
20
110.6311582
40
0.9499585
50
172.0258462
51
178.0705453
0
ARC
8
DEFAULT_255_1_388
10
16.0158668
20
110.6149682
40
1.2924734
50
177.8639301
51
179.5036263
0
ARC
8
DEFAULT_255_1_388
10
15.8939687
20
110.3546151
40
1.170534
50
179.7995545
51
185.246089
0
ARC
8
DEFAULT_255_1_388
10
15.439128
20
110.3115404
40
0.7136613
50
185.1411911
51
193.0082205
0
ARC
8
DEFAULT_255_1_388
10
15.1417541
20
110.2412441
40
0.4080987
50
192.7897338
51
205.2507384
0
ARC
8
DEFAULT_255_1_388
10
15.0239751
20
110.1886538
40
0.2791522
50
205.8001921
51
211.2545876
0
ARC
8
DEFAULT_255_1_388
10
14.965129
20
110.1492132
40
0.2084074
50
210.3789935
51
238.4007996
0
ARC
8
DEFAULT_255_1_388
10
14.9629376
20
110.1544786
40
0.2117943
50
239.6521916
51
265.9793852
0
ARC
8
DEFAULT_255_1_388
10
14.9725225
20
110.2301358
40
0.2879689
50
265.1324455
51
270.0603288
0
ARC
8
DEFAULT_255_1_388
10
14.9757602
20
110.1936418
40
0.2514919
50
269.3314378
51
287.2180039
0
ARC
8
DEFAULT_255_1_388
10
14.9912684
20
110.1370291
40
0.1928357
50
287.7957942
51
329.0808983
0
ARC
8
DEFAULT_255_1_388
10
14.8835441
20
110.2042651
40
0.319808
50
328.6635261
51
343.3325043
0
ARC
8
DEFAULT_255_1_388
10
14.63909
20
110.2804195
40
0.5758408
50
343.0498092
51
351.9392499
0
ARC
8
DEFAULT_255_1_388
10
14.2490221
20
110.3379205
40
0.9701202
50
351.8071632
51
357.7957897
0
ARC
8
DEFAULT_255_1_388
10
13.8855698
20
110.3567724
40
1.3340376
50
357.5870923
51
359.2682493
0
LINE
8
DEFAULT_255_1_388
10
15.965843
20
110.4508737
11
15.965843
21
110.3144355
0
LINE
8
DEFAULT_255_1_388
10
15.965843
20
110.3144355
11
15.5249036
21
110.3144355
0
LINE
8
DEFAULT_255_1_388
10
15.5249036
20
110.3144355
11
15.5249036
21
110.4508737
0
LINE
8
DEFAULT_255_1_388
10
15.5249036
20
110.4508737
11
15.965843
21
110.4508737
0
LINE
8
DEFAULT_255_1_388
10
16.26673
20
111.1393898
11
16.5838811
21
110.6352009
0
LINE
8
DEFAULT_255_1_388
10
16.5838811
20
110.6352009
11
16.8992251
21
111.1393898
0
LINE
8
DEFAULT_255_1_388
10
16.8992251
20
111.1393898
11
17.1034307
21
111.1393898
0
LINE
8
DEFAULT_255_1_388
10
17.1034307
20
111.1393898
11
16.687791
21
110.4870163
0
LINE
8
DEFAULT_255_1_388
10
16.687791
20
110.4870163
11
17.1133699
21
109.8238
0
LINE
8
DEFAULT_255_1_388
10
17.1133699
20
109.8238
11
16.9073572
21
109.8238
0
LINE
8
DEFAULT_255_1_388
10
16.9073572
20
109.8238
11
16.5838811
21
110.3370246
0
LINE
8
DEFAULT_255_1_388
10
16.5838811
20
110.3370246
11
16.2585979
21
109.8238
0
LINE
8
DEFAULT_255_1_388
10
16.2585979
20
109.8238
11
16.0534888
21
109.8238
0
LINE
8
DEFAULT_255_1_388
10
16.0534888
20
109.8238
11
16.4799712
21
110.4870163
0
LINE
8
DEFAULT_255_1_388
10
16.4799712
20
110.4870163
11
16.063428
21
111.1393898
0
LINE
8
DEFAULT_255_1_388
10
16.063428
20
111.1393898
11
16.26673
21
111.1393898
0
LINE
8
DEFAULT_255_1_388
10
18.0856052
20
110.2412468
11
18.2599932
21
110.2412468
0
LINE
8
DEFAULT_255_1_388
10
17.2470974
20
110.4201525
11
17.2470974
21
110.5466516
0
LINE
8
DEFAULT_255_1_388
10
18.2599932
20
110.7165217
11
18.0856052
21
110.7165217
0
LINE
8
DEFAULT_255_1_388
10
17.4214854
20
110.5421337
11
17.4214854
21
110.4147312
0
ARC
8
DEFAULT_255_1_388
10
17.6434166
20
110.3084329
40
0.6202263
50
340.1774904
51
353.7812217
0
ARC
8
DEFAULT_255_1_388
10
17.8202018
20
110.2425893
40
0.4315926
50
311.4560052
51
340.4420756
0
ARC
8
DEFAULT_255_1_388
10
17.8164558
20
110.2550665
40
0.4434573
50
282.4332229
51
310.7514507
0
ARC
8
DEFAULT_255_1_388
10
17.7670376
20
110.4592703
40
0.6535262
50
269.9358869
51
282.8096729
0
ARC
8
DEFAULT_255_1_388
10
17.7612316
20
110.6105329
40
0.8048043
50
269.9995752
51
270.3612856
0
ARC
8
DEFAULT_255_1_388
10
17.7552806
20
110.3306781
40
0.5249831
50
250.7885263
51
270.6488451
0
ARC
8
DEFAULT_255_1_388
10
17.736363
20
110.2589853
40
0.4510942
50
219.3628377
51
250.0611024
0
ARC
8
DEFAULT_255_1_388
10
17.8296504
20
110.3382653
40
0.5735046
50
193.5480293
51
219.5755675
0
ARC
8
DEFAULT_255_1_388
10
18.0964713
20
110.407552
40
0.849146
50
181.1220183
51
193.8754971
0
ARC
8
DEFAULT_255_1_388
10
18.3287947
20
110.4199914
40
1.0816971
50
179.9914644
51
181.5398227
0
ARC
8
DEFAULT_255_1_388
10
18.1211257
20
110.5508586
40
0.8740384
50
169.5837606
51
180.275782
0
ARC
8
DEFAULT_255_1_388
10
17.9144605
20
110.5890439
40
0.6638751
50
155.0367033
51
169.6002779
0
ARC
8
DEFAULT_255_1_388
10
17.7867064
20
110.6506336
40
0.5220662
50
136.7831557
51
155.2472983
0
ARC
8
DEFAULT_255_1_388
10
17.7428854
20
110.6878577
40
0.4646502
50
121.7633063
51
136.4281161
0
ARC
8
DEFAULT_255_1_388
10
17.7580694
20
110.6598049
40
0.4964979
50
95.6460018
51
121.5489589
0
ARC
8
DEFAULT_255_1_388
10
17.7757668
20
110.5350704
40
0.6223912
50
89.9245727
51
96.1375919
0
ARC
8
DEFAULT_255_1_388
10
17.7814374
20
110.5484721
40
0.6090084
50
76.6779212
51
90.456405
0
ARC
8
DEFAULT_255_1_388
10
17.8257186
20
110.727406
40
0.42469
50
47.4858803
51
76.9287069
0
ARC
8
DEFAULT_255_1_388
10
17.80918
20
110.7161623
40
0.4441778
50
16.5424081
51
46.8934505
0
ARC
8
DEFAULT_255_1_388
10
17.628285
20
110.6567265
40
0.6345318
50
5.4072971
51
17.0363711
0
ARC
8
DEFAULT_255_1_388
10
17.4664575
20
110.6307304
40
0.6250632
50
7.8888693
51
15.9242022
0
ARC
8
DEFAULT_255_1_388
10
17.689956
20
110.6956309
40
0.3923364
50
15.7650676
51
27.9410069
0
ARC
8
DEFAULT_255_1_388
10
17.814173
20
110.7621317
40
0.2514401
50
27.8167196
51
46.4007942
0
ARC
8
DEFAULT_255_1_388
10
17.8197571
20
110.7614882
40
0.2480958
50
47.4372362
51
75.0695672
0
ARC
8
DEFAULT_255_1_388
10
17.7850407
20
110.6406277
40
0.3738281
50
74.7009379
51
87.8124314
0
ARC
8
DEFAULT_255_1_388
10
17.7768024
20
110.5222659
40
0.4924321
50
87.3802571
51
90.0251599
0
ARC
8
DEFAULT_255_1_388
10
17.7724671
20
110.6542997
40
0.3604218
50
89.3451886
51
108.5744412
0
ARC
8
DEFAULT_255_1_388
10
17.7570664
20
110.7120836
40
0.3007661
50
109.2998307
51
143.3037387
0
ARC
8
DEFAULT_255_1_388
10
17.8427953
20
110.6461584
40
0.4089031
50
143.075267
51
163.1918576
0
ARC
8
DEFAULT_255_1_388
10
18.0623788
20
110.5768652
40
0.6391492
50
162.9375929
51
174.6208776
0
ARC
8
DEFAULT_255_1_388
10
18.357817
20
110.5444711
40
0.9363344
50
174.342123
51
180.1430283
0
ARC
8
DEFAULT_255_1_388
10
18.2530711
20
110.4101117
40
0.8315986
50
179.6817261
51
189.150555
0
ARC
8
DEFAULT_255_1_388
10
17.971746
20
110.3632559
40
0.5464044
50
188.9911061
51
203.5772363
0
ARC
8
DEFAULT_255_1_388
10
17.8502752
20
110.3128539
40
0.4149206
50
203.9075402
51
215.1312435
0
ARC
8
DEFAULT_255_1_388
10
17.7464549
20
110.2323907
40
0.2837747
50
213.9071511
51
263.8848919
0
ARC
8
DEFAULT_255_1_388
10
17.7605543
20
110.3206519
40
0.3730641
50
263.1757928
51
270.1031044
0
ARC
8
DEFAULT_255_1_388
10
17.7641622
20
110.4609511
40
0.5133712
50
269.6722503
51
279.0606936
0
ARC
8
DEFAULT_255_1_388
10
17.7941778
20
110.279515
40
0.3294739
50
278.8749101
51
293.6349581
0
ARC
8
DEFAULT_255_1_388
10
17.8301981
20
110.1949251
40
0.2375405
50
293.8553806
51
310.0518171
0
ARC
8
DEFAULT_255_1_388
10
17.830749
20
110.1879021
40
0.2318463
50
311.0644687
51
332.0111037
0
ARC
8
DEFAULT_255_1_388
10
17.6966163
20
110.2618702
40
0.3850112
50
331.6586806
51
343.2877423
0
ARC
8
DEFAULT_255_1_388
10
17.4645629
20
110.3331806
40
0.6277712
50
343.1446576
51
351.0103568
0
ARC
8
DEFAULT_255_1_388
10
17.3012952
20
110.3631873
40
0.7937327
50
350.71248
51
351.1626997
0
LINE
8
DEFAULT_255_2_778
10
9.3932417
20
100.4093492
11
10.7161417
21
100.4093492
0
LINE
8
DEFAULT_255_2_778
10
10.7161417
20
100.4093492
11
10.7161417
21
75.2739492
0
LINE
8
DEFAULT_255_2_778
10
10.7161417
20
69.9822492
11
10.7161417
21
44.8468492
0
LINE
8
DEFAULT_255_2_778
10
10.7161417
20
44.8468492
11
9.3932417
21
44.8468492
0
LINE
8
DEFAULT_255_2_778
10
9.3932834
20
75.2739333
11
12.0390834
21
75.2739333
0
LINE
8
DEFAULT_255_2_778
10
12.0390834
20
75.2739333
11
12.0390834
21
69.9822333
0
LINE
8
DEFAULT_255_2_778
10
12.0390834
20
69.9822333
11
9.3932834
21
69.9822333
0
LINE
8
DEFAULT_255_2_778
10
9.3932834
20
69.9822333
11
9.3932834
21
75.2739333
0
LINE
8
DEFAULT_255_2_778
10
10.187
20
70.5114666
11
10.187
21
74.7447666
0
LINE
8
DEFAULT_255_2_778
10
9.9224167
20
73.951075
11
10.1870167
21
74.744775
0
LINE
8
DEFAULT_255_2_778
10
10.1870167
20
74.744775
11
10.4516167
21
73.951075
0
LINE
8
DEFAULT_255_2_778
10
10.4516167
20
73.951075
11
9.9224167
21
73.951075
0
LINE
8
DEFAULT_255_2_778
10
11.2453
20
74.7447666
11
11.2453
21
70.5114666
0
LINE
8
DEFAULT_255_2_778
10
10.9807167
20
71.305175
11
11.2453167
21
70.511475
0
LINE
8
DEFAULT_255_2_778
10
11.2453167
20
70.511475
11
11.5099167
21
71.305175
0
LINE
8
DEFAULT_255_2_778
10
11.5099167
20
71.305175
11
10.9807167
21
71.305175
0
LINE
8
DEFAULT_255_2_778
10
9.3932417
20
36.9093996
11
10.7161417
21
36.9093996
0
LINE
8
DEFAULT_255_2_778
10
10.7161417
20
36.9093996
11
10.7161417
21
23.6801996
0
LINE
8
DEFAULT_255_2_778
10
10.7161417
20
18.3885996
11
10.7161417
21
5.1593996
0
LINE
8
DEFAULT_255_2_778
10
10.7161417
20
5.1593996
11
9.3932417
21
5.1593996
0
LINE
8
DEFAULT_255_2_778
10
9.3932834
20
23.6802333
11
12.0390834
21
23.6802333
0
LINE
8
DEFAULT_255_2_778
10
12.0390834
20
23.6802333
11
12.0390834
21
18.3885333
0
LINE
8
DEFAULT_255_2_778
10
12.0390834
20
18.3885333
11
9.3932834
21
18.3885333
0
LINE
8
DEFAULT_255_2_778
10
9.3932834
20
18.3885333
11
9.3932834
21
23.6802333
0
ARC
8
DEFAULT_255_2_778_1
10
13.1928591
20
18.490977
40
4.816461
50
120.9442904
51
122.351755
0
ARC
8
DEFAULT_255_2_778_1
10
12.7462523
20
19.1946039
40
3.9830657
50
122.3407904
51
124.1946752
0
ARC
8
DEFAULT_255_2_778_1
10
12.3063464
20
19.8411306
40
3.2010724
50
124.1855758
51
126.4338849
0
ARC
8
DEFAULT_255_2_778_1
10
11.9204129
20
20.3638611
40
2.5513094
50
126.4326926
51
128.8877368
0
ARC
8
DEFAULT_255_2_778_1
10
11.5855968
20
20.7782658
40
2.0185498
50
128.8749205
51
131.8726567
0
ARC
8
DEFAULT_255_2_778_1
10
11.2884677
20
21.1092854
40
1.5737356
50
131.8616166
51
135.4168838
0
ARC
8
DEFAULT_255_2_778_1
10
11.025668
20
21.3674765
40
1.2053256
50
135.3893975
51
139.9687014
0
ARC
8
DEFAULT_255_2_778_1
10
10.7927889
20
21.5623102
40
0.9016937
50
139.9301659
51
145.9260426
0
ARC
8
DEFAULT_255_2_778_1
10
10.596654
20
21.6943104
40
0.6652776
50
145.8787362
51
153.8146208
0
ARC
8
DEFAULT_255_2_778_1
10
10.4445553
20
21.7686797
40
0.4959714
50
153.770634
51
164.3484794
0
ARC
8
DEFAULT_255_2_778_1
10
10.3432387
20
21.7968786
40
0.3908039
50
164.3220276
51
179.8083066
0
ARC
8
DEFAULT_255_2_778_1
10
10.3642789
20
21.805015
40
0.4118985
50
180.9499449
51
213.8111542
0
ARC
8
DEFAULT_255_2_778_1
10
10.6401828
20
21.9745896
40
0.73561
50
212.8271214
51
224.258472
0
ARC
8
DEFAULT_255_2_778_1
10
11.0230335
20
22.3439236
40
1.267567
50
224.1376218
51
231.4508261
0
ARC
8
DEFAULT_255_2_778_1
10
11.6657195
20
23.1469168
40
2.2960809
50
231.3955893
51
236.1256478
0
ARC
8
DEFAULT_255_2_778_1
10
13.4980223
20
25.8934293
40
5.5976905
50
236.2233172
51
239.1314682
0
ARC
8
DEFAULT_255_2_778_1
10
25.447927
20
45.6211568
40
28.6623793
50
238.8606853
51
239.0711101
0
ARC
8
DEFAULT_255_2_778_1
10
6.2757281
20
13.5240653
40
8.7248518
50
57.2420924
51
59.4062964
0
ARC
8
DEFAULT_255_2_778_1
10
9.5034241
20
18.5550102
40
2.747542
50
52.8289294
51
57.079028
0
ARC
8
DEFAULT_255_2_778_1
10
10.2780783
20
19.5753488
40
1.466457
50
46.3041868
51
52.8596521
0
ARC
8
DEFAULT_255_2_778_1
10
10.7103073
20
20.0254842
40
0.8424061
50
36.2174211
51
46.4090895
0
ARC
8
DEFAULT_255_2_778_1
10
10.9948088
20
20.2303128
40
0.4918609
50
17.400375
51
36.5489745
0
ARC
8
DEFAULT_255_2_778_1
10
11.1088994
20
20.2701754
40
0.3710912
50
0.0676858
51
16.7951297
0
ARC
8
DEFAULT_255_2_778_1
10
11.0878613
20
20.2720428
40
0.3921317
50
343.8035191
51
359.7912046
0
ARC
8
DEFAULT_255_2_778_1
10
10.9815912
20
20.3025167
40
0.5026844
50
333.2506233
51
343.8465691
0
ARC
8
DEFAULT_255_2_778_1
10
10.8277757
20
20.3792313
40
0.6745679
50
325.6600948
51
333.3122657
0
ARC
8
DEFAULT_255_2_778_1
10
10.6323344
20
20.5120296
40
0.9108568
50
319.7560915
51
325.6976089
0
ARC
8
DEFAULT_255_2_778_1
10
10.404199
20
20.7038002
40
1.2088854
50
315.4577584
51
319.8037947
0
ARC
8
DEFAULT_255_2_778_1
10
10.1408127
20
20.9626507
40
1.5781764
50
311.7298824
51
315.4670864
0
ARC
8
DEFAULT_255_2_778_1
10
9.8317879
20
21.3082074
40
2.0417554
50
308.723055
51
311.7470879
0
ARC
8
DEFAULT_255_2_778_1
10
9.477589
20
21.7494492
40
2.6075745
50
306.1165163
51
308.7300151
0
ARC
8
DEFAULT_255_2_778_1
10
9.0746091
20
22.3007523
40
3.2904564
50
303.9559446
51
306.1266333
0
ARC
8
DEFAULT_255_2_778_1
10
8.6630432
20
22.910015
40
4.0257023
50
302.3733397
51
303.9712246
0
ARC
8
DEFAULT_255_2_778_1
10
8.2434347
20
23.5715058
40
4.8090549
50
300.9434827
51
302.3758078
0
LINE
8
DEFAULT_255_2_778
10
19.9765417
20
100.4093492
11
18.6536417
21
100.4093492
0
LINE
8
DEFAULT_255_2_778
10
18.6536417
20
100.4093492
11
18.6536417
21
75.2739492
0
LINE
8
DEFAULT_255_2_778
10
18.6536417
20
69.9822492
11
18.6536417
21
44.8468492
0
LINE
8
DEFAULT_255_2_778
10
18.6536417
20
44.8468492
11
19.9765417
21
44.8468492
0
LINE
8
DEFAULT_255_2_778
10
17.3307834
20
75.2739333
11
19.9765834
21
75.2739333
0
LINE
8
DEFAULT_255_2_778
10
19.9765834
20
75.2739333
11
19.9765834
21
69.9822333
0
LINE
8
DEFAULT_255_2_778
10
19.9765834
20
69.9822333
11
17.3307834
21
69.9822333
0
LINE
8
DEFAULT_255_2_778
10
17.3307834
20
69.9822333
11
17.3307834
21
75.2739333
0
LINE
8
DEFAULT_255_2_778
10
18.1245
20
70.5114666
11
18.1245
21
74.7447666
0
LINE
8
DEFAULT_255_2_778
10
17.8599167
20
73.951075
11
18.1245167
21
74.744775
0
LINE
8
DEFAULT_255_2_778
10
18.1245167
20
74.744775
11
18.3891167
21
73.951075
0
LINE
8
DEFAULT_255_2_778
10
18.3891167
20
73.951075
11
17.8599167
21
73.951075
0
LINE
8
DEFAULT_255_2_778
10
19.1828
20
74.7447666
11
19.1828
21
70.5114666
0
LINE
8
DEFAULT_255_2_778
10
18.9182167
20
71.305175
11
19.1828167
21
70.511475
0
LINE
8
DEFAULT_255_2_778
10
19.1828167
20
70.511475
11
19.4474167
21
71.305175
0
LINE
8
DEFAULT_255_2_778
10
19.4474167
20
71.305175
11
18.9182167
21
71.305175
0
LINE
8
DEFAULT_255_2_778
10
19.9765417
20
36.9093998
11
18.6536417
21
36.9093998
0
LINE
8
DEFAULT_255_2_778
10
18.6536417
20
36.9093998
11
18.6536417
21
31.6176998
0
LINE
8
DEFAULT_255_2_778
10
18.6536417
20
26.3260998
11
18.6536417
21
21.0343998
0
LINE
8
DEFAULT_255_2_778
10
18.6536417
20
21.0343998
11
19.9765417
21
21.0343998
0
LINE
8
DEFAULT_255_2_778
10
17.3307834
20
31.6177333
11
19.9765834
21
31.6177333
0
LINE
8
DEFAULT_255_2_778
10
19.9765834
20
31.6177333
11
19.9765834
21
26.3260333
0
LINE
8
DEFAULT_255_2_778
10
19.9765834
20
26.3260333
11
17.3307834
21
26.3260333
0
LINE
8
DEFAULT_255_2_778
10
17.3307834
20
26.3260333
11
17.3307834
21
31.6177333
0
ARC
8
DEFAULT_255_2_778_1
10
21.1303591
20
26.428477
40
4.816461
50
120.9442904
51
122.351755
0
ARC
8
DEFAULT_255_2_778_1
10
20.6837523
20
27.1321039
40
3.9830657
50
122.3407904
51
124.1946752
0
ARC
8
DEFAULT_255_2_778_1
10
20.2438464
20
27.7786306
40
3.2010724
50
124.1855758
51
126.4338849
0
ARC
8
DEFAULT_255_2_778_1
10
19.8579129
20
28.3013611
40
2.5513094
50
126.4326926
51
128.8877368
0
ARC
8
DEFAULT_255_2_778_1
10
19.5230968
20
28.7157658
40
2.0185498
50
128.8749205
51
131.8726567
0
ARC
8
DEFAULT_255_2_778_1
10
19.2259677
20
29.0467854
40
1.5737356
50
131.8616166
51
135.4168838
0
ARC
8
DEFAULT_255_2_778_1
10
18.963168
20
29.3049765
40
1.2053256
50
135.3893975
51
139.9687014
0
ARC
8
DEFAULT_255_2_778_1
10
18.7302889
20
29.4998102
40
0.9016937
50
139.9301659
51
145.9260426
0
ARC
8
DEFAULT_255_2_778_1
10
18.534154
20
29.6318104
40
0.6652776
50
145.8787362
51
153.8146208
0
ARC
8
DEFAULT_255_2_778_1
10
18.3820553
20
29.7061797
40
0.4959714
50
153.770634
51
164.3484794
0
ARC
8
DEFAULT_255_2_778_1
10
18.2807387
20
29.7343786
40
0.3908039
50
164.3220276
51
179.8083066
0
ARC
8
DEFAULT_255_2_778_1
10
18.3017789
20
29.742515
40
0.4118985
50
180.9499449
51
213.8111542
0
ARC
8
DEFAULT_255_2_778_1
10
18.5776828
20
29.9120896
40
0.73561
50
212.8271214
51
224.258472
0
ARC
8
DEFAULT_255_2_778_1
10
18.9605335
20
30.2814236
40
1.267567
50
224.1376218
51
231.4508261
0
ARC
8
DEFAULT_255_2_778_1
10
19.6032195
20
31.0844168
40
2.2960809
50
231.3955893
51
236.1256478
0
ARC
8
DEFAULT_255_2_778_1
10
21.4355223
20
33.8309293
40
5.5976905
50
236.2233172
51
239.1314682
0
ARC
8
DEFAULT_255_2_778_1
10
33.385427
20
53.5586568
40
28.6623793
50
238.8606853
51
239.0711101
0
ARC
8
DEFAULT_255_2_778_1
10
14.2132281
20
21.4615653
40
8.7248518
50
57.2420924
51
59.4062964
0
ARC
8
DEFAULT_255_2_778_1
10
17.4409241
20
26.4925102
40
2.747542
50
52.8289294
51
57.079028
0
ARC
8
DEFAULT_255_2_778_1
10
18.2155783
20
27.5128488
40
1.466457
50
46.3041868
51
52.8596521
0
ARC
8
DEFAULT_255_2_778_1
10
18.6478073
20
27.9629842
40
0.8424061
50
36.2174211
51
46.4090895
0
ARC
8
DEFAULT_255_2_778_1
10
18.9323088
20
28.1678128
40
0.4918609
50
17.400375
51
36.5489745
0
ARC
8
DEFAULT_255_2_778_1
10
19.0463994
20
28.2076754
40
0.3710912
50
0.0676858
51
16.7951297
0
ARC
8
DEFAULT_255_2_778_1
10
19.0253613
20
28.2095428
40
0.3921317
50
343.8035191
51
359.7912046
0
ARC
8
DEFAULT_255_2_778_1
10
18.9190912
20
28.2400167
40
0.5026844
50
333.2506233
51
343.8465691
0
ARC
8
DEFAULT_255_2_778_1
10
18.7652757
20
28.3167313
40
0.6745679
50
325.6600948
51
333.3122657
0
ARC
8
DEFAULT_255_2_778_1
10
18.5698344
20
28.4495296
40
0.9108568
50
319.7560915
51
325.6976089
0
ARC
8
DEFAULT_255_2_778_1
10
18.341699
20
28.6413002
40
1.2088854
50
315.4577584
51
319.8037947
0
ARC
8
DEFAULT_255_2_778_1
10
18.0783127
20
28.9001507
40
1.5781764
50
311.7298824
51
315.4670864
0
ARC
8
DEFAULT_255_2_778_1
10
17.7692879
20
29.2457074
40
2.0417554
50
308.723055
51
311.7470879
0
ARC
8
DEFAULT_255_2_778_1
10
17.415089
20
29.6869492
40
2.6075745
50
306.1165163
51
308.7300151
0
ARC
8
DEFAULT_255_2_778_1
10
17.0121091
20
30.2382523
40
3.2904564
50
303.9559446
51
306.1266333
0
ARC
8
DEFAULT_255_2_778_1
10
16.6005432
20
30.847515
40
4.0257023
50
302.3733397
51
303.9712246
0
ARC
8
DEFAULT_255_2_778_1
10
16.1809347
20
31.5090058
40
4.8090549
50
300.9434827
51
302.3758078
0
LINE
8
DEFAULT_255_1_388
10
4.8809318
20
107.9758382
11
4.8809318
21
107.8394
0
LINE
8
DEFAULT_255_1_388
10
4.8809318
20
107.8394
11
4.0189313
21
107.8394
0
LINE
8
DEFAULT_255_1_388
10
4.0189313
20
107.8394
11
4.0189313
21
107.9595741
0
LINE
8
DEFAULT_255_1_388
10
4.0189313
20
107.9595741
11
4.4743278
21
108.4655702
0
LINE
8
DEFAULT_255_1_388
10
4.1607909
20
108.7673607
11
3.9936315
21
108.7673607
0
LINE
8
DEFAULT_255_1_388
10
4.5728163
20
108.358046
11
4.2204262
21
107.9758382
0
LINE
8
DEFAULT_255_1_388
10
4.2204262
20
107.9758382
11
4.8809318
21
107.9758382
0
ARC
8
DEFAULT_255_1_388
10
2.9567337
20
109.8075983
40
2.0258655
50
318.5132526
51
320.7829045
0
ARC
8
DEFAULT_255_1_388
10
3.5515294
20
109.3234929
40
1.2589638
50
320.7372878
51
323.9739031
0
ARC
8
DEFAULT_255_1_388
10
3.9924226
20
109.0040554
40
0.7145141
50
323.8962701
51
328.64194
0
ARC
8
DEFAULT_255_1_388
10
4.2226484
20
108.8620545
40
0.4440242
50
328.8294576
51
331.7891185
0
ARC
8
DEFAULT_255_1_388
10
4.3348804
20
108.8041374
40
0.3177517
50
331.4254512
51
352.9365785
0
ARC
8
DEFAULT_255_1_388
10
4.3501804
20
108.800705
40
0.3021496
50
353.2257659
51
0.0166158
0
ARC
8
DEFAULT_255_1_388
10
4.3738564
20
108.8032894
40
0.2784847
50
359.486299
51
15.9343185
0
ARC
8
DEFAULT_255_1_388
10
4.4308831
20
108.8186269
40
0.2194403
50
16.1712913
51
43.5286088
0
ARC
8
DEFAULT_255_1_388
10
4.4395776
20
108.8273191
40
0.2071504
50
43.4417391
51
83.1661095
0
ARC
8
DEFAULT_255_1_388
10
4.4244937
20
108.7444316
40
0.2912888
50
82.160179
51
90.1505708
0
ARC
8
DEFAULT_255_1_388
10
4.4209418
20
108.6840279
40
0.3517025
50
89.5460741
51
102.5418361
0
ARC
8
DEFAULT_255_1_388
10
4.3936138
20
108.7999933
40
0.2325748
50
102.1738499
51
129.206123
0
ARC
8
DEFAULT_255_1_388
10
4.3847592
20
108.8139664
40
0.2161591
50
129.72865
51
135.753947
0
ARC
8
DEFAULT_255_1_388
10
4.3984074
20
108.8030728
40
0.2335433
50
136.1757367
51
166.3673339
0
ARC
8
DEFAULT_255_1_388
10
4.5116762
20
108.7727148
40
0.3507873
50
165.9090694
51
178.8684636
0
ARC
8
DEFAULT_255_1_388
10
4.6092534
20
108.7674263
40
0.4484624
50
178.4391136
51
180.0083808
0
ARC
8
DEFAULT_255_1_388
10
4.4513235
20
108.7718197
40
0.4577138
50
163.2878482
51
180.5581842
0
ARC
8
DEFAULT_255_1_388
10
4.3611276
20
108.7966393
40
0.3641968
50
133.4540601
51
162.947111
0
ARC
8
DEFAULT_255_1_388
10
4.3812158
20
108.7752789
40
0.3935189
50
100.7869829
51
133.4382499
0
ARC
8
DEFAULT_255_1_388
10
4.4203403
20
108.6010399
40
0.5720313
50
89.660664
51
101.3702276
0
ARC
8
DEFAULT_255_1_388
10
4.4278012
20
108.6079263
40
0.5651495
50
78.2172678
51
90.412935
0
ARC
8
DEFAULT_255_1_388
10
4.4677478
20
108.7906511
40
0.378122
50
55.9269121
51
78.4888449
0
ARC
8
DEFAULT_255_1_388
10
4.4898193
20
108.8287187
40
0.3342379
50
47.929771
51
55.4049217
0
ARC
8
DEFAULT_255_1_388
10
4.5012723
20
108.8403618
40
0.3179217
50
4.334829
51
48.0560205
0
ARC
8
DEFAULT_255_1_388
10
4.3780525
20
108.8212487
40
0.442341
50
359.9251713
51
5.5971671
0
ARC
8
DEFAULT_255_1_388
10
4.426268
20
108.8275728
40
0.3941854
50
337.8914027
51
358.9967534
0
ARC
8
DEFAULT_255_1_388
10
4.121025
20
108.9453295
40
0.7213271
50
326.9132501
51
338.3508308
0
ARC
8
DEFAULT_255_1_388
10
3.6726362
20
109.2327105
40
1.2538973
50
319.6471833
51
327.0959558
0
ARC
8
DEFAULT_255_1_388
10
3.241302
20
109.588505
40
1.8129975
50
317.2588228
51
319.9045804
0
LINE
8
DEFAULT_255_1_388
10
5.7637143
20
109.1549898
11
5.7637143
21
108.281243
0
LINE
8
DEFAULT_255_1_388
10
5.7637143
20
108.281243
11
5.9462343
21
108.281243
0
LINE
8
DEFAULT_255_1_388
10
5.9462343
20
108.281243
11
5.9462343
21
108.1448048
0
LINE
8
DEFAULT_255_1_388
10
5.9462343
20
108.1448048
11
5.7637143
21
108.1448048
0
LINE
8
DEFAULT_255_1_388
10
5.7637143
20
108.1448048
11
5.7637143
21
107.8394
0
LINE
8
DEFAULT_255_1_388
10
5.7637143
20
107.8394
11
5.5956513
21
107.8394
0
LINE
8
DEFAULT_255_1_388
10
5.5956513
20
107.8394
11
5.5956513
21
108.1448048
0
LINE
8
DEFAULT_255_1_388
10
5.5956513
20
108.1448048
11
4.996588
21
108.1448048
0
LINE
8
DEFAULT_255_1_388
10
4.996588
20
108.1448048
11
4.996588
21
108.2432933
0
LINE
8
DEFAULT_255_1_388
10
4.996588
20
108.2432933
11
5.5857121
21
109.1549898
0
LINE
8
DEFAULT_255_1_388
10
5.5857121
20
109.1549898
11
5.7637143
21
109.1549898
0
LINE
8
DEFAULT_255_1_388
10
5.5757729
20
108.8902455
11
5.1863366
21
108.281243
0
LINE
8
DEFAULT_255_1_388
10
5.1863366
20
108.281243
11
5.5956513
21
108.281243
0
LINE
8
DEFAULT_255_1_388
10
5.5956513
20
108.281243
11
5.5956513
21
108.926388
0
LINE
8
DEFAULT_255_1_388
10
5.5956513
20
108.926388
11
5.5757729
21
108.8902455
0
LINE
8
DEFAULT_255_1_388
10
6.201943
20
109.1549898
11
6.5760187
21
108.0698089
0
LINE
8
DEFAULT_255_1_388
10
6.5760187
20
108.0698089
11
6.9519015
21
109.1549898
0
LINE
8
DEFAULT_255_1_388
10
6.9519015
20
109.1549898
11
7.14165
21
109.1549898
0
LINE
8
DEFAULT_255_1_388
10
7.14165
20
109.1549898
11
6.6537252
21
107.8394
0
LINE
8
DEFAULT_255_1_388
10
6.6537252
20
107.8394
11
6.5001193
21
107.8394
0
LINE
8
DEFAULT_255_1_388
10
6.5001193
20
107.8394
11
6.013098
21
109.1549898
0
LINE
8
DEFAULT_255_1_388
10
6.013098
20
109.1549898
11
6.201943
21
109.1549898
0
LINE
8
DEFAULT_255_1_388
10
5.1147637
20
4.6519
11
4.9891682
21
4.9952545
0
LINE
8
DEFAULT_255_1_388
10
4.9891682
20
4.9952545
11
4.4379939
21
4.9952545
0
LINE
8
DEFAULT_255_1_388
10
4.4379939
20
4.9952545
11
4.3142056
21
4.6519
0
LINE
8
DEFAULT_255_1_388
10
4.3142056
20
4.6519
11
4.1352998
21
4.6519
0
LINE
8
DEFAULT_255_1_388
10
4.1352998
20
4.6519
11
4.6376816
21
5.9674898
0
LINE
8
DEFAULT_255_1_388
10
4.6376816
20
5.9674898
11
4.7894805
21
5.9674898
0
LINE
8
DEFAULT_255_1_388
10
4.7894805
20
5.9674898
11
5.2927659
21
4.6519
0
LINE
8
DEFAULT_255_1_388
10
5.2927659
20
4.6519
11
5.1147637
21
4.6519
0
LINE
8
DEFAULT_255_1_388
10
4.7135811
20
5.7533451
11
4.4904006
21
5.1380177
0
LINE
8
DEFAULT_255_1_388
10
4.4904006
20
5.1380177
11
4.937665
21
5.1380177
0
LINE
8
DEFAULT_255_1_388
10
4.937665
20
5.1380177
11
4.7135811
21
5.7533451
0
LINE
8
DEFAULT_255_1_388
10
5.6559988
20
5.9674898
11
5.6559988
21
4.6519
0
LINE
8
DEFAULT_255_1_388
10
5.6559988
20
4.6519
11
5.4825144
21
4.6519
0
LINE
8
DEFAULT_255_1_388
10
5.4825144
20
4.6519
11
5.4825144
21
5.9674898
0
LINE
8
DEFAULT_255_1_388
10
5.4825144
20
5.9674898
11
5.6559988
21
5.9674898
0
LINE
8
DEFAULT_255_1_388
10
6.2948188
20
5.2789737
11
6.2948188
21
5.1425355
0
LINE
8
DEFAULT_255_1_388
10
6.2948188
20
5.1425355
11
5.8538794
21
5.1425355
0
LINE
8
DEFAULT_255_1_388
10
5.8538794
20
5.1425355
11
5.8538794
21
5.2789737
0
LINE
8
DEFAULT_255_1_388
10
5.8538794
20
5.2789737
11
6.2948188
21
5.2789737
0
LINE
8
DEFAULT_255_1_388
10
4.9789637
20
12.5894
11
4.8533682
21
12.9327545
0
LINE
8
DEFAULT_255_1_388
10
4.8533682
20
12.9327545
11
4.3021939
21
12.9327545
0
LINE
8
DEFAULT_255_1_388
10
4.3021939
20
12.9327545
11
4.1784056
21
12.5894
0
LINE
8
DEFAULT_255_1_388
10
4.1784056
20
12.5894
11
3.9994998
21
12.5894
0
LINE
8
DEFAULT_255_1_388
10
3.9994998
20
12.5894
11
4.5018816
21
13.9049898
0
LINE
8
DEFAULT_255_1_388
10
4.5018816
20
13.9049898
11
4.6536805
21
13.9049898
0
LINE
8
DEFAULT_255_1_388
10
4.6536805
20
13.9049898
11
5.1569659
21
12.5894
0
LINE
8
DEFAULT_255_1_388
10
5.1569659
20
12.5894
11
4.9789637
21
12.5894
0
LINE
8
DEFAULT_255_1_388
10
4.5777811
20
13.6908451
11
4.3546006
21
13.0755177
0
LINE
8
DEFAULT_255_1_388
10
4.3546006
20
13.0755177
11
4.801865
21
13.0755177
0
LINE
8
DEFAULT_255_1_388
10
4.801865
20
13.0755177
11
4.5777811
21
13.6908451
0
LINE
8
DEFAULT_255_1_388
10
5.5201988
20
13.9049898
11
5.5201988
21
12.5894
0
LINE
8
DEFAULT_255_1_388
10
5.5201988
20
12.5894
11
5.3467144
21
12.5894
0
LINE
8
DEFAULT_255_1_388
10
5.3467144
20
12.5894
11
5.3467144
21
13.9049898
0
LINE
8
DEFAULT_255_1_388
10
5.3467144
20
13.9049898
11
5.5201988
21
13.9049898
0
LINE
8
DEFAULT_255_1_388
10
6.0370376
20
13.1920775
11
6.0370376
21
13.3285157
0
LINE
8
DEFAULT_255_1_388
10
6.0370376
20
13.3285157
11
6.1626331
21
13.3285157
0
LINE
8
DEFAULT_255_1_388
10
5.9484883
20
13.5598282
11
5.7813289
21
13.5598282
0
LINE
8
DEFAULT_255_1_388
10
5.7695826
20
12.9363687
11
5.9376456
21
12.9363687
0
LINE
8
DEFAULT_255_1_388
10
6.1626331
20
13.1920775
11
6.0370376
21
13.1920775
0
ARC
8
DEFAULT_255_1_388
10
6.1593558
20
13.7101922
40
0.3816905
50
270.491971
51
281.8953028
0
ARC
8
DEFAULT_255_1_388
10
6.1864985
20
13.5862199
40
0.2547877
50
281.6690378
51
301.2943765
0
ARC
8
DEFAULT_255_1_388
10
6.2056436
20
13.5511926
40
0.2149197
50
301.7834992
51
311.754567
0
ARC
8
DEFAULT_255_1_388
10
6.2159477
20
13.539765
40
0.1995326
50
311.7325027
51
354.2803031
0
ARC
8
DEFAULT_255_1_388
10
6.1341893
20
13.553828
40
0.2823461
50
353.0941646
51
0.1174696
0
ARC
8
DEFAULT_255_1_388
10
6.0823451
20
13.5591874
40
0.3342238
50
359.1804452
51
15.0452323
0
ARC
8
DEFAULT_255_1_388
10
6.2337509
20
13.6033546
40
0.1765747
50
13.957816
51
77.6713812
0
ARC
8
DEFAULT_255_1_388
10
6.1902745
20
13.4475464
40
0.3381982
50
76.111571
51
90.7028736
0
ARC
8
DEFAULT_255_1_388
10
6.1836157
20
13.478325
40
0.3074046
50
89.5321574
51
103.5319393
0
ARC
8
DEFAULT_255_1_388
10
6.1610541
20
13.5682443
40
0.2147041
50
103.2930114
51
133.5619756
0
ARC
8
DEFAULT_255_1_388
10
6.1560482
20
13.5749351
40
0.2064084
50
133.8349761
51
173.5343225
0
ARC
8
DEFAULT_255_1_388
10
6.237414
20
13.5605144
40
0.2889266
50
172.5097183
51
180.1360699
0
ARC
8
DEFAULT_255_1_388
10
6.1303904
20
13.564388
40
0.3490913
50
155.3483706
51
180.7484035
0
ARC
8
DEFAULT_255_1_388
10
6.124888
20
13.5611519
40
0.3454798
50
131.5745177
51
154.4799474
0
ARC
8
DEFAULT_255_1_388
10
6.1601162
20
13.5255422
40
0.3955058
50
96.9874487
51
131.9690874
0
ARC
8
DEFAULT_255_1_388
10
6.1848055
20
13.3854407
40
0.537622
50
89.8592909
51
97.7827481
0
ARC
8
DEFAULT_255_1_388
10
6.1902164
20
13.355936
40
0.5671399
50
78.3654493
51
90.4132586
0
ARC
8
DEFAULT_255_1_388
10
6.2304805
20
13.5425918
40
0.3762034
50
56.6229818
51
78.6387103
0
ARC
8
DEFAULT_255_1_388
10
6.2546634
20
13.5848846
40
0.3275964
50
47.0254604
51
56.085558
0
ARC
8
DEFAULT_255_1_388
10
6.2568885
20
13.5893189
40
0.3228382
50
10.9207523
51
46.777927
0
ARC
8
DEFAULT_255_1_388
10
6.1034479
20
13.5538401
40
0.4802559
50
359.6364235
51
11.6087615
0
ARC
8
DEFAULT_255_1_388
10
6.3098645
20
13.5521404
40
0.273833
50
332.3549969
51
359.7179765
0
ARC
8
DEFAULT_255_1_388
10
6.2367045
20
13.5868285
40
0.3547505
50
325.2332381
51
332.8746682
0
ARC
8
DEFAULT_255_1_388
10
6.2538628
20
13.5748763
40
0.3338396
50
292.9803892
51
325.2391113
0
ARC
8
DEFAULT_255_1_388
10
6.2227824
20
13.6353679
40
0.4016959
50
292.542178
51
293.6931461
0
ARC
8
DEFAULT_255_1_388
10
6.2671396
20
12.9088036
40
0.372079
50
57.643292
51
72.8626085
0
ARC
8
DEFAULT_255_1_388
10
6.3070231
20
12.9734273
40
0.2961455
50
36.7246661
51
57.4701329
0
ARC
8
DEFAULT_255_1_388
10
6.3057387
20
12.974847
40
0.2963321
50
8.054535
51
36.3561529
0
ARC
8
DEFAULT_255_1_388
10
6.208706
20
12.9574073
40
0.3948682
50
359.8316595
51
8.5873361
0
ARC
8
DEFAULT_255_1_388
10
6.1664534
20
12.951997
40
0.4371398
50
343.9831631
51
0.557075
0
ARC
8
DEFAULT_255_1_388
10
6.2661584
20
12.9246963
40
0.3337749
50
311.6358204
51
343.7652116
0
ARC
8
DEFAULT_255_1_388
10
6.2235837
20
12.9726955
40
0.3979351
50
279.7829743
51
311.625622
0
ARC
8
DEFAULT_255_1_388
10
6.1896973
20
13.1343642
40
0.5630417
50
269.7285092
51
280.3857694
0
ARC
8
DEFAULT_255_1_388
10
6.1827286
20
13.1297241
40
0.5584119
50
256.6827433
51
270.4412869
0
ARC
8
DEFAULT_255_1_388
10
6.1446272
20
12.9739698
40
0.3980715
50
229.4223821
51
256.8554507
0
ARC
8
DEFAULT_255_1_388
10
6.0979825
20
12.9214683
40
0.3278564
50
181.8183354
51
229.6455015
0
ARC
8
DEFAULT_255_1_388
10
6.2149435
20
12.9361825
40
0.4453611
50
179.9760419
51
183.2330638
0
ARC
8
DEFAULT_255_1_388
10
6.1955987
20
12.9338781
40
0.2579652
50
179.4467996
51
196.2871626
0
ARC
8
DEFAULT_255_1_388
10
6.1407441
20
12.9188709
40
0.2011057
50
196.5661293
51
227.7059371
0
ARC
8
DEFAULT_255_1_388
10
6.1592048
20
12.9395155
40
0.2287994
50
227.7653015
51
257.8763321
0
ARC
8
DEFAULT_255_1_388
10
6.1845131
20
13.0455961
40
0.3378385
50
257.4583525
51
270.4267406
0
ARC
8
DEFAULT_255_1_388
10
6.1896381
20
13.078223
40
0.3704652
50
269.5965319
51
280.8788143
0
ARC
8
DEFAULT_255_1_388
10
6.2154609
20
12.9492529
40
0.2389415
50
280.6347277
51
299.8594068
0
ARC
8
DEFAULT_255_1_388
10
6.2369379
20
12.9084736
40
0.19289
50
300.3575552
51
314.5515667
0
ARC
8
DEFAULT_255_1_388
10
6.2276054
20
12.9153025
40
0.204312
50
315.0730962
51
345.0429362
0
ARC
8
DEFAULT_255_1_388
10
6.1237562
20
12.9455539
40
0.31246
50
344.598526
51
357.9270698
0
ARC
8
DEFAULT_255_1_388
10
6.0227867
20
12.9524705
40
0.4136265
50
357.4755098
51
0.0224936
0
ARC
8
DEFAULT_255_1_388
10
6.1380744
20
12.9552099
40
0.2983498
50
359.5051035
51
13.4236939
0
ARC
8
DEFAULT_255_1_388
10
6.2355834
20
12.9801637
40
0.1977186
50
12.9497905
51
48.7550905
0
ARC
8
DEFAULT_255_1_388
10
6.2150756
20
12.9521373
40
0.2323321
50
49.509109
51
72.1832965
0
ARC
8
DEFAULT_255_1_388
10
6.1748224
20
12.8326632
40
0.358397
50
71.9008458
51
84.3555134
0
ARC
8
DEFAULT_255_1_388
10
6.1566619
20
12.6794712
40
0.512641
50
84.019632
51
89.3326067
0
LINE
8
DEFAULT_255_1_388
10
7.3291348
20
13.6790987
11
7.3291348
21
13.2950838
0
LINE
8
DEFAULT_255_1_388
10
7.3291348
20
13.2950838
11
7.695982
21
13.2950838
0
LINE
8
DEFAULT_255_1_388
10
7.695982
20
13.2950838
11
7.695982
21
13.1369601
0
LINE
8
DEFAULT_255_1_388
10
7.695982
20
13.1369601
11
7.3291348
21
13.1369601
0
LINE
8
DEFAULT_255_1_388
10
7.3291348
20
13.1369601
11
7.3291348
21
12.7213204
0
LINE
8
DEFAULT_255_1_388
10
7.3291348
20
12.7213204
11
7.1610718
21
12.7213204
0
LINE
8
DEFAULT_255_1_388
10
7.1610718
20
12.7213204
11
7.1610718
21
13.1369601
0
LINE
8
DEFAULT_255_1_388
10
7.1610718
20
13.1369601
11
6.7942247
21
13.1369601
0
LINE
8
DEFAULT_255_1_388
10
6.7942247
20
13.1369601
11
6.7942247
21
13.2950838
0
LINE
8
DEFAULT_255_1_388
10
6.7942247
20
13.2950838
11
7.1610718
21
13.2950838
0
LINE
8
DEFAULT_255_1_388
10
7.1610718
20
13.2950838
11
7.1610718
21
13.6790987
0
LINE
8
DEFAULT_255_1_388
10
7.1610718
20
13.6790987
11
7.3291348
21
13.6790987
0
LINE
8
DEFAULT_255_1_388
10
4.9789637
20
20.5269
11
4.8533682
21
20.8702545
0
LINE
8
DEFAULT_255_1_388
10
4.8533682
20
20.8702545
11
4.3021939
21
20.8702545
0
LINE
8
DEFAULT_255_1_388
10
4.3021939
20
20.8702545
11
4.1784056
21
20.5269
0
LINE
8
DEFAULT_255_1_388
10
4.1784056
20
20.5269
11
3.9994998
21
20.5269
0
LINE
8
DEFAULT_255_1_388
10
3.9994998
20
20.5269
11
4.5018816
21
21.8424898
0
LINE
8
DEFAULT_255_1_388
10
4.5018816
20
21.8424898
11
4.6536805
21
21.8424898
0
LINE
8
DEFAULT_255_1_388
10
4.6536805
20
21.8424898
11
5.1569659
21
20.5269
0
LINE
8
DEFAULT_255_1_388
10
5.1569659
20
20.5269
11
4.9789637
21
20.5269
0
LINE
8
DEFAULT_255_1_388
10
4.5777811
20
21.6283451
11
4.3546006
21
21.0130177
0
LINE
8
DEFAULT_255_1_388
10
4.3546006
20
21.0130177
11
4.801865
21
21.0130177
0
LINE
8
DEFAULT_255_1_388
10
4.801865
20
21.0130177
11
4.5777811
21
21.6283451
0
LINE
8
DEFAULT_255_1_388
10
5.5201988
20
21.8424898
11
5.5201988
21
20.5269
0
LINE
8
DEFAULT_255_1_388
10
5.5201988
20
20.5269
11
5.3467144
21
20.5269
0
LINE
8
DEFAULT_255_1_388
10
5.3467144
20
20.5269
11
5.3467144
21
21.8424898
0
LINE
8
DEFAULT_255_1_388
10
5.3467144
20
21.8424898
11
5.5201988
21
21.8424898
0
LINE
8
DEFAULT_255_1_388
10
6.6559793
20
20.6633382
11
6.6559793
21
20.5269
0
LINE
8
DEFAULT_255_1_388
10
6.6559793
20
20.5269
11
5.7939788
21
20.5269
0
LINE
8
DEFAULT_255_1_388
10
5.7939788
20
20.5269
11
5.7939788
21
20.6470741
0
LINE
8
DEFAULT_255_1_388
10
5.7939788
20
20.6470741
11
6.2493753
21
21.1530702
0
LINE
8
DEFAULT_255_1_388
10
5.9358384
20
21.4548607
11
5.768679
21
21.4548607
0
LINE
8
DEFAULT_255_1_388
10
6.3478638
20
21.045546
11
5.9954737
21
20.6633382
0
LINE
8
DEFAULT_255_1_388
10
5.9954737
20
20.6633382
11
6.6559793
21
20.6633382
0
ARC
8
DEFAULT_255_1_388
10
4.7317812
20
22.4950983
40
2.0258655
50
318.5132526
51
320.7829045
0
ARC
8
DEFAULT_255_1_388
10
5.3265769
20
22.0109929
40
1.2589638
50
320.7372878
51
323.9739031
0
ARC
8
DEFAULT_255_1_388
10
5.7674701
20
21.6915554
40
0.7145141
50
323.8962701
51
328.64194
0
ARC
8
DEFAULT_255_1_388
10
5.9976959
20
21.5495545
40
0.4440242
50
328.8294576
51
331.7891185
0
ARC
8
DEFAULT_255_1_388
10
6.1099279
20
21.4916374
40
0.3177517
50
331.4254512
51
352.9365785
0
ARC
8
DEFAULT_255_1_388
10
6.1252279
20
21.488205
40
0.3021496
50
353.2257659
51
0.0166158
0
ARC
8
DEFAULT_255_1_388
10
6.1489039
20
21.4907894
40
0.2784847
50
359.486299
51
15.9343185
0
ARC
8
DEFAULT_255_1_388
10
6.2059306
20
21.5061269
40
0.2194403
50
16.1712913
51
43.5286088
0
ARC
8
DEFAULT_255_1_388
10
6.2146251
20
21.5148191
40
0.2071504
50
43.4417391
51
83.1661095
0
ARC
8
DEFAULT_255_1_388
10
6.1995412
20
21.4319316
40
0.2912888
50
82.160179
51
90.1505708
0
ARC
8
DEFAULT_255_1_388
10
6.1959893
20
21.3715279
40
0.3517025
50
89.5460741
51
102.5418361
0
ARC
8
DEFAULT_255_1_388
10
6.1686613
20
21.4874933
40
0.2325748
50
102.1738499
51
129.206123
0
ARC
8
DEFAULT_255_1_388
10
6.1598067
20
21.5014664
40
0.2161591
50
129.72865
51
135.753947
0
ARC
8
DEFAULT_255_1_388
10
6.1734549
20
21.4905728
40
0.2335433
50
136.1757367
51
166.3673339
0
ARC
8
DEFAULT_255_1_388
10
6.2867237
20
21.4602148
40
0.3507873
50
165.9090694
51
178.8684636
0
ARC
8
DEFAULT_255_1_388
10
6.3843009
20
21.4549263
40
0.4484624
50
178.4391136
51
180.0083808
0
ARC
8
DEFAULT_255_1_388
10
6.226371
20
21.4593197
40
0.4577138
50
163.2878482
51
180.5581842
0
ARC
8
DEFAULT_255_1_388
10
6.1361752
20
21.4841393
40
0.3641968
50
133.4540601
51
162.947111
0
ARC
8
DEFAULT_255_1_388
10
6.1562633
20
21.4627789
40
0.3935189
50
100.7869829
51
133.4382499
0
ARC
8
DEFAULT_255_1_388
10
6.1953878
20
21.2885399
40
0.5720313
50
89.660664
51
101.3702276
0
ARC
8
DEFAULT_255_1_388
10
6.2028487
20
21.2954263
40
0.5651495
50
78.2172678
51
90.412935
0
ARC
8
DEFAULT_255_1_388
10
6.2427953
20
21.4781511
40
0.378122
50
55.9269121
51
78.4888449
0
ARC
8
DEFAULT_255_1_388
10
6.2648668
20
21.5162187
40
0.3342379
50
47.929771
51
55.4049217
0
ARC
8
DEFAULT_255_1_388
10
6.2763198
20
21.5278618
40
0.3179217
50
4.334829
51
48.0560205
0
ARC
8
DEFAULT_255_1_388
10
6.1531
20
21.5087487
40
0.442341
50
359.9251713
51
5.5971671
0
ARC
8
DEFAULT_255_1_388
10
6.2013155
20
21.5150728
40
0.3941854
50
337.8914027
51
358.9967534
0
ARC
8
DEFAULT_255_1_388
10
5.8960725
20
21.6328295
40
0.7213271
50
326.9132501
51
338.3508308
0
ARC
8
DEFAULT_255_1_388
10
5.4476837
20
21.9202105
40
1.2538973
50
319.6471833
51
327.0959558
0
ARC
8
DEFAULT_255_1_388
10
5.0163495
20
22.276005
40
1.8129975
50
317.2588228
51
319.9045804
0
LINE
8
DEFAULT_255_1_388
10
7.3291348
20
21.6165987
11
7.3291348
21
21.2325838
0
LINE
8
DEFAULT_255_1_388
10
7.3291348
20
21.2325838
11
7.695982
21
21.2325838
0
LINE
8
DEFAULT_255_1_388
10
7.695982
20
21.2325838
11
7.695982
21
21.0744601
0
LINE
8
DEFAULT_255_1_388
10
7.695982
20
21.0744601
11
7.3291348
21
21.0744601
0
LINE
8
DEFAULT_255_1_388
10
7.3291348
20
21.0744601
11
7.3291348
21
20.6588204
0
LINE
8
DEFAULT_255_1_388
10
7.3291348
20
20.6588204
11
7.1610718
21
20.6588204
0
LINE
8
DEFAULT_255_1_388
10
7.1610718
20
20.6588204
11
7.1610718
21
21.0744601
0
LINE
8
DEFAULT_255_1_388
10
7.1610718
20
21.0744601
11
6.7942247
21
21.0744601
0
LINE
8
DEFAULT_255_1_388
10
6.7942247
20
21.0744601
11
6.7942247
21
21.2325838
0
LINE
8
DEFAULT_255_1_388
10
6.7942247
20
21.2325838
11
7.1610718
21
21.2325838
0
LINE
8
DEFAULT_255_1_388
10
7.1610718
20
21.2325838
11
7.1610718
21
21.6165987
0
LINE
8
DEFAULT_255_1_388
10
7.1610718
20
21.6165987
11
7.3291348
21
21.6165987
0
LINE
8
DEFAULT_255_1_388
10
4.9789637
20
28.4644
11
4.8533682
21
28.8077545
0
LINE
8
DEFAULT_255_1_388
10
4.8533682
20
28.8077545
11
4.3021939
21
28.8077545
0
LINE
8
DEFAULT_255_1_388
10
4.3021939
20
28.8077545
11
4.1784056
21
28.4644
0
LINE
8
DEFAULT_255_1_388
10
4.1784056
20
28.4644
11
3.9994998
21
28.4644
0
LINE
8
DEFAULT_255_1_388
10
3.9994998
20
28.4644
11
4.5018816
21
29.7799898
0
LINE
8
DEFAULT_255_1_388
10
4.5018816
20
29.7799898
11
4.6536805
21
29.7799898
0
LINE
8
DEFAULT_255_1_388
10
4.6536805
20
29.7799898
11
5.1569659
21
28.4644
0
LINE
8
DEFAULT_255_1_388
10
5.1569659
20
28.4644
11
4.9789637
21
28.4644
0
LINE
8
DEFAULT_255_1_388
10
4.5777811
20
29.5658451
11
4.3546006
21
28.9505177
0
LINE
8
DEFAULT_255_1_388
10
4.3546006
20
28.9505177
11
4.801865
21
28.9505177
0
LINE
8
DEFAULT_255_1_388
10
4.801865
20
28.9505177
11
4.5777811
21
29.5658451
0
LINE
8
DEFAULT_255_1_388
10
5.5201988
20
29.7799898
11
5.5201988
21
28.4644
0
LINE
8
DEFAULT_255_1_388
10
5.5201988
20
28.4644
11
5.3467144
21
28.4644
0
LINE
8
DEFAULT_255_1_388
10
5.3467144
20
28.4644
11
5.3467144
21
29.7799898
0
LINE
8
DEFAULT_255_1_388
10
5.3467144
20
29.7799898
11
5.5201988
21
29.7799898
0
LINE
8
DEFAULT_255_1_388
10
6.343346
20
29.7863148
11
6.343346
21
28.4644
0
LINE
8
DEFAULT_255_1_388
10
6.343346
20
28.4644
11
6.175283
21
28.4644
0
LINE
8
DEFAULT_255_1_388
10
6.175283
20
28.4644
11
6.175283
21
29.578495
0
LINE
8
DEFAULT_255_1_388
10
6.175283
20
29.578495
11
5.8382535
21
29.4547066
0
LINE
8
DEFAULT_255_1_388
10
5.8382535
20
29.4547066
11
5.8382535
21
29.6065055
0
LINE
8
DEFAULT_255_1_388
10
5.8382535
20
29.6065055
11
6.3171426
21
29.7863148
0
LINE
8
DEFAULT_255_1_388
10
6.3171426
20
29.7863148
11
6.343346
21
29.7863148
0
LINE
8
DEFAULT_255_1_388
10
7.3291348
20
29.5540987
11
7.3291348
21
29.1700838
0
LINE
8
DEFAULT_255_1_388
10
7.3291348
20
29.1700838
11
7.695982
21
29.1700838
0
LINE
8
DEFAULT_255_1_388
10
7.695982
20
29.1700838
11
7.695982
21
29.0119601
0
LINE
8
DEFAULT_255_1_388
10
7.695982
20
29.0119601
11
7.3291348
21
29.0119601
0
LINE
8
DEFAULT_255_1_388
10
7.3291348
20
29.0119601
11
7.3291348
21
28.5963204
0
LINE
8
DEFAULT_255_1_388
10
7.3291348
20
28.5963204
11
7.1610718
21
28.5963204
0
LINE
8
DEFAULT_255_1_388
10
7.1610718
20
28.5963204
11
7.1610718
21
29.0119601
0
LINE
8
DEFAULT_255_1_388
10
7.1610718
20
29.0119601
11
6.7942247
21
29.0119601
0
LINE
8
DEFAULT_255_1_388
10
6.7942247
20
29.0119601
11
6.7942247
21
29.1700838
0
LINE
8
DEFAULT_255_1_388
10
6.7942247
20
29.1700838
11
7.1610718
21
29.1700838
0
LINE
8
DEFAULT_255_1_388
10
7.1610718
20
29.1700838
11
7.1610718
21
29.5540987
0
LINE
8
DEFAULT_255_1_388
10
7.1610718
20
29.5540987
11
7.3291348
21
29.5540987
0
LINE
8
DEFAULT_255_1_388
10
4.9789637
20
36.4019
11
4.8533682
21
36.7452545
0
LINE
8
DEFAULT_255_1_388
10
4.8533682
20
36.7452545
11
4.3021939
21
36.7452545
0
LINE
8
DEFAULT_255_1_388
10
4.3021939
20
36.7452545
11
4.1784056
21
36.4019
0
LINE
8
DEFAULT_255_1_388
10
4.1784056
20
36.4019
11
3.9994998
21
36.4019
0
LINE
8
DEFAULT_255_1_388
10
3.9994998
20
36.4019
11
4.5018816
21
37.7174898
0
LINE
8
DEFAULT_255_1_388
10
4.5018816
20
37.7174898
11
4.6536805
21
37.7174898
0
LINE
8
DEFAULT_255_1_388
10
4.6536805
20
37.7174898
11
5.1569659
21
36.4019
0
LINE
8
DEFAULT_255_1_388
10
5.1569659
20
36.4019
11
4.9789637
21
36.4019
0
LINE
8
DEFAULT_255_1_388
10
4.5777811
20
37.5033451
11
4.3546006
21
36.8880177
0
LINE
8
DEFAULT_255_1_388
10
4.3546006
20
36.8880177
11
4.801865
21
36.8880177
0
LINE
8
DEFAULT_255_1_388
10
4.801865
20
36.8880177
11
4.5777811
21
37.5033451
0
LINE
8
DEFAULT_255_1_388
10
5.5201988
20
37.7174898
11
5.5201988
21
36.4019
0
LINE
8
DEFAULT_255_1_388
10
5.5201988
20
36.4019
11
5.3467144
21
36.4019
0
LINE
8
DEFAULT_255_1_388
10
5.3467144
20
36.4019
11
5.3467144
21
37.7174898
0
LINE
8
DEFAULT_255_1_388
10
5.3467144
20
37.7174898
11
5.5201988
21
37.7174898
0
LINE
8
DEFAULT_255_1_388
10
6.6189332
20
37.179869
11
6.6189332
21
36.9630135
0
LINE
8
DEFAULT_255_1_388
10
5.7885574
20
36.9404244
11
5.7885574
21
37.1636048
0
LINE
8
DEFAULT_255_1_388
10
6.4517737
20
36.9178353
11
6.4517737
21
37.1916153
0
LINE
8
DEFAULT_255_1_388
10
5.9557168
20
37.2042652
11
5.9557168
21
36.9368102
0
ARC
8
DEFAULT_255_1_388
10
5.2411666
20
36.9575118
40
1.3777776
50
353.8440855
51
0.2287917
0
ARC
8
DEFAULT_255_1_388
10
5.7630683
20
36.8992414
40
0.852639
50
344.4934746
51
353.9763743
0
ARC
8
DEFAULT_255_1_388
10
6.099749
20
36.8035191
40
0.5026273
50
329.2803599
51
344.7473406
0
ARC
8
DEFAULT_255_1_388
10
6.2112986
20
36.7423038
40
0.3754848
50
324.9361395
51
328.6153007
0
ARC
8
DEFAULT_255_1_388
10
6.2538636
20
36.7125586
40
0.3235566
50
280.5801797
51
324.9173226
0
ARC
8
DEFAULT_255_1_388
10
6.2087264
20
36.9005236
40
0.5167077
50
269.5979457
51
281.6732777
0
ARC
8
DEFAULT_255_1_388
10
6.2006168
20
36.8870113
40
0.5032026
50
256.6228565
51
270.5105488
0
ARC
8
DEFAULT_255_1_388
10
6.1553911
20
36.7128345
40
0.3233092
50
215.8618351
51
257.2787793
0
ARC
8
DEFAULT_255_1_388
10
6.2702618
20
36.7899106
40
0.4615831
50
197.9695203
51
215.2622745
0
ARC
8
DEFAULT_255_1_388
10
6.5498293
20
36.8842641
40
0.7566307
50
187.8816486
51
198.2346584
0
ARC
8
DEFAULT_255_1_388
10
6.9951531
20
36.9485453
40
1.2065653
50
180.8977266
51
188.0054894
0
ARC
8
DEFAULT_255_1_388
10
7.3001745
20
36.96004
40
1.5117443
50
180.7434591
51
181.152202
0
ARC
8
DEFAULT_255_1_388
10
7.1326741
20
37.1690371
40
1.3441277
50
173.7674302
51
180.2315596
0
ARC
8
DEFAULT_255_1_388
10
6.624461
20
37.2264779
40
0.8326847
50
164.3058537
51
173.9000553
0
ARC
8
DEFAULT_255_1_388
10
6.296861
20
37.3208652
40
0.4917711
50
148.7922028
51
164.5682288
0
ARC
8
DEFAULT_255_1_388
10
6.1899347
20
37.3805457
40
0.3694204
50
144.5883979
51
148.1161588
0
ARC
8
DEFAULT_255_1_388
10
6.1512093
20
37.4075667
40
0.322202
50
101.6440149
51
144.5142619
0
ARC
8
DEFAULT_255_1_388
10
6.1990285
20
37.2175337
40
0.5180451
50
89.528284
51
102.5820197
0
ARC
8
DEFAULT_255_1_388
10
6.2079277
20
37.2131376
40
0.5224441
50
77.0437914
51
90.508231
0
ARC
8
DEFAULT_255_1_388
10
6.2531531
20
37.3979272
40
0.3322297
50
48.2777708
51
77.4996087
0
ARC
8
DEFAULT_255_1_388
10
6.261327
20
37.4124557
40
0.315966
50
36.3141586
51
47.6307332
0
ARC
8
DEFAULT_255_1_388
10
6.1635993
20
37.3466159
40
0.4337313
50
18.2931065
51
35.6770203
0
ARC
8
DEFAULT_255_1_388
10
5.8774834
20
37.2484107
40
0.7362203
50
8.0246996
51
18.5605636
0
ARC
8
DEFAULT_255_1_388
10
5.4091189
20
37.1792432
40
1.2096583
50
1.127539
51
8.1718423
0
ARC
8
DEFAULT_255_1_388
10
5.0442322
20
37.1649374
40
1.5747719
50
0.5432713
51
1.38669
0
ARC
8
DEFAULT_255_1_388
10
5.2499701
20
37.1956163
40
1.2018103
50
359.8092569
51
4.9408001
0
ARC
8
DEFAULT_255_1_388
10
5.7236282
20
37.23789
40
0.7262727
50
4.8364937
51
12.2906017
0
ARC
8
DEFAULT_255_1_388
10
6.0335747
20
37.3069485
40
0.4087324
50
12.0806994
51
23.8171225
0
ARC
8
DEFAULT_255_1_388
10
6.1656143
20
37.3628508
40
0.2653719
50
24.2874621
51
31.3934353
0
ARC
8
DEFAULT_255_1_388
10
6.2246579
20
37.4014822
40
0.1948607
50
30.7407708
51
82.4658033
0
ARC
8
DEFAULT_255_1_388
10
6.204424
20
37.3021017
40
0.2961198
50
81.1057101
51
90.2187368
0
ARC
8
DEFAULT_255_1_388
10
6.2004052
20
37.3311421
40
0.2670929
50
89.380395
51
105.6763916
0
ARC
8
DEFAULT_255_1_388
10
6.1797774
20
37.406132
40
0.1893189
50
105.7980655
51
149.7387869
0
ARC
8
DEFAULT_255_1_388
10
6.2994914
20
37.3341719
40
0.3289892
50
149.4208441
51
163.628295
0
ARC
8
DEFAULT_255_1_388
10
6.5347144
20
37.2624345
40
0.5749004
50
163.3764549
51
172.141138
0
ARC
8
DEFAULT_255_1_388
10
6.9059865
20
37.2092582
40
0.9499585
50
172.0258462
51
178.0705453
0
ARC
8
DEFAULT_255_1_388
10
7.2481418
20
37.1930682
40
1.2924734
50
177.8639301
51
179.5036263
0
ARC
8
DEFAULT_255_1_388
10
7.1262436
20
36.9327151
40
1.170534
50
179.7995545
51
185.246089
0
ARC
8
DEFAULT_255_1_388
10
6.671403
20
36.8896404
40
0.7136613
50
185.1411911
51
193.0082205
0
ARC
8
DEFAULT_255_1_388
10
6.374029
20
36.8193441
40
0.4080987
50
192.7897338
51
205.2507384
0
ARC
8
DEFAULT_255_1_388
10
6.25625
20
36.7667538
40
0.2791522
50
205.8001921
51
211.2545876
0
ARC
8
DEFAULT_255_1_388
10
6.1974039
20
36.7273132
40
0.2084074
50
210.3789935
51
238.4007996
0
ARC
8
DEFAULT_255_1_388
10
6.1952125
20
36.7325786
40
0.2117943
50
239.6521916
51
265.9793852
0
ARC
8
DEFAULT_255_1_388
10
6.2047974
20
36.8082358
40
0.2879689
50
265.1324455
51
270.0603288
0
ARC
8
DEFAULT_255_1_388
10
6.2080351
20
36.7717418
40
0.2514919
50
269.3314378
51
287.2180039
0
ARC
8
DEFAULT_255_1_388
10
6.2235433
20
36.7151291
40
0.1928357
50
287.7957942
51
329.0808983
0
ARC
8
DEFAULT_255_1_388
10
6.1158191
20
36.7823651
40
0.319808
50
328.6635261
51
343.3325043
0
ARC
8
DEFAULT_255_1_388
10
5.8713649
20
36.8585195
40
0.5758408
50
343.0498092
51
351.9392499
0
ARC
8
DEFAULT_255_1_388
10
5.4812971
20
36.9160205
40
0.9701202
50
351.8071632
51
357.7957897
0
ARC
8
DEFAULT_255_1_388
10
5.1178448
20
36.9348724
40
1.3340376
50
357.5870923
51
359.2682493
0
LINE
8
DEFAULT_255_1_388
10
7.3291348
20
37.4915987
11
7.3291348
21
37.1075838
0
LINE
8
DEFAULT_255_1_388
10
7.3291348
20
37.1075838
11
7.695982
21
37.1075838
0
LINE
8
DEFAULT_255_1_388
10
7.695982
20
37.1075838
11
7.695982
21
36.9494601
0
LINE
8
DEFAULT_255_1_388
10
7.695982
20
36.9494601
11
7.3291348
21
36.9494601
0
LINE
8
DEFAULT_255_1_388
10
7.3291348
20
36.9494601
11
7.3291348
21
36.5338204
0
LINE
8
DEFAULT_255_1_388
10
7.3291348
20
36.5338204
11
7.1610718
21
36.5338204
0
LINE
8
DEFAULT_255_1_388
10
7.1610718
20
36.5338204
11
7.1610718
21
36.9494601
0
LINE
8
DEFAULT_255_1_388
10
7.1610718
20
36.9494601
11
6.7942247
21
36.9494601
0
LINE
8
DEFAULT_255_1_388
10
6.7942247
20
36.9494601
11
6.7942247
21
37.1075838
0
LINE
8
DEFAULT_255_1_388
10
6.7942247
20
37.1075838
11
7.1610718
21
37.1075838
0
LINE
8
DEFAULT_255_1_388
10
7.1610718
20
37.1075838
11
7.1610718
21
37.4915987
0
LINE
8
DEFAULT_255_1_388
10
7.1610718
20
37.4915987
11
7.3291348
21
37.4915987
0
LINE
8
DEFAULT_255_1_388
10
4.3638389
20
44.3394
11
3.9997024
21
44.3394
0
LINE
8
DEFAULT_255_1_388
10
3.9997024
20
44.3394
11
3.9997024
21
45.6549898
0
LINE
8
DEFAULT_255_1_388
10
3.9997024
20
45.6549898
11
4.3710674
21
45.6549898
0
LINE
8
DEFAULT_255_1_388
10
4.9511558
20
45.0414696
11
4.9511558
21
44.9574381
0
LINE
8
DEFAULT_255_1_388
10
4.3755852
20
45.5122267
11
4.1731868
21
45.5122267
0
LINE
8
DEFAULT_255_1_388
10
4.1731868
20
45.5122267
11
4.1731868
21
44.4812596
0
LINE
8
DEFAULT_255_1_388
10
4.1731868
20
44.4812596
11
4.3557068
21
44.4812596
0
LINE
8
DEFAULT_255_1_388
10
4.7794785
20
44.9610523
11
4.7794785
21
45.0378553
0
ARC
8
DEFAULT_255_1_388
10
4.3754469
20
44.9951436
40
0.6598608
50
75.4100343
51
90.3802731
0
ARC
8
DEFAULT_255_1_388
10
4.4012714
20
45.1027691
40
0.5492049
50
60.1455157
51
75.1889627
0
ARC
8
DEFAULT_255_1_388
10
4.4191306
20
45.1338914
40
0.5133226
50
26.525419
51
60.1451222
0
ARC
8
DEFAULT_255_1_388
10
4.2931092
20
45.0670642
40
0.6559324
50
7.4029944
51
26.832209
0
ARC
8
DEFAULT_255_1_388
10
4.1137489
20
45.0391229
40
0.8374103
50
0.1605597
51
7.7176135
0
ARC
8
DEFAULT_255_1_388
10
4.1321889
20
44.9531321
40
0.8189782
50
348.7289744
51
0.30125
0
ARC
8
DEFAULT_255_1_388
10
4.3185353
20
44.9161156
40
0.628991
50
333.0706936
51
348.7181455
0
ARC
8
DEFAULT_255_1_388
10
4.4272981
20
44.8570449
40
0.5052808
50
299.2531435
51
333.4571133
0
ARC
8
DEFAULT_255_1_388
10
4.3867012
20
44.9341629
40
0.5924066
50
278.1072193
51
299.0340218
0
ARC
8
DEFAULT_255_1_388
10
4.3579061
20
45.1037979
40
0.7644209
50
270.4446841
51
278.4508355
0
ARC
8
DEFAULT_255_1_388
10
4.3602545
20
44.99923
40
0.5179903
50
269.4969684
51
284.0204874
0
ARC
8
DEFAULT_255_1_388
10
4.4002263
20
44.8456415
40
0.3592968
50
283.7699076
51
318.1557121
0
ARC
8
DEFAULT_255_1_388
10
4.3622808
20
44.8740399
40
0.4065308
50
318.7417595
51
343.687252
0
ARC
8
DEFAULT_255_1_388
10
4.1593387
20
44.9374275
40
0.6191194
50
343.3324891
51
355.8548594
0
ARC
8
DEFAULT_255_1_388
10
3.9232424
20
44.9598719
40
0.856237
50
355.4988754
51
0.0789913
0
ARC
8
DEFAULT_255_1_388
10
4.0113224
20
45.042608
40
0.7681709
50
359.6455047
51
9.8607559
0
ARC
8
DEFAULT_255_1_388
10
4.2768947
20
45.0905664
40
0.498312
50
9.6573037
51
26.1931522
0
ARC
8
DEFAULT_255_1_388
10
4.3813022
20
45.1390587
40
0.3832303
50
26.5777895
51
40.1533752
0
ARC
8
DEFAULT_255_1_388
10
4.4100687
20
45.161502
40
0.3467742
50
40.3839958
51
80.1430923
0
ARC
8
DEFAULT_255_1_388
10
4.3732942
20
44.9984486
40
0.5137832
50
79.2153636
51
89.7445174
0
LINE
8
DEFAULT_255_1_388
10
5.3993237
20
45.6549898
11
5.3993237
21
44.3394
0
LINE
8
DEFAULT_255_1_388
10
5.3993237
20
44.3394
11
5.2258394
21
44.3394
0
LINE
8
DEFAULT_255_1_388
10
5.2258394
20
44.3394
11
5.2258394
21
45.6549898
0
LINE
8
DEFAULT_255_1_388
10
5.2258394
20
45.6549898
11
5.3993237
21
45.6549898
0
LINE
8
DEFAULT_255_1_388
10
6.5224543
20
45.6549898
11
6.5224543
21
45.5610191
0
LINE
8
DEFAULT_255_1_388
10
6.5224543
20
45.5610191
11
5.977605
21
44.3394
0
LINE
8
DEFAULT_255_1_388
10
5.977605
20
44.3394
11
5.8023135
21
44.3394
0
LINE
8
DEFAULT_255_1_388
10
5.8023135
20
44.3394
11
6.3453557
21
45.517648
0
LINE
8
DEFAULT_255_1_388
10
6.3453557
20
45.517648
11
5.6333469
21
45.517648
0
LINE
8
DEFAULT_255_1_388
10
5.6333469
20
45.517648
11
5.6333469
21
45.6549898
0
LINE
8
DEFAULT_255_1_388
10
5.6333469
20
45.6549898
11
6.5224543
21
45.6549898
0
LINE
8
DEFAULT_255_1_388
10
4.3638389
20
52.2769
11
3.9997024
21
52.2769
0
LINE
8
DEFAULT_255_1_388
10
3.9997024
20
52.2769
11
3.9997024
21
53.5924898
0
LINE
8
DEFAULT_255_1_388
10
3.9997024
20
53.5924898
11
4.3710674
21
53.5924898
0
LINE
8
DEFAULT_255_1_388
10
4.9511558
20
52.9789696
11
4.9511558
21
52.8949381
0
LINE
8
DEFAULT_255_1_388
10
4.3755852
20
53.4497267
11
4.1731868
21
53.4497267
0
LINE
8
DEFAULT_255_1_388
10
4.1731868
20
53.4497267
11
4.1731868
21
52.4187596
0
LINE
8
DEFAULT_255_1_388
10
4.1731868
20
52.4187596
11
4.3557068
21
52.4187596
0
LINE
8
DEFAULT_255_1_388
10
4.7794785
20
52.8985523
11
4.7794785
21
52.9753553
0
ARC
8
DEFAULT_255_1_388
10
4.3754469
20
52.9326436
40
0.6598608
50
75.4100343
51
90.3802731
0
ARC
8
DEFAULT_255_1_388
10
4.4012714
20
53.0402691
40
0.5492049
50
60.1455157
51
75.1889627
0
ARC
8
DEFAULT_255_1_388
10
4.4191306
20
53.0713914
40
0.5133226
50
26.525419
51
60.1451222
0
ARC
8
DEFAULT_255_1_388
10
4.2931092
20
53.0045642
40
0.6559324
50
7.4029944
51
26.832209
0
ARC
8
DEFAULT_255_1_388
10
4.1137489
20
52.9766229
40
0.8374103
50
0.1605597
51
7.7176135
0
ARC
8
DEFAULT_255_1_388
10
4.1321889
20
52.8906321
40
0.8189782
50
348.7289744
51
0.30125
0
ARC
8
DEFAULT_255_1_388
10
4.3185353
20
52.8536156
40
0.628991
50
333.0706936
51
348.7181455
0
ARC
8
DEFAULT_255_1_388
10
4.4272981
20
52.7945449
40
0.5052808
50
299.2531435
51
333.4571133
0
ARC
8
DEFAULT_255_1_388
10
4.3867012
20
52.8716629
40
0.5924066
50
278.1072193
51
299.0340218
0
ARC
8
DEFAULT_255_1_388
10
4.3579061
20
53.0412979
40
0.7644209
50
270.4446841
51
278.4508355
0
ARC
8
DEFAULT_255_1_388
10
4.3602545
20
52.93673
40
0.5179903
50
269.4969684
51
284.0204874
0
ARC
8
DEFAULT_255_1_388
10
4.4002263
20
52.7831415
40
0.3592968
50
283.7699076
51
318.1557121
0
ARC
8
DEFAULT_255_1_388
10
4.3622808
20
52.8115399
40
0.4065308
50
318.7417595
51
343.687252
0
ARC
8
DEFAULT_255_1_388
10
4.1593387
20
52.8749275
40
0.6191194
50
343.3324891
51
355.8548594
0
ARC
8
DEFAULT_255_1_388
10
3.9232424
20
52.8973719
40
0.856237
50
355.4988754
51
0.0789913
0
ARC
8
DEFAULT_255_1_388
10
4.0113224
20
52.980108
40
0.7681709
50
359.6455047
51
9.8607559
0
ARC
8
DEFAULT_255_1_388
10
4.2768947
20
53.0280664
40
0.498312
50
9.6573037
51
26.1931522
0
ARC
8
DEFAULT_255_1_388
10
4.3813022
20
53.0765587
40
0.3832303
50
26.5777895
51
40.1533752
0
ARC
8
DEFAULT_255_1_388
10
4.4100687
20
53.099002
40
0.3467742
50
40.3839958
51
80.1430923
0
ARC
8
DEFAULT_255_1_388
10
4.3732942
20
52.9359486
40
0.5137832
50
79.2153636
51
89.7445174
0
LINE
8
DEFAULT_255_1_388
10
5.3993237
20
53.5924898
11
5.3993237
21
52.2769
0
LINE
8
DEFAULT_255_1_388
10
5.3993237
20
52.2769
11
5.2258394
21
52.2769
0
LINE
8
DEFAULT_255_1_388
10
5.2258394
20
52.2769
11
5.2258394
21
53.5924898
0
LINE
8
DEFAULT_255_1_388
10
5.2258394
20
53.5924898
11
5.3993237
21
53.5924898
0
LINE
8
DEFAULT_255_1_388
10
6.2992739
20
53.5933934
11
6.3290916
21
53.5933934
0
LINE
8
DEFAULT_255_1_388
10
6.3290916
20
53.5933934
11
6.3290916
21
53.4515338
0
LINE
8
DEFAULT_255_1_388
10
6.3290916
20
53.4515338
11
6.2983704
21
53.4515338
0
LINE
8
DEFAULT_255_1_388
10
5.683043
20
52.7774747
11
5.683043
21
52.8416278
0
LINE
8
DEFAULT_255_1_388
10
5.851106
20
52.8199422
11
5.851106
21
52.7584999
0
ARC
8
DEFAULT_255_1_388
10
6.3042595
20
52.8892826
40
0.562282
50
90.6001079
51
104.5146616
0
ARC
8
DEFAULT_255_1_388
10
6.2605555
20
53.05181
40
0.3939917
50
104.2855758
51
133.8630124
0
ARC
8
DEFAULT_255_1_388
10
6.2789807
20
53.0396243
40
0.4155734
50
134.5304124
51
161.6210222
0
ARC
8
DEFAULT_255_1_388
10
6.464974
20
52.9740421
40
0.6127682
50
161.2850533
51
174.2074364
0
ARC
8
DEFAULT_255_1_388
10
6.6239306
20
52.9521437
40
0.7731446
50
173.7817938
51
174.9251711
0
ARC
8
DEFAULT_255_1_388
10
6.11135
20
52.796627
40
0.3412588
50
95.8332067
51
138.995412
0
ARC
8
DEFAULT_255_1_388
10
6.136478
20
52.6527695
40
0.4870358
50
89.8755506
51
97.0540979
0
ARC
8
DEFAULT_255_1_388
10
6.1418169
20
52.7467841
40
0.3930432
50
71.6407016
51
90.6240821
0
ARC
8
DEFAULT_255_1_388
10
6.1587563
20
52.8091433
40
0.3285421
50
39.6368051
51
71.0190743
0
ARC
8
DEFAULT_255_1_388
10
6.087147
20
52.7472586
40
0.4231706
50
10.6588054
51
39.9044509
0
ARC
8
DEFAULT_255_1_388
10
5.9130016
20
52.7094223
40
0.60133
50
359.6827842
51
11.1326896
0
ARC
8
DEFAULT_255_1_388
10
5.9085352
20
52.7014715
40
0.6058047
50
347.2485908
51
0.4371098
0
ARC
8
DEFAULT_255_1_388
10
6.0961137
20
52.6563379
40
0.4128987
50
318.1408565
51
347.6118497
0
ARC
8
DEFAULT_255_1_388
10
6.1326734
20
52.6262903
40
0.3656244
50
275.6342406
51
317.824739
0
ARC
8
DEFAULT_255_1_388
10
6.1078255
20
52.7724827
40
0.513655
50
269.8872513
51
276.7916069
0
ARC
8
DEFAULT_255_1_388
10
6.1016448
20
52.6571181
40
0.398323
50
246.9139443
51
270.7436787
0
ARC
8
DEFAULT_255_1_388
10
6.1023643
20
52.6411044
40
0.3839368
50
218.1665534
51
245.8780431
0
ARC
8
DEFAULT_255_1_388
10
6.2013016
20
52.7238903
40
0.5128958
50
191.4115343
51
218.6077624
0
ARC
8
DEFAULT_255_1_388
10
6.4193332
20
52.7727777
40
0.7363054
50
179.6344971
51
191.7836758
0
ARC
8
DEFAULT_255_1_388
10
7.0473206
20
52.8491495
40
1.3642984
50
171.4523743
51
180.3158856
0
ARC
8
DEFAULT_255_1_388
10
6.5528933
20
52.9260895
40
0.8639311
50
157.9802296
51
171.6246761
0
ARC
8
DEFAULT_255_1_388
10
6.3038284
20
53.0254038
40
0.5958004
50
141.4299236
51
157.8541251
0
ARC
8
DEFAULT_255_1_388
10
6.2316367
20
53.0764746
40
0.5075416
50
102.871586
51
140.8564533
0
ARC
8
DEFAULT_255_1_388
10
6.304492
20
52.8019943
40
0.7914163
50
90.377773
51
103.5868422
0
ARC
8
DEFAULT_255_1_388
10
6.1089441
20
52.7339543
40
0.2667015
50
89.8751238
51
126.2072139
0
ARC
8
DEFAULT_255_1_388
10
6.1140912
20
52.7165847
40
0.2838229
50
124.9742447
51
144.8960197
0
ARC
8
DEFAULT_255_1_388
10
6.0943157
20
52.7326981
40
0.2583845
50
145.2974778
51
160.2660922
0
ARC
8
DEFAULT_255_1_388
10
6.4399646
20
52.7549151
40
0.5888695
50
179.6512124
51
190.285571
0
ARC
8
DEFAULT_255_1_388
10
6.2494125
20
52.7189968
40
0.3949683
50
190.0944895
51
207.5099647
0
ARC
8
DEFAULT_255_1_388
10
6.1857707
20
52.6887177
40
0.3245464
50
207.9585471
51
216.325377
0
ARC
8
DEFAULT_255_1_388
10
6.1475344
20
52.6572712
40
0.2751259
50
215.7661336
51
232.5457193
0
ARC
8
DEFAULT_255_1_388
10
6.104446
20
52.6025273
40
0.2054668
50
232.8005815
51
270.6605497
0
ARC
8
DEFAULT_255_1_388
10
6.1095884
20
52.6434853
40
0.2464268
50
269.3550767
51
288.474612
0
ARC
8
DEFAULT_255_1_388
10
6.1200391
20
52.6041721
40
0.2058436
50
289.1831976
51
322.9685307
0
ARC
8
DEFAULT_255_1_388
10
6.0512493
20
52.6584279
40
0.2934408
50
322.6007085
51
346.5183319
0
ARC
8
DEFAULT_255_1_388
10
5.9210249
20
52.6916434
40
0.4278249
50
346.2584622
51
358.7739592
0
ARC
8
DEFAULT_255_1_388
10
5.8058824
20
52.6978829
40
0.5430876
50
358.3757628
51
0.0082477
0
ARC
8
DEFAULT_255_1_388
10
5.8915643
20
52.7009856
40
0.4574157
50
359.6211417
51
11.28403
0
ARC
8
DEFAULT_255_1_388
10
6.0352249
20
52.7309535
40
0.3106708
50
11.0483152
51
31.8145585
0
ARC
8
DEFAULT_255_1_388
10
6.0699954
20
52.7498045
40
0.2711963
50
32.3028554
51
38.0820598
0
ARC
8
DEFAULT_255_1_388
10
6.1173187
20
52.7926717
40
0.2075566
50
36.8249851
51
85.741667
0
ARC
8
DEFAULT_255_1_388
10
6.10976
20
52.7363065
40
0.2643487
50
85.0150021
51
90.050843
0
LINE
8
DEFAULT_255_1_388
10
4.3638389
20
60.2144
11
3.9997024
21
60.2144
0
LINE
8
DEFAULT_255_1_388
10
3.9997024
20
60.2144
11
3.9997024
21
61.5299898
0
LINE
8
DEFAULT_255_1_388
10
3.9997024
20
61.5299898
11
4.3710674
21
61.5299898
0
LINE
8
DEFAULT_255_1_388
10
4.9511558
20
60.9164696
11
4.9511558
21
60.8324381
0
LINE
8
DEFAULT_255_1_388
10
4.3755852
20
61.3872267
11
4.1731868
21
61.3872267
0
LINE
8
DEFAULT_255_1_388
10
4.1731868
20
61.3872267
11
4.1731868
21
60.3562596
0
LINE
8
DEFAULT_255_1_388
10
4.1731868
20
60.3562596
11
4.3557068
21
60.3562596
0
LINE
8
DEFAULT_255_1_388
10
4.7794785
20
60.8360523
11
4.7794785
21
60.9128553
0
ARC
8
DEFAULT_255_1_388
10
4.3754469
20
60.8701436
40
0.6598608
50
75.4100343
51
90.3802731
0
ARC
8
DEFAULT_255_1_388
10
4.4012714
20
60.9777691
40
0.5492049
50
60.1455157
51
75.1889627
0
ARC
8
DEFAULT_255_1_388
10
4.4191306
20
61.0088914
40
0.5133226
50
26.525419
51
60.1451222
0
ARC
8
DEFAULT_255_1_388
10
4.2931092
20
60.9420642
40
0.6559324
50
7.4029944
51
26.832209
0
ARC
8
DEFAULT_255_1_388
10
4.1137489
20
60.9141229
40
0.8374103
50
0.1605597
51
7.7176135
0
ARC
8
DEFAULT_255_1_388
10
4.1321889
20
60.8281321
40
0.8189782
50
348.7289744
51
0.30125
0
ARC
8
DEFAULT_255_1_388
10
4.3185353
20
60.7911156
40
0.628991
50
333.0706936
51
348.7181455
0
ARC
8
DEFAULT_255_1_388
10
4.4272981
20
60.7320449
40
0.5052808
50
299.2531435
51
333.4571133
0
ARC
8
DEFAULT_255_1_388
10
4.3867012
20
60.8091629
40
0.5924066
50
278.1072193
51
299.0340218
0
ARC
8
DEFAULT_255_1_388
10
4.3579061
20
60.9787979
40
0.7644209
50
270.4446841
51
278.4508355
0
ARC
8
DEFAULT_255_1_388
10
4.3602545
20
60.87423
40
0.5179903
50
269.4969684
51
284.0204874
0
ARC
8
DEFAULT_255_1_388
10
4.4002263
20
60.7206415
40
0.3592968
50
283.7699076
51
318.1557121
0
ARC
8
DEFAULT_255_1_388
10
4.3622808
20
60.7490399
40
0.4065308
50
318.7417595
51
343.687252
0
ARC
8
DEFAULT_255_1_388
10
4.1593387
20
60.8124275
40
0.6191194
50
343.3324891
51
355.8548594
0
ARC
8
DEFAULT_255_1_388
10
3.9232424
20
60.8348719
40
0.856237
50
355.4988754
51
0.0789913
0
ARC
8
DEFAULT_255_1_388
10
4.0113224
20
60.917608
40
0.7681709
50
359.6455047
51
9.8607559
0
ARC
8
DEFAULT_255_1_388
10
4.2768947
20
60.9655664
40
0.498312
50
9.6573037
51
26.1931522
0
ARC
8
DEFAULT_255_1_388
10
4.3813022
20
61.0140587
40
0.3832303
50
26.5777895
51
40.1533752
0
ARC
8
DEFAULT_255_1_388
10
4.4100687
20
61.036502
40
0.3467742
50
40.3839958
51
80.1430923
0
ARC
8
DEFAULT_255_1_388
10
4.3732942
20
60.8734486
40
0.5137832
50
79.2153636
51
89.7445174
0
LINE
8
DEFAULT_255_1_388
10
5.3993237
20
61.5299898
11
5.3993237
21
60.2144
0
LINE
8
DEFAULT_255_1_388
10
5.3993237
20
60.2144
11
5.2258394
21
60.2144
0
LINE
8
DEFAULT_255_1_388
10
5.2258394
20
60.2144
11
5.2258394
21
61.5299898
0
LINE
8
DEFAULT_255_1_388
10
5.2258394
20
61.5299898
11
5.3993237
21
61.5299898
0
LINE
8
DEFAULT_255_1_388
10
5.8836343
20
60.8396666
11
5.7499067
21
60.8740021
0
LINE
8
DEFAULT_255_1_388
10
5.7499067
20
60.8740021
11
5.8167705
21
61.5299898
0
LINE
8
DEFAULT_255_1_388
10
5.8167705
20
61.5299898
11
6.4908296
21
61.5299898
0
LINE
8
DEFAULT_255_1_388
10
6.4908296
20
61.5299898
11
6.4908296
21
61.3754803
0
LINE
8
DEFAULT_255_1_388
10
6.4908296
20
61.3754803
11
5.9586301
21
61.3754803
0
LINE
8
DEFAULT_255_1_388
10
5.9586301
20
61.3754803
11
5.9188733
21
61.0167652
0
LINE
8
DEFAULT_255_1_388
10
5.7029214
20
60.5604652
11
5.8610452
21
60.5604652
0
LINE
8
DEFAULT_255_1_388
10
5.9279089
20
60.8758092
11
5.8836343
21
60.8396666
0
ARC
8
DEFAULT_255_1_388
10
6.1275346
20
60.6590241
40
0.4141476
50
93.7181681
51
120.253934
0
ARC
8
DEFAULT_255_1_388
10
6.1381399
20
60.5681284
40
0.5055616
50
89.9660471
51
94.2495185
0
ARC
8
DEFAULT_255_1_388
10
6.1427221
20
60.6344154
40
0.4392953
50
73.8045384
51
90.5585736
0
ARC
8
DEFAULT_255_1_388
10
6.1691478
20
60.730952
40
0.3392225
50
41.3071072
51
73.543002
0
ARC
8
DEFAULT_255_1_388
10
6.1223298
20
60.6906461
40
0.4009977
50
13.5075837
51
41.2174839
0
ARC
8
DEFAULT_255_1_388
10
5.9376396
20
60.6422907
40
0.5918864
50
1.1330171
51
13.8830737
0
ARC
8
DEFAULT_255_1_388
10
5.7780041
20
60.6337522
40
0.7516787
50
359.9925091
51
1.5431298
0
ARC
8
DEFAULT_255_1_388
10
5.9224656
20
60.6291027
40
0.6072343
50
347.8572712
51
0.4294349
0
ARC
8
DEFAULT_255_1_388
10
6.1193791
20
60.5844898
40
0.4053482
50
323.6727442
51
348.1674594
0
ARC
8
DEFAULT_255_1_388
10
6.1524756
20
60.5643175
40
0.3667495
50
316.8171818
51
323.1486802
0
ARC
8
DEFAULT_255_1_388
10
6.1593879
20
60.5601612
40
0.358869
50
281.839603
51
316.5458142
0
ARC
8
DEFAULT_255_1_388
10
6.1171167
20
60.7351363
40
0.5388223
50
269.5770964
51
282.4214641
0
ARC
8
DEFAULT_255_1_388
10
6.1091088
20
60.711093
40
0.5147801
50
256.2425863
51
270.4486481
0
ARC
8
DEFAULT_255_1_388
10
6.0754615
20
60.5761124
40
0.3756708
50
228.9024379
51
256.33135
0
ARC
8
DEFAULT_255_1_388
10
6.0671596
20
60.5630054
40
0.360344
50
193.7536029
51
228.5272638
0
ARC
8
DEFAULT_255_1_388
10
6.2064161
20
60.6038463
40
0.5053599
50
184.9244437
51
194.4976052
0
ARC
8
DEFAULT_255_1_388
10
6.2280802
20
60.6078722
40
0.3700839
50
187.3596909
51
198.6733728
0
ARC
8
DEFAULT_255_1_388
10
6.1100045
20
60.5669373
40
0.2451195
50
198.4453795
51
217.7945479
0
ARC
8
DEFAULT_255_1_388
10
6.0767218
20
60.5433563
40
0.2043754
50
218.2887146
51
228.5613203
0
ARC
8
DEFAULT_255_1_388
10
6.0877225
20
60.5581902
40
0.2227819
50
228.9652423
51
258.1237049
0
ARC
8
DEFAULT_255_1_388
10
6.1108662
20
60.6572964
40
0.3245374
50
257.7260585
51
270.4013717
0
ARC
8
DEFAULT_255_1_388
10
6.115916
20
60.6072255
40
0.2744726
50
269.4204315
51
286.420998
0
ARC
8
DEFAULT_255_1_388
10
6.1326216
20
60.5465705
40
0.2115721
50
286.7250065
51
320.6004665
0
ARC
8
DEFAULT_255_1_388
10
6.0895131
20
60.5815527
40
0.2670878
50
320.6712228
51
344.5440474
0
ARC
8
DEFAULT_255_1_388
10
5.9593845
20
60.6197394
40
0.4026927
50
344.241448
51
356.735803
0
ARC
8
DEFAULT_255_1_388
10
5.8190152
20
60.6313656
40
0.5435085
50
356.3547471
51
0.0507222
0
ARC
8
DEFAULT_255_1_388
10
5.9692417
20
60.6348812
40
0.3932934
50
359.5579289
51
12.9534322
0
ARC
8
DEFAULT_255_1_388
10
6.0879257
20
60.6636586
40
0.2711827
50
12.6489751
51
41.608121
0
ARC
8
DEFAULT_255_1_388
10
6.1138417
20
60.6856946
40
0.2371737
50
41.7851122
51
85.9892156
0
ARC
8
DEFAULT_255_1_388
10
6.0999727
20
60.5941738
40
0.3295244
50
84.6965848
51
90.0672125
0
ARC
8
DEFAULT_255_1_388
10
6.0973295
20
60.5190118
40
0.4046926
50
89.6804991
51
99.161352
0
ARC
8
DEFAULT_255_1_388
10
6.0742304
20
60.6570848
40
0.2647044
50
98.9836248
51
113.8905702
0
ARC
8
DEFAULT_255_1_388
10
6.0483979
20
60.7180118
40
0.1985386
50
114.195234
51
127.3641866
0
LINE
8
DEFAULT_255_1_388
10
4.4961389
20
68.1519
11
4.1320024
21
68.1519
0
LINE
8
DEFAULT_255_1_388
10
4.1320024
20
68.1519
11
4.1320024
21
69.4674898
0
LINE
8
DEFAULT_255_1_388
10
4.1320024
20
69.4674898
11
4.5033674
21
69.4674898
0
LINE
8
DEFAULT_255_1_388
10
5.0834558
20
68.8539696
11
5.0834558
21
68.7699381
0
LINE
8
DEFAULT_255_1_388
10
4.5078852
20
69.3247267
11
4.3054868
21
69.3247267
0
LINE
8
DEFAULT_255_1_388
10
4.3054868
20
69.3247267
11
4.3054868
21
68.2937596
0
LINE
8
DEFAULT_255_1_388
10
4.3054868
20
68.2937596
11
4.4880068
21
68.2937596
0
LINE
8
DEFAULT_255_1_388
10
4.9117785
20
68.7735523
11
4.9117785
21
68.8503553
0
ARC
8
DEFAULT_255_1_388
10
4.5077469
20
68.8076436
40
0.6598608
50
75.4100343
51
90.3802731
0
ARC
8
DEFAULT_255_1_388
10
4.5335714
20
68.9152691
40
0.5492049
50
60.1455157
51
75.1889627
0
ARC
8
DEFAULT_255_1_388
10
4.5514306
20
68.9463914
40
0.5133226
50
26.525419
51
60.1451222
0
ARC
8
DEFAULT_255_1_388
10
4.4254092
20
68.8795642
40
0.6559324
50
7.4029944
51
26.832209
0
ARC
8
DEFAULT_255_1_388
10
4.2460489
20
68.8516229
40
0.8374103
50
0.1605597
51
7.7176135
0
ARC
8
DEFAULT_255_1_388
10
4.2644889
20
68.7656321
40
0.8189782
50
348.7289744
51
0.30125
0
ARC
8
DEFAULT_255_1_388
10
4.4508353
20
68.7286156
40
0.628991
50
333.0706936
51
348.7181455
0
ARC
8
DEFAULT_255_1_388
10
4.5595981
20
68.6695449
40
0.5052808
50
299.2531435
51
333.4571133
0
ARC
8
DEFAULT_255_1_388
10
4.5190012
20
68.7466629
40
0.5924066
50
278.1072193
51
299.0340218
0
ARC
8
DEFAULT_255_1_388
10
4.4902061
20
68.9162979
40
0.7644209
50
270.4446841
51
278.4508355
0
ARC
8
DEFAULT_255_1_388
10
4.4925545
20
68.81173
40
0.5179903
50
269.4969684
51
284.0204874
0
ARC
8
DEFAULT_255_1_388
10
4.5325263
20
68.6581415
40
0.3592968
50
283.7699076
51
318.1557121
0
ARC
8
DEFAULT_255_1_388
10
4.4945808
20
68.6865399
40
0.4065308
50
318.7417595
51
343.687252
0
ARC
8
DEFAULT_255_1_388
10
4.2916387
20
68.7499275
40
0.6191194
50
343.3324891
51
355.8548594
0
ARC
8
DEFAULT_255_1_388
10
4.0555424
20
68.7723719
40
0.856237
50
355.4988754
51
0.0789913
0
ARC
8
DEFAULT_255_1_388
10
4.1436224
20
68.855108
40
0.7681709
50
359.6455047
51
9.8607559
0
ARC
8
DEFAULT_255_1_388
10
4.4091947
20
68.9030664
40
0.498312
50
9.6573037
51
26.1931522
0
ARC
8
DEFAULT_255_1_388
10
4.5136022
20
68.9515587
40
0.3832303
50
26.5777895
51
40.1533752
0
ARC
8
DEFAULT_255_1_388
10
4.5423687
20
68.974002
40
0.3467742
50
40.3839958
51
80.1430923
0
ARC
8
DEFAULT_255_1_388
10
4.5055942
20
68.8109486
40
0.5137832
50
79.2153636
51
89.7445174
0
LINE
8
DEFAULT_255_1_388
10
5.5316237
20
69.4674898
11
5.5316237
21
68.1519
0
LINE
8
DEFAULT_255_1_388
10
5.5316237
20
68.1519
11
5.3581394
21
68.1519
0
LINE
8
DEFAULT_255_1_388
10
5.3581394
20
68.1519
11
5.3581394
21
69.4674898
0
LINE
8
DEFAULT_255_1_388
10
5.3581394
20
69.4674898
11
5.5316237
21
69.4674898
0
LINE
8
DEFAULT_255_1_388
10
6.5110876
20
69.4674898
11
6.5110876
21
68.593743
0
LINE
8
DEFAULT_255_1_388
10
6.5110876
20
68.593743
11
6.6936076
21
68.593743
0
LINE
8
DEFAULT_255_1_388
10
6.6936076
20
68.593743
11
6.6936076
21
68.4573048
0
LINE
8
DEFAULT_255_1_388
10
6.6936076
20
68.4573048
11
6.5110876
21
68.4573048
0
LINE
8
DEFAULT_255_1_388
10
6.5110876
20
68.4573048
11
6.5110876
21
68.1519
0
LINE
8
DEFAULT_255_1_388
10
6.5110876
20
68.1519
11
6.3430246
21
68.1519
0
LINE
8
DEFAULT_255_1_388
10
6.3430246
20
68.1519
11
6.3430246
21
68.4573048
0
LINE
8
DEFAULT_255_1_388
10
6.3430246
20
68.4573048
11
5.7439614
21
68.4573048
0
LINE
8
DEFAULT_255_1_388
10
5.7439614
20
68.4573048
11
5.7439614
21
68.5557933
0
LINE
8
DEFAULT_255_1_388
10
5.7439614
20
68.5557933
11
6.3330854
21
69.4674898
0
LINE
8
DEFAULT_255_1_388
10
6.3330854
20
69.4674898
11
6.5110876
21
69.4674898
0
LINE
8
DEFAULT_255_1_388
10
6.3231462
20
69.2027455
11
5.9337099
21
68.593743
0
LINE
8
DEFAULT_255_1_388
10
5.9337099
20
68.593743
11
6.3430246
21
68.593743
0
LINE
8
DEFAULT_255_1_388
10
6.3430246
20
68.593743
11
6.3430246
21
69.238888
0
LINE
8
DEFAULT_255_1_388
10
6.3430246
20
69.238888
11
6.3231462
21
69.2027455
0
LINE
8
DEFAULT_255_1_388
10
4.3638389
20
76.0894
11
3.9997024
21
76.0894
0
LINE
8
DEFAULT_255_1_388
10
3.9997024
20
76.0894
11
3.9997024
21
77.4049898
0
LINE
8
DEFAULT_255_1_388
10
3.9997024
20
77.4049898
11
4.3710674
21
77.4049898
0
LINE
8
DEFAULT_255_1_388
10
4.9511558
20
76.7914696
11
4.9511558
21
76.7074381
0
LINE
8
DEFAULT_255_1_388
10
4.3755852
20
77.2622267
11
4.1731868
21
77.2622267
0
LINE
8
DEFAULT_255_1_388
10
4.1731868
20
77.2622267
11
4.1731868
21
76.2312596
0
LINE
8
DEFAULT_255_1_388
10
4.1731868
20
76.2312596
11
4.3557068
21
76.2312596
0
LINE
8
DEFAULT_255_1_388
10
4.7794785
20
76.7110523
11
4.7794785
21
76.7878553
0
ARC
8
DEFAULT_255_1_388
10
4.3754469
20
76.7451436
40
0.6598608
50
75.4100343
51
90.3802731
0
ARC
8
DEFAULT_255_1_388
10
4.4012714
20
76.8527691
40
0.5492049
50
60.1455157
51
75.1889627
0
ARC
8
DEFAULT_255_1_388
10
4.4191306
20
76.8838914
40
0.5133226
50
26.525419
51
60.1451222
0
ARC
8
DEFAULT_255_1_388
10
4.2931092
20
76.8170642
40
0.6559324
50
7.4029944
51
26.832209
0
ARC
8
DEFAULT_255_1_388
10
4.1137489
20
76.7891229
40
0.8374103
50
0.1605597
51
7.7176135
0
ARC
8
DEFAULT_255_1_388
10
4.1321889
20
76.7031321
40
0.8189782
50
348.7289744
51
0.30125
0
ARC
8
DEFAULT_255_1_388
10
4.3185353
20
76.6661156
40
0.628991
50
333.0706936
51
348.7181455
0
ARC
8
DEFAULT_255_1_388
10
4.4272981
20
76.6070449
40
0.5052808
50
299.2531435
51
333.4571133
0
ARC
8
DEFAULT_255_1_388
10
4.3867012
20
76.6841629
40
0.5924066
50
278.1072193
51
299.0340218
0
ARC
8
DEFAULT_255_1_388
10
4.3579061
20
76.8537979
40
0.7644209
50
270.4446841
51
278.4508355
0
ARC
8
DEFAULT_255_1_388
10
4.3602545
20
76.74923
40
0.5179903
50
269.4969684
51
284.0204874
0
ARC
8
DEFAULT_255_1_388
10
4.4002263
20
76.5956415
40
0.3592968
50
283.7699076
51
318.1557121
0
ARC
8
DEFAULT_255_1_388
10
4.3622808
20
76.6240399
40
0.4065308
50
318.7417595
51
343.687252
0
ARC
8
DEFAULT_255_1_388
10
4.1593387
20
76.6874275
40
0.6191194
50
343.3324891
51
355.8548594
0
ARC
8
DEFAULT_255_1_388
10
3.9232424
20
76.7098719
40
0.856237
50
355.4988754
51
0.0789913
0
ARC
8
DEFAULT_255_1_388
10
4.0113224
20
76.792608
40
0.7681709
50
359.6455047
51
9.8607559
0
ARC
8
DEFAULT_255_1_388
10
4.2768947
20
76.8405664
40
0.498312
50
9.6573037
51
26.1931522
0
ARC
8
DEFAULT_255_1_388
10
4.3813022
20
76.8890587
40
0.3832303
50
26.5777895
51
40.1533752
0
ARC
8
DEFAULT_255_1_388
10
4.4100687
20
76.911502
40
0.3467742
50
40.3839958
51
80.1430923
0
ARC
8
DEFAULT_255_1_388
10
4.3732942
20
76.7484486
40
0.5137832
50
79.2153636
51
89.7445174
0
LINE
8
DEFAULT_255_1_388
10
5.3993237
20
77.4049898
11
5.3993237
21
76.0894
0
LINE
8
DEFAULT_255_1_388
10
5.3993237
20
76.0894
11
5.2258394
21
76.0894
0
LINE
8
DEFAULT_255_1_388
10
5.2258394
20
76.0894
11
5.2258394
21
77.4049898
0
LINE
8
DEFAULT_255_1_388
10
5.2258394
20
77.4049898
11
5.3993237
21
77.4049898
0
LINE
8
DEFAULT_255_1_388
10
5.9161626
20
76.6920775
11
5.9161626
21
76.8285157
0
LINE
8
DEFAULT_255_1_388
10
5.9161626
20
76.8285157
11
6.0417581
21
76.8285157
0
LINE
8
DEFAULT_255_1_388
10
5.8276133
20
77.0598282
11
5.6604539
21
77.0598282
0
LINE
8
DEFAULT_255_1_388
10
5.6487075
20
76.4363688
11
5.8167705
21
76.4363688
0
LINE
8
DEFAULT_255_1_388
10
6.0417581
20
76.6920775
11
5.9161626
21
76.6920775
0
ARC
8
DEFAULT_255_1_388
10
6.0384807
20
77.2101922
40
0.3816905
50
270.491971
51
281.8953028
0
ARC
8
DEFAULT_255_1_388
10
6.0656234
20
77.0862199
40
0.2547877
50
281.6690378
51
301.2943765
0
ARC
8
DEFAULT_255_1_388
10
6.0847685
20
77.0511926
40
0.2149197
50
301.7834992
51
311.754567
0
ARC
8
DEFAULT_255_1_388
10
6.0950727
20
77.039765
40
0.1995326
50
311.7325027
51
354.2803031
0
ARC
8
DEFAULT_255_1_388
10
6.0133143
20
77.053828
40
0.2823461
50
353.0941646
51
0.1174696
0
ARC
8
DEFAULT_255_1_388
10
5.9614701
20
77.0591874
40
0.3342238
50
359.1804452
51
15.0452323
0
ARC
8
DEFAULT_255_1_388
10
6.1128759
20
77.1033546
40
0.1765747
50
13.957816
51
77.6713812
0
ARC
8
DEFAULT_255_1_388
10
6.0693995
20
76.9475464
40
0.3381982
50
76.111571
51
90.7028736
0
ARC
8
DEFAULT_255_1_388
10
6.0627407
20
76.978325
40
0.3074046
50
89.5321574
51
103.5319393
0
ARC
8
DEFAULT_255_1_388
10
6.040179
20
77.0682443
40
0.2147041
50
103.2930114
51
133.5619756
0
ARC
8
DEFAULT_255_1_388
10
6.0351732
20
77.0749351
40
0.2064084
50
133.8349761
51
173.5343225
0
ARC
8
DEFAULT_255_1_388
10
6.1165389
20
77.0605144
40
0.2889266
50
172.5097183
51
180.1360699
0
ARC
8
DEFAULT_255_1_388
10
6.0095153
20
77.064388
40
0.3490913
50
155.3483706
51
180.7484035
0
ARC
8
DEFAULT_255_1_388
10
6.0040129
20
77.0611519
40
0.3454798
50
131.5745177
51
154.4799474
0
ARC
8
DEFAULT_255_1_388
10
6.0392412
20
77.0255422
40
0.3955058
50
96.9874487
51
131.9690874
0
ARC
8
DEFAULT_255_1_388
10
6.0639304
20
76.8854407
40
0.537622
50
89.8592909
51
97.7827481
0
ARC
8
DEFAULT_255_1_388
10
6.0693413
20
76.855936
40
0.5671399
50
78.3654493
51
90.4132586
0
ARC
8
DEFAULT_255_1_388
10
6.1096054
20
77.0425918
40
0.3762034
50
56.6229818
51
78.6387103
0
ARC
8
DEFAULT_255_1_388
10
6.1337884
20
77.0848846
40
0.3275964
50
47.0254604
51
56.085558
0
ARC
8
DEFAULT_255_1_388
10
6.1360135
20
77.0893189
40
0.3228382
50
10.9207523
51
46.777927
0
ARC
8
DEFAULT_255_1_388
10
5.9825729
20
77.0538401
40
0.4802559
50
359.6364235
51
11.6087615
0
ARC
8
DEFAULT_255_1_388
10
6.1889894
20
77.0521404
40
0.273833
50
332.3549969
51
359.7179765
0
ARC
8
DEFAULT_255_1_388
10
6.1158295
20
77.0868285
40
0.3547505
50
325.2332381
51
332.8746682
0
ARC
8
DEFAULT_255_1_388
10
6.1329878
20
77.0748763
40
0.3338396
50
292.9803892
51
325.2391113
0
ARC
8
DEFAULT_255_1_388
10
6.1019074
20
77.1353679
40
0.4016959
50
292.542178
51
293.6931461
0
ARC
8
DEFAULT_255_1_388
10
6.1462645
20
76.4088036
40
0.372079
50
57.643292
51
72.8626085
0
ARC
8
DEFAULT_255_1_388
10
6.186148
20
76.4734273
40
0.2961455
50
36.7246661
51
57.4701329
0
ARC
8
DEFAULT_255_1_388
10
6.1848637
20
76.474847
40
0.2963321
50
8.054535
51
36.3561529
0
ARC
8
DEFAULT_255_1_388
10
6.0878309
20
76.4574073
40
0.3948682
50
359.8316595
51
8.5873361
0
ARC
8
DEFAULT_255_1_388
10
6.0455784
20
76.451997
40
0.4371398
50
343.9831631
51
0.557075
0
ARC
8
DEFAULT_255_1_388
10
6.1452833
20
76.4246963
40
0.3337749
50
311.6358204
51
343.7652116
0
ARC
8
DEFAULT_255_1_388
10
6.1027087
20
76.4726955
40
0.3979351
50
279.7829743
51
311.625622
0
ARC
8
DEFAULT_255_1_388
10
6.0688222
20
76.6343642
40
0.5630417
50
269.7285092
51
280.3857694
0
ARC
8
DEFAULT_255_1_388
10
6.0618535
20
76.6297241
40
0.5584119
50
256.6827433
51
270.4412869
0
ARC
8
DEFAULT_255_1_388
10
6.0237522
20
76.4739698
40
0.3980715
50
229.4223821
51
256.8554507
0
ARC
8
DEFAULT_255_1_388
10
5.9771075
20
76.4214683
40
0.3278564
50
181.8183354
51
229.6455015
0
ARC
8
DEFAULT_255_1_388
10
6.0940684
20
76.4361825
40
0.4453611
50
179.9760419
51
183.2330638
0
ARC
8
DEFAULT_255_1_388
10
6.0747237
20
76.4338781
40
0.2579652
50
179.4467996
51
196.2871626
0
ARC
8
DEFAULT_255_1_388
10
6.019869
20
76.4188709
40
0.2011057
50
196.5661293
51
227.7059371
0
ARC
8
DEFAULT_255_1_388
10
6.0383298
20
76.4395155
40
0.2287994
50
227.7653015
51
257.8763321
0
ARC
8
DEFAULT_255_1_388
10
6.0636381
20
76.5455961
40
0.3378385
50
257.4583525
51
270.4267406
0
ARC
8
DEFAULT_255_1_388
10
6.068763
20
76.578223
40
0.3704652
50
269.5965319
51
280.8788143
0
ARC
8
DEFAULT_255_1_388
10
6.0945858
20
76.4492529
40
0.2389415
50
280.6347277
51
299.8594068
0
ARC
8
DEFAULT_255_1_388
10
6.1160628
20
76.4084736
40
0.19289
50
300.3575552
51
314.5515667
0
ARC
8
DEFAULT_255_1_388
10
6.1067304
20
76.4153025
40
0.204312
50
315.0730962
51
345.0429362
0
ARC
8
DEFAULT_255_1_388
10
6.0028811
20
76.4455539
40
0.31246
50
344.598526
51
357.9270698
0
ARC
8
DEFAULT_255_1_388
10
5.9019116
20
76.4524705
40
0.4136265
50
357.4755098
51
0.0224936
0
ARC
8
DEFAULT_255_1_388
10
6.0171994
20
76.4552099
40
0.2983498
50
359.5051035
51
13.4236939
0
ARC
8
DEFAULT_255_1_388
10
6.1147084
20
76.4801637
40
0.1977186
50
12.9497905
51
48.7550905
0
ARC
8
DEFAULT_255_1_388
10
6.0942005
20
76.4521373
40
0.2323321
50
49.509109
51
72.1832965
0
ARC
8
DEFAULT_255_1_388
10
6.0539474
20
76.3326632
40
0.358397
50
71.9008458
51
84.3555134
0
ARC
8
DEFAULT_255_1_388
10
6.0357868
20
76.1794712
40
0.512641
50
84.019632
51
89.3326067
0
LINE
8
DEFAULT_255_1_388
10
4.3638389
20
84.0269
11
3.9997024
21
84.0269
0
LINE
8
DEFAULT_255_1_388
10
3.9997024
20
84.0269
11
3.9997024
21
85.3424898
0
LINE
8
DEFAULT_255_1_388
10
3.9997024
20
85.3424898
11
4.3710674
21
85.3424898
0
LINE
8
DEFAULT_255_1_388
10
4.9511558
20
84.7289696
11
4.9511558
21
84.6449381
0
LINE
8
DEFAULT_255_1_388
10
4.3755852
20
85.1997267
11
4.1731868
21
85.1997267
0
LINE
8
DEFAULT_255_1_388
10
4.1731868
20
85.1997267
11
4.1731868
21
84.1687596
0
LINE
8
DEFAULT_255_1_388
10
4.1731868
20
84.1687596
11
4.3557068
21
84.1687596
0
LINE
8
DEFAULT_255_1_388
10
4.7794785
20
84.6485523
11
4.7794785
21
84.7253553
0
ARC
8
DEFAULT_255_1_388
10
4.3754469
20
84.6826436
40
0.6598608
50
75.4100343
51
90.3802731
0
ARC
8
DEFAULT_255_1_388
10
4.4012714
20
84.7902691
40
0.5492049
50
60.1455157
51
75.1889627
0
ARC
8
DEFAULT_255_1_388
10
4.4191306
20
84.8213914
40
0.5133226
50
26.525419
51
60.1451222
0
ARC
8
DEFAULT_255_1_388
10
4.2931092
20
84.7545642
40
0.6559324
50
7.4029944
51
26.832209
0
ARC
8
DEFAULT_255_1_388
10
4.1137489
20
84.7266229
40
0.8374103
50
0.1605597
51
7.7176135
0
ARC
8
DEFAULT_255_1_388
10
4.1321889
20
84.6406321
40
0.8189782
50
348.7289744
51
0.30125
0
ARC
8
DEFAULT_255_1_388
10
4.3185353
20
84.6036156
40
0.628991
50
333.0706936
51
348.7181455
0
ARC
8
DEFAULT_255_1_388
10
4.4272981
20
84.5445449
40
0.5052808
50
299.2531435
51
333.4571133
0
ARC
8
DEFAULT_255_1_388
10
4.3867012
20
84.6216629
40
0.5924066
50
278.1072193
51
299.0340218
0
ARC
8
DEFAULT_255_1_388
10
4.3579061
20
84.7912979
40
0.7644209
50
270.4446841
51
278.4508355
0
ARC
8
DEFAULT_255_1_388
10
4.3602545
20
84.68673
40
0.5179903
50
269.4969684
51
284.0204874
0
ARC
8
DEFAULT_255_1_388
10
4.4002263
20
84.5331415
40
0.3592968
50
283.7699076
51
318.1557121
0
ARC
8
DEFAULT_255_1_388
10
4.3622808
20
84.5615399
40
0.4065308
50
318.7417595
51
343.687252
0
ARC
8
DEFAULT_255_1_388
10
4.1593387
20
84.6249275
40
0.6191194
50
343.3324891
51
355.8548594
0
ARC
8
DEFAULT_255_1_388
10
3.9232424
20
84.6473719
40
0.856237
50
355.4988754
51
0.0789913
0
ARC
8
DEFAULT_255_1_388
10
4.0113224
20
84.730108
40
0.7681709
50
359.6455047
51
9.8607559
0
ARC
8
DEFAULT_255_1_388
10
4.2768947
20
84.7780664
40
0.498312
50
9.6573037
51
26.1931522
0
ARC
8
DEFAULT_255_1_388
10
4.3813022
20
84.8265587
40
0.3832303
50
26.5777895
51
40.1533752
0
ARC
8
DEFAULT_255_1_388
10
4.4100687
20
84.849002
40
0.3467742
50
40.3839958
51
80.1430923
0
ARC
8
DEFAULT_255_1_388
10
4.3732942
20
84.6859486
40
0.5137832
50
79.2153636
51
89.7445174
0
LINE
8
DEFAULT_255_1_388
10
5.3993237
20
85.3424898
11
5.3993237
21
84.0269
0
LINE
8
DEFAULT_255_1_388
10
5.3993237
20
84.0269
11
5.2258394
21
84.0269
0
LINE
8
DEFAULT_255_1_388
10
5.2258394
20
84.0269
11
5.2258394
21
85.3424898
0
LINE
8
DEFAULT_255_1_388
10
5.2258394
20
85.3424898
11
5.3993237
21
85.3424898
0
LINE
8
DEFAULT_255_1_388
10
6.5351042
20
84.1633382
11
6.5351042
21
84.0269
0
LINE
8
DEFAULT_255_1_388
10
6.5351042
20
84.0269
11
5.6731038
21
84.0269
0
LINE
8
DEFAULT_255_1_388
10
5.6731038
20
84.0269
11
5.6731038
21
84.1470741
0
LINE
8
DEFAULT_255_1_388
10
5.6731038
20
84.1470741
11
6.1285002
21
84.6530702
0
LINE
8
DEFAULT_255_1_388
10
5.8149634
20
84.9548607
11
5.647804
21
84.9548607
0
LINE
8
DEFAULT_255_1_388
10
6.2269888
20
84.545546
11
5.8745986
21
84.1633382
0
LINE
8
DEFAULT_255_1_388
10
5.8745986
20
84.1633382
11
6.5351042
21
84.1633382
0
ARC
8
DEFAULT_255_1_388
10
4.6109062
20
85.9950983
40
2.0258655
50
318.5132526
51
320.7829045
0
ARC
8
DEFAULT_255_1_388
10
5.2057019
20
85.5109929
40
1.2589638
50
320.7372878
51
323.9739031
0
ARC
8
DEFAULT_255_1_388
10
5.6465951
20
85.1915554
40
0.7145141
50
323.8962701
51
328.64194
0
ARC
8
DEFAULT_255_1_388
10
5.8768208
20
85.0495545
40
0.4440242
50
328.8294576
51
331.7891185
0
ARC
8
DEFAULT_255_1_388
10
5.9890528
20
84.9916374
40
0.3177517
50
331.4254512
51
352.9365785
0
ARC
8
DEFAULT_255_1_388
10
6.0043528
20
84.988205
40
0.3021496
50
353.2257659
51
0.0166158
0
ARC
8
DEFAULT_255_1_388
10
6.0280289
20
84.9907894
40
0.2784847
50
359.486299
51
15.9343185
0
ARC
8
DEFAULT_255_1_388
10
6.0850556
20
85.0061269
40
0.2194403
50
16.1712913
51
43.5286088
0
ARC
8
DEFAULT_255_1_388
10
6.09375
20
85.0148191
40
0.2071504
50
43.4417391
51
83.1661095
0
ARC
8
DEFAULT_255_1_388
10
6.0786661
20
84.9319316
40
0.2912888
50
82.160179
51
90.1505708
0
ARC
8
DEFAULT_255_1_388
10
6.0751143
20
84.8715279
40
0.3517025
50
89.5460741
51
102.5418361
0
ARC
8
DEFAULT_255_1_388
10
6.0477863
20
84.9874933
40
0.2325748
50
102.1738499
51
129.206123
0
ARC
8
DEFAULT_255_1_388
10
6.0389316
20
85.0014664
40
0.2161591
50
129.72865
51
135.753947
0
ARC
8
DEFAULT_255_1_388
10
6.0525798
20
84.9905728
40
0.2335433
50
136.1757367
51
166.3673339
0
ARC
8
DEFAULT_255_1_388
10
6.1658487
20
84.9602148
40
0.3507873
50
165.9090694
51
178.8684636
0
ARC
8
DEFAULT_255_1_388
10
6.2634258
20
84.9549263
40
0.4484624
50
178.4391136
51
180.0083808
0
ARC
8
DEFAULT_255_1_388
10
6.105496
20
84.9593197
40
0.4577138
50
163.2878482
51
180.5581842
0
ARC
8
DEFAULT_255_1_388
10
6.0153001
20
84.9841393
40
0.3641968
50
133.4540601
51
162.947111
0
ARC
8
DEFAULT_255_1_388
10
6.0353883
20
84.9627789
40
0.3935189
50
100.7869829
51
133.4382499
0
ARC
8
DEFAULT_255_1_388
10
6.0745128
20
84.7885399
40
0.5720313
50
89.660664
51
101.3702276
0
ARC
8
DEFAULT_255_1_388
10
6.0819737
20
84.7954263
40
0.5651495
50
78.2172678
51
90.412935
0
ARC
8
DEFAULT_255_1_388
10
6.1219202
20
84.9781511
40
0.378122
50
55.9269121
51
78.4888449
0
ARC
8
DEFAULT_255_1_388
10
6.1439918
20
85.0162187
40
0.3342379
50
47.929771
51
55.4049217
0
ARC
8
DEFAULT_255_1_388
10
6.1554448
20
85.0278618
40
0.3179217
50
4.334829
51
48.0560205
0
ARC
8
DEFAULT_255_1_388
10
6.032225
20
85.0087487
40
0.442341
50
359.9251713
51
5.5971671
0
ARC
8
DEFAULT_255_1_388
10
6.0804404
20
85.0150728
40
0.3941854
50
337.8914027
51
358.9967534
0
ARC
8
DEFAULT_255_1_388
10
5.7751974
20
85.1328295
40
0.7213271
50
326.9132501
51
338.3508308
0
ARC
8
DEFAULT_255_1_388
10
5.3268086
20
85.4202105
40
1.2538973
50
319.6471833
51
327.0959558
0
ARC
8
DEFAULT_255_1_388
10
4.8954744
20
85.776005
40
1.8129975
50
317.2588228
51
319.9045804
0
LINE
8
DEFAULT_255_1_388
10
4.3564389
20
91.9644
11
3.9923024
21
91.9644
0
LINE
8
DEFAULT_255_1_388
10
3.9923024
20
91.9644
11
3.9923024
21
93.2799898
0
LINE
8
DEFAULT_255_1_388
10
3.9923024
20
93.2799898
11
4.3636674
21
93.2799898
0
LINE
8
DEFAULT_255_1_388
10
4.9437558
20
92.6664696
11
4.9437558
21
92.5824381
0
LINE
8
DEFAULT_255_1_388
10
4.3681852
20
93.1372267
11
4.1657868
21
93.1372267
0
LINE
8
DEFAULT_255_1_388
10
4.1657868
20
93.1372267
11
4.1657868
21
92.1062596
0
LINE
8
DEFAULT_255_1_388
10
4.1657868
20
92.1062596
11
4.3483068
21
92.1062596
0
LINE
8
DEFAULT_255_1_388
10
4.7720785
20
92.5860523
11
4.7720785
21
92.6628553
0
ARC
8
DEFAULT_255_1_388
10
4.3680469
20
92.6201436
40
0.6598608
50
75.4100343
51
90.3802731
0
ARC
8
DEFAULT_255_1_388
10
4.3938714
20
92.7277691
40
0.5492049
50
60.1455157
51
75.1889627
0
ARC
8
DEFAULT_255_1_388
10
4.4117306
20
92.7588914
40
0.5133226
50
26.525419
51
60.1451222
0
ARC
8
DEFAULT_255_1_388
10
4.2857092
20
92.6920642
40
0.6559324
50
7.4029944
51
26.832209
0
ARC
8
DEFAULT_255_1_388
10
4.1063489
20
92.6641229
40
0.8374103
50
0.1605597
51
7.7176135
0
ARC
8
DEFAULT_255_1_388
10
4.1247889
20
92.5781321
40
0.8189782
50
348.7289744
51
0.30125
0
ARC
8
DEFAULT_255_1_388
10
4.3111353
20
92.5411156
40
0.628991
50
333.0706936
51
348.7181455
0
ARC
8
DEFAULT_255_1_388
10
4.4198981
20
92.4820449
40
0.5052808
50
299.2531435
51
333.4571133
0
ARC
8
DEFAULT_255_1_388
10
4.3793012
20
92.5591629
40
0.5924066
50
278.1072193
51
299.0340218
0
ARC
8
DEFAULT_255_1_388
10
4.3505061
20
92.7287979
40
0.7644209
50
270.4446841
51
278.4508355
0
ARC
8
DEFAULT_255_1_388
10
4.3528545
20
92.62423
40
0.5179903
50
269.4969684
51
284.0204874
0
ARC
8
DEFAULT_255_1_388
10
4.3928263
20
92.4706415
40
0.3592968
50
283.7699076
51
318.1557121
0
ARC
8
DEFAULT_255_1_388
10
4.3548808
20
92.4990399
40
0.4065308
50
318.7417595
51
343.687252
0
ARC
8
DEFAULT_255_1_388
10
4.1519387
20
92.5624275
40
0.6191194
50
343.3324891
51
355.8548594
0
ARC
8
DEFAULT_255_1_388
10
3.9158424
20
92.5848719
40
0.856237
50
355.4988754
51
0.0789913
0
ARC
8
DEFAULT_255_1_388
10
4.0039224
20
92.667608
40
0.7681709
50
359.6455047
51
9.8607559
0
ARC
8
DEFAULT_255_1_388
10
4.2694947
20
92.7155664
40
0.498312
50
9.6573037
51
26.1931522
0
ARC
8
DEFAULT_255_1_388
10
4.3739022
20
92.7640587
40
0.3832303
50
26.5777895
51
40.1533752
0
ARC
8
DEFAULT_255_1_388
10
4.4026687
20
92.786502
40
0.3467742
50
40.3839958
51
80.1430923
0
ARC
8
DEFAULT_255_1_388
10
4.3658942
20
92.6234486
40
0.5137832
50
79.2153636
51
89.7445174
0
LINE
8
DEFAULT_255_1_388
10
5.3919237
20
93.2799898
11
5.3919237
21
91.9644
0
LINE
8
DEFAULT_255_1_388
10
5.3919237
20
91.9644
11
5.2184394
21
91.9644
0
LINE
8
DEFAULT_255_1_388
10
5.2184394
20
91.9644
11
5.2184394
21
93.2799898
0
LINE
8
DEFAULT_255_1_388
10
5.2184394
20
93.2799898
11
5.3919237
21
93.2799898
0
LINE
8
DEFAULT_255_1_388
10
6.2150709
20
93.2863148
11
6.2150709
21
91.9644
0
LINE
8
DEFAULT_255_1_388
10
6.2150709
20
91.9644
11
6.047008
21
91.9644
0
LINE
8
DEFAULT_255_1_388
10
6.047008
20
91.9644
11
6.047008
21
93.078495
0
LINE
8
DEFAULT_255_1_388
10
6.047008
20
93.078495
11
5.7099784
21
92.9547066
0
LINE
8
DEFAULT_255_1_388
10
5.7099784
20
92.9547066
11
5.7099784
21
93.1065055
0
LINE
8
DEFAULT_255_1_388
10
5.7099784
20
93.1065055
11
6.1888676
21
93.2863148
0
LINE
8
DEFAULT_255_1_388
10
6.1888676
20
93.2863148
11
6.2150709
21
93.2863148
0
LINE
8
DEFAULT_255_1_388
10
4.3638389
20
99.9019
11
3.9997024
21
99.9019
0
LINE
8
DEFAULT_255_1_388
10
3.9997024
20
99.9019
11
3.9997024
21
101.2174898
0
LINE
8
DEFAULT_255_1_388
10
3.9997024
20
101.2174898
11
4.3710674
21
101.2174898
0
LINE
8
DEFAULT_255_1_388
10
4.9511558
20
100.6039696
11
4.9511558
21
100.5199381
0
LINE
8
DEFAULT_255_1_388
10
4.3755852
20
101.0747267
11
4.1731868
21
101.0747267
0
LINE
8
DEFAULT_255_1_388
10
4.1731868
20
101.0747267
11
4.1731868
21
100.0437596
0
LINE
8
DEFAULT_255_1_388
10
4.1731868
20
100.0437596
11
4.3557068
21
100.0437596
0
LINE
8
DEFAULT_255_1_388
10
4.7794785
20
100.5235523
11
4.7794785
21
100.6003553
0
ARC
8
DEFAULT_255_1_388
10
4.3754469
20
100.5576436
40
0.6598608
50
75.4100343
51
90.3802731
0
ARC
8
DEFAULT_255_1_388
10
4.4012714
20
100.6652691
40
0.5492049
50
60.1455157
51
75.1889627
0
ARC
8
DEFAULT_255_1_388
10
4.4191306
20
100.6963914
40
0.5133226
50
26.525419
51
60.1451222
0
ARC
8
DEFAULT_255_1_388
10
4.2931092
20
100.6295642
40
0.6559324
50
7.4029944
51
26.832209
0
ARC
8
DEFAULT_255_1_388
10
4.1137489
20
100.6016229
40
0.8374103
50
0.1605597
51
7.7176135
0
ARC
8
DEFAULT_255_1_388
10
4.1321889
20
100.5156321
40
0.8189782
50
348.7289744
51
0.30125
0
ARC
8
DEFAULT_255_1_388
10
4.3185353
20
100.4786156
40
0.628991
50
333.0706936
51
348.7181455
0
ARC
8
DEFAULT_255_1_388
10
4.4272981
20
100.4195449
40
0.5052808
50
299.2531435
51
333.4571133
0
ARC
8
DEFAULT_255_1_388
10
4.3867012
20
100.4966629
40
0.5924066
50
278.1072193
51
299.0340218
0
ARC
8
DEFAULT_255_1_388
10
4.3579061
20
100.6662979
40
0.7644209
50
270.4446841
51
278.4508355
0
ARC
8
DEFAULT_255_1_388
10
4.3602545
20
100.56173
40
0.5179903
50
269.4969684
51
284.0204874
0
ARC
8
DEFAULT_255_1_388
10
4.4002263
20
100.4081415
40
0.3592968
50
283.7699076
51
318.1557121
0
ARC
8
DEFAULT_255_1_388
10
4.3622808
20
100.4365399
40
0.4065308
50
318.7417595
51
343.687252
0
ARC
8
DEFAULT_255_1_388
10
4.1593387
20
100.4999275
40
0.6191194
50
343.3324891
51
355.8548594
0
ARC
8
DEFAULT_255_1_388
10
3.9232424
20
100.5223719
40
0.856237
50
355.4988754
51
0.0789913
0
ARC
8
DEFAULT_255_1_388
10
4.0113224
20
100.605108
40
0.7681709
50
359.6455047
51
9.8607559
0
ARC
8
DEFAULT_255_1_388
10
4.2768947
20
100.6530664
40
0.498312
50
9.6573037
51
26.1931522
0
ARC
8
DEFAULT_255_1_388
10
4.3813022
20
100.7015587
40
0.3832303
50
26.5777895
51
40.1533752
0
ARC
8
DEFAULT_255_1_388
10
4.4100687
20
100.724002
40
0.3467742
50
40.3839958
51
80.1430923
0
ARC
8
DEFAULT_255_1_388
10
4.3732942
20
100.5609486
40
0.5137832
50
79.2153636
51
89.7445174
0
LINE
8
DEFAULT_255_1_388
10
5.3993237
20
101.2174898
11
5.3993237
21
99.9019
0
LINE
8
DEFAULT_255_1_388
10
5.3993237
20
99.9019
11
5.2258394
21
99.9019
0
LINE
8
DEFAULT_255_1_388
10
5.2258394
20
99.9019
11
5.2258394
21
101.2174898
0
LINE
8
DEFAULT_255_1_388
10
5.2258394
20
101.2174898
11
5.3993237
21
101.2174898
0
LINE
8
DEFAULT_255_1_388
10
6.4980581
20
100.679869
11
6.4980581
21
100.4630135
0
LINE
8
DEFAULT_255_1_388
10
5.6676824
20
100.4404244
11
5.6676824
21
100.6636048
0
LINE
8
DEFAULT_255_1_388
10
6.3308987
20
100.4178353
11
6.3308987
21
100.6916153
0
LINE
8
DEFAULT_255_1_388
10
5.8348418
20
100.7042652
11
5.8348418
21
100.4368102
0
ARC
8
DEFAULT_255_1_388
10
5.1202915
20
100.4575118
40
1.3777776
50
353.8440855
51
0.2287917
0
ARC
8
DEFAULT_255_1_388
10
5.6421932
20
100.3992414
40
0.852639
50
344.4934746
51
353.9763743
0
ARC
8
DEFAULT_255_1_388
10
5.978874
20
100.3035191
40
0.5026273
50
329.2803599
51
344.7473406
0
ARC
8
DEFAULT_255_1_388
10
6.0904235
20
100.2423038
40
0.3754848
50
324.9361395
51
328.6153007
0
ARC
8
DEFAULT_255_1_388
10
6.1329885
20
100.2125586
40
0.3235566
50
280.5801797
51
324.9173226
0
ARC
8
DEFAULT_255_1_388
10
6.0878514
20
100.4005236
40
0.5167077
50
269.5979457
51
281.6732777
0
ARC
8
DEFAULT_255_1_388
10
6.0797417
20
100.3870113
40
0.5032026
50
256.6228565
51
270.5105488
0
ARC
8
DEFAULT_255_1_388
10
6.034516
20
100.2128345
40
0.3233092
50
215.8618351
51
257.2787793
0
ARC
8
DEFAULT_255_1_388
10
6.1493867
20
100.2899106
40
0.4615831
50
197.9695203
51
215.2622745
0
ARC
8
DEFAULT_255_1_388
10
6.4289543
20
100.3842641
40
0.7566307
50
187.8816486
51
198.2346584
0
ARC
8
DEFAULT_255_1_388
10
6.8742781
20
100.4485453
40
1.2065653
50
180.8977266
51
188.0054894
0
ARC
8
DEFAULT_255_1_388
10
7.1792995
20
100.46004
40
1.5117443
50
180.7434591
51
181.152202
0
ARC
8
DEFAULT_255_1_388
10
7.0117991
20
100.6690371
40
1.3441277
50
173.7674302
51
180.2315596
0
ARC
8
DEFAULT_255_1_388
10
6.5035859
20
100.7264779
40
0.8326847
50
164.3058537
51
173.9000553
0
ARC
8
DEFAULT_255_1_388
10
6.175986
20
100.8208652
40
0.4917711
50
148.7922028
51
164.5682288
0
ARC
8
DEFAULT_255_1_388
10
6.0690597
20
100.8805457
40
0.3694204
50
144.5883979
51
148.1161588
0
ARC
8
DEFAULT_255_1_388
10
6.0303342
20
100.9075667
40
0.322202
50
101.6440149
51
144.5142619
0
ARC
8
DEFAULT_255_1_388
10
6.0781534
20
100.7175337
40
0.5180451
50
89.528284
51
102.5820197
0
ARC
8
DEFAULT_255_1_388
10
6.0870526
20
100.7131376
40
0.5224441
50
77.0437914
51
90.508231
0
ARC
8
DEFAULT_255_1_388
10
6.132278
20
100.8979272
40
0.3322297
50
48.2777708
51
77.4996087
0
ARC
8
DEFAULT_255_1_388
10
6.140452
20
100.9124557
40
0.315966
50
36.3141586
51
47.6307332
0
ARC
8
DEFAULT_255_1_388
10
6.0427242
20
100.8466159
40
0.4337313
50
18.2931065
51
35.6770203
0
ARC
8
DEFAULT_255_1_388
10
5.7566083
20
100.7484107
40
0.7362203
50
8.0246996
51
18.5605636
0
ARC
8
DEFAULT_255_1_388
10
5.2882439
20
100.6792432
40
1.2096583
50
1.127539
51
8.1718423
0
ARC
8
DEFAULT_255_1_388
10
4.9233572
20
100.6649374
40
1.5747719
50
0.5432713
51
1.38669
0
ARC
8
DEFAULT_255_1_388
10
5.1290951
20
100.6956163
40
1.2018103
50
359.8092569
51
4.9408001
0
ARC
8
DEFAULT_255_1_388
10
5.6027532
20
100.73789
40
0.7262727
50
4.8364937
51
12.2906017
0
ARC
8
DEFAULT_255_1_388
10
5.9126997
20
100.8069485
40
0.4087324
50
12.0806994
51
23.8171225
0
ARC
8
DEFAULT_255_1_388
10
6.0447393
20
100.8628508
40
0.2653719
50
24.2874621
51
31.3934353
0
ARC
8
DEFAULT_255_1_388
10
6.1037829
20
100.9014822
40
0.1948607
50
30.7407708
51
82.4658033
0
ARC
8
DEFAULT_255_1_388
10
6.0835489
20
100.8021017
40
0.2961198
50
81.1057101
51
90.2187368
0
ARC
8
DEFAULT_255_1_388
10
6.0795301
20
100.8311421
40
0.2670929
50
89.380395
51
105.6763916
0
ARC
8
DEFAULT_255_1_388
10
6.0589023
20
100.906132
40
0.1893189
50
105.7980655
51
149.7387869
0
ARC
8
DEFAULT_255_1_388
10
6.1786163
20
100.8341719
40
0.3289892
50
149.4208441
51
163.628295
0
ARC
8
DEFAULT_255_1_388
10
6.4138393
20
100.7624345
40
0.5749004
50
163.3764549
51
172.141138
0
ARC
8
DEFAULT_255_1_388
10
6.7851114
20
100.7092582
40
0.9499585
50
172.0258462
51
178.0705453
0
ARC
8
DEFAULT_255_1_388
10
7.1272667
20
100.6930682
40
1.2924734
50
177.8639301
51
179.5036263
0
ARC
8
DEFAULT_255_1_388
10
7.0053686
20
100.4327151
40
1.170534
50
179.7995545
51
185.246089
0
ARC
8
DEFAULT_255_1_388
10
6.5505279
20
100.3896404
40
0.7136613
50
185.1411911
51
193.0082205
0
ARC
8
DEFAULT_255_1_388
10
6.253154
20
100.3193441
40
0.4080987
50
192.7897338
51
205.2507384
0
ARC
8
DEFAULT_255_1_388
10
6.135375
20
100.2667538
40
0.2791522
50
205.8001921
51
211.2545876
0
ARC
8
DEFAULT_255_1_388
10
6.0765289
20
100.2273132
40
0.2084074
50
210.3789935
51
238.4007996
0
ARC
8
DEFAULT_255_1_388
10
6.0743375
20
100.2325786
40
0.2117943
50
239.6521916
51
265.9793852
0
ARC
8
DEFAULT_255_1_388
10
6.0839224
20
100.3082358
40
0.2879689
50
265.1324455
51
270.0603288
0
ARC
8
DEFAULT_255_1_388
10
6.0871601
20
100.2717418
40
0.2514919
50
269.3314378
51
287.2180039
0
ARC
8
DEFAULT_255_1_388
10
6.1026683
20
100.2151291
40
0.1928357
50
287.7957942
51
329.0808983
0
ARC
8
DEFAULT_255_1_388
10
5.994944
20
100.2823651
40
0.319808
50
328.6635261
51
343.3325043
0
ARC
8
DEFAULT_255_1_388
10
5.7504899
20
100.3585195
40
0.5758408
50
343.0498092
51
351.9392499
0
ARC
8
DEFAULT_255_1_388
10
5.360422
20
100.4160205
40
0.9701202
50
351.8071632
51
357.7957897
0
ARC
8
DEFAULT_255_1_388
10
4.9969697
20
100.4348724
40
1.3340376
50
357.5870923
51
359.2682493
0
LINE
8
DEFAULT_255_1_388
10
23.1198856
20
108.617369
11
23.1198856
21
108.4005135
0
LINE
8
DEFAULT_255_1_388
10
22.2895099
20
108.3779244
11
22.2895099
21
108.6011048
0
LINE
8
DEFAULT_255_1_388
10
22.9527262
20
108.3553353
11
22.9527262
21
108.6291153
0
LINE
8
DEFAULT_255_1_388
10
22.4566693
20
108.6417652
11
22.4566693
21
108.3743102
0
ARC
8
DEFAULT_255_1_388
10
21.742119
20
108.3950118
40
1.3777776
50
353.8440855
51
0.2287917
0
ARC
8
DEFAULT_255_1_388
10
22.2640208
20
108.3367414
40
0.852639
50
344.4934746
51
353.9763743
0
ARC
8
DEFAULT_255_1_388
10
22.6007015
20
108.2410191
40
0.5026273
50
329.2803599
51
344.7473406
0
ARC
8
DEFAULT_255_1_388
10
22.7122511
20
108.1798038
40
0.3754848
50
324.9361395
51
328.6153007
0
ARC
8
DEFAULT_255_1_388
10
22.7548161
20
108.1500586
40
0.3235566
50
280.5801797
51
324.9173226
0
ARC
8
DEFAULT_255_1_388
10
22.7096789
20
108.3380236
40
0.5167077
50
269.5979457
51
281.6732777
0
ARC
8
DEFAULT_255_1_388
10
22.7015693
20
108.3245113
40
0.5032026
50
256.6228565
51
270.5105488
0
ARC
8
DEFAULT_255_1_388
10
22.6563435
20
108.1503345
40
0.3233092
50
215.8618351
51
257.2787793
0
ARC
8
DEFAULT_255_1_388
10
22.7712142
20
108.2274106
40
0.4615831
50
197.9695203
51
215.2622745
0
ARC
8
DEFAULT_255_1_388
10
23.0507818
20
108.3217641
40
0.7566307
50
187.8816486
51
198.2346584
0
ARC
8
DEFAULT_255_1_388
10
23.4961056
20
108.3860453
40
1.2065653
50
180.8977266
51
188.0054894
0
ARC
8
DEFAULT_255_1_388
10
23.801127
20
108.39754
40
1.5117443
50
180.7434591
51
181.152202
0
ARC
8
DEFAULT_255_1_388
10
23.6336266
20
108.6065371
40
1.3441277
50
173.7674302
51
180.2315596
0
ARC
8
DEFAULT_255_1_388
10
23.1254135
20
108.6639779
40
0.8326847
50
164.3058537
51
173.9000553
0
ARC
8
DEFAULT_255_1_388
10
22.7978135
20
108.7583652
40
0.4917711
50
148.7922028
51
164.5682288
0
ARC
8
DEFAULT_255_1_388
10
22.6908872
20
108.8180457
40
0.3694204
50
144.5883979
51
148.1161588
0
ARC
8
DEFAULT_255_1_388
10
22.6521618
20
108.8450667
40
0.322202
50
101.6440149
51
144.5142619
0
ARC
8
DEFAULT_255_1_388
10
22.699981
20
108.6550337
40
0.5180451
50
89.528284
51
102.5820197
0
ARC
8
DEFAULT_255_1_388
10
22.7088802
20
108.6506376
40
0.5224441
50
77.0437914
51
90.508231
0
ARC
8
DEFAULT_255_1_388
10
22.7541055
20
108.8354272
40
0.3322297
50
48.2777708
51
77.4996087
0
ARC
8
DEFAULT_255_1_388
10
22.7622795
20
108.8499557
40
0.315966
50
36.3141586
51
47.6307332
0
ARC
8
DEFAULT_255_1_388
10
22.6645518
20
108.7841159
40
0.4337313
50
18.2931065
51
35.6770203
0
ARC
8
DEFAULT_255_1_388
10
22.3784358
20
108.6859107
40
0.7362203
50
8.0246996
51
18.5605636
0
ARC
8
DEFAULT_255_1_388
10
21.9100714
20
108.6167432
40
1.2096583
50
1.127539
51
8.1718423
0
ARC
8
DEFAULT_255_1_388
10
21.5451847
20
108.6024374
40
1.5747719
50
0.5432713
51
1.38669
0
ARC
8
DEFAULT_255_1_388
10
21.7509226
20
108.6331163
40
1.2018103
50
359.8092569
51
4.9408001
0
ARC
8
DEFAULT_255_1_388
10
22.2245807
20
108.67539
40
0.7262727
50
4.8364937
51
12.2906017
0
ARC
8
DEFAULT_255_1_388
10
22.5345272
20
108.7444485
40
0.4087324
50
12.0806994
51
23.8171225
0
ARC
8
DEFAULT_255_1_388
10
22.6665668
20
108.8003508
40
0.2653719
50
24.2874621
51
31.3934353
0
ARC
8
DEFAULT_255_1_388
10
22.7256104
20
108.8389822
40
0.1948607
50
30.7407708
51
82.4658033
0
ARC
8
DEFAULT_255_1_388
10
22.7053765
20
108.7396017
40
0.2961198
50
81.1057101
51
90.2187368
0
ARC
8
DEFAULT_255_1_388
10
22.7013577
20
108.7686421
40
0.2670929
50
89.380395
51
105.6763916
0
ARC
8
DEFAULT_255_1_388
10
22.6807299
20
108.843632
40
0.1893189
50
105.7980655
51
149.7387869
0
ARC
8
DEFAULT_255_1_388
10
22.8004439
20
108.7716719
40
0.3289892
50
149.4208441
51
163.628295
0
ARC
8
DEFAULT_255_1_388
10
23.0356668
20
108.6999345
40
0.5749004
50
163.3764549
51
172.141138
0
ARC
8
DEFAULT_255_1_388
10
23.406939
20
108.6467582
40
0.9499585
50
172.0258462
51
178.0705453
0
ARC
8
DEFAULT_255_1_388
10
23.7490943
20
108.6305682
40
1.2924734
50
177.8639301
51
179.5036263
0
ARC
8
DEFAULT_255_1_388
10
23.6271961
20
108.3702151
40
1.170534
50
179.7995545
51
185.246089
0
ARC
8
DEFAULT_255_1_388
10
23.1723554
20
108.3271404
40
0.7136613
50
185.1411911
51
193.0082205
0
ARC
8
DEFAULT_255_1_388
10
22.8749815
20
108.2568441
40
0.4080987
50
192.7897338
51
205.2507384
0
ARC
8
DEFAULT_255_1_388
10
22.7572025
20
108.2042538
40
0.2791522
50
205.8001921
51
211.2545876
0
ARC
8
DEFAULT_255_1_388
10
22.6983564
20
108.1648132
40
0.2084074
50
210.3789935
51
238.4007996
0
ARC
8
DEFAULT_255_1_388
10
22.696165
20
108.1700786
40
0.2117943
50
239.6521916
51
265.9793852
0
ARC
8
DEFAULT_255_1_388
10
22.7057499
20
108.2457358
40
0.2879689
50
265.1324455
51
270.0603288
0
ARC
8
DEFAULT_255_1_388
10
22.7089876
20
108.2092418
40
0.2514919
50
269.3314378
51
287.2180039
0
ARC
8
DEFAULT_255_1_388
10
22.7244958
20
108.1526291
40
0.1928357
50
287.7957942
51
329.0808983
0
ARC
8
DEFAULT_255_1_388
10
22.6167715
20
108.2198651
40
0.319808
50
328.6635261
51
343.3325043
0
ARC
8
DEFAULT_255_1_388
10
22.3723174
20
108.2960195
40
0.5758408
50
343.0498092
51
351.9392499
0
ARC
8
DEFAULT_255_1_388
10
21.9822496
20
108.3535205
40
0.9701202
50
351.8071632
51
357.7957897
0
ARC
8
DEFAULT_255_1_388
10
21.6187973
20
108.3723724
40
1.3340376
50
357.5870923
51
359.2682493
0
LINE
8
DEFAULT_255_1_388
10
23.4388439
20
109.1549898
11
23.8129196
21
108.0698089
0
LINE
8
DEFAULT_255_1_388
10
23.8129196
20
108.0698089
11
24.1888024
21
109.1549898
0
LINE
8
DEFAULT_255_1_388
10
24.1888024
20
109.1549898
11
24.3785509
21
109.1549898
0
LINE
8
DEFAULT_255_1_388
10
24.3785509
20
109.1549898
11
23.8906261
21
107.8394
0
LINE
8
DEFAULT_255_1_388
10
23.8906261
20
107.8394
11
23.7370202
21
107.8394
0
LINE
8
DEFAULT_255_1_388
10
23.7370202
20
107.8394
11
23.2499989
21
109.1549898
0
LINE
8
DEFAULT_255_1_388
10
23.2499989
20
109.1549898
11
23.4388439
21
109.1549898
0
LINE
8
DEFAULT_255_1_388
10
22.2245637
20
20.5269
11
22.0989682
21
20.8702545
0
LINE
8
DEFAULT_255_1_388
10
22.0989682
20
20.8702545
11
21.5477939
21
20.8702545
0
LINE
8
DEFAULT_255_1_388
10
21.5477939
20
20.8702545
11
21.4240056
21
20.5269
0
LINE
8
DEFAULT_255_1_388
10
21.4240056
20
20.5269
11
21.2450998
21
20.5269
0
LINE
8
DEFAULT_255_1_388
10
21.2450998
20
20.5269
11
21.7474816
21
21.8424898
0
LINE
8
DEFAULT_255_1_388
10
21.7474816
20
21.8424898
11
21.8992805
21
21.8424898
0
LINE
8
DEFAULT_255_1_388
10
21.8992805
20
21.8424898
11
22.4025659
21
20.5269
0
LINE
8
DEFAULT_255_1_388
10
22.4025659
20
20.5269
11
22.2245637
21
20.5269
0
LINE
8
DEFAULT_255_1_388
10
21.8233811
20
21.6283451
11
21.6002006
21
21.0130177
0
LINE
8
DEFAULT_255_1_388
10
21.6002006
20
21.0130177
11
22.047465
21
21.0130177
0
LINE
8
DEFAULT_255_1_388
10
22.047465
20
21.0130177
11
21.8233811
21
21.6283451
0
LINE
8
DEFAULT_255_1_388
10
23.5817175
20
21.2253553
11
23.5817175
21
21.1422274
0
LINE
8
DEFAULT_255_1_388
10
22.5236435
20
21.1304811
11
22.5236435
21
21.2253553
0
LINE
8
DEFAULT_255_1_388
10
23.4091367
20
21.1295775
11
23.4091367
21
21.2271625
0
LINE
8
DEFAULT_255_1_388
10
22.6962243
20
21.2389088
11
22.6962243
21
21.1422274
0
ARC
8
DEFAULT_255_1_388
10
22.6094913
20
21.1377726
40
0.9722364
50
350.4878118
51
0.2625322
0
ARC
8
DEFAULT_255_1_388
10
22.8674873
20
21.0933994
40
0.7104556
50
336.0277991
51
350.5787241
0
ARC
8
DEFAULT_255_1_388
10
23.018798
20
21.0250243
40
0.544417
50
319.887443
51
336.1331163
0
ARC
8
DEFAULT_255_1_388
10
23.0865792
20
20.9707733
40
0.4576311
50
302.4806296
51
319.6144102
0
ARC
8
DEFAULT_255_1_388
10
23.0736413
20
20.9957067
40
0.4856183
50
275.8196423
51
302.1885521
0
ARC
8
DEFAULT_255_1_388
10
23.0549275
20
21.1242466
40
0.6154183
50
269.9169897
51
276.339506
0
ARC
8
DEFAULT_255_1_388
10
23.0498875
20
21.047068
40
0.5382553
50
252.5221437
51
270.441579
0
ARC
8
DEFAULT_255_1_388
10
23.0337126
20
20.9864046
40
0.4755426
50
237.5349961
51
252.1858334
0
ARC
8
DEFAULT_255_1_388
10
23.0437502
20
20.999212
40
0.4917393
50
209.0632754
51
237.3492577
0
ARC
8
DEFAULT_255_1_388
10
23.1416828
20
21.0607104
40
0.6072464
50
205.118533
51
209.6465345
0
ARC
8
DEFAULT_255_1_388
10
23.231283
20
21.0987174
40
0.7045164
50
188.7216633
51
204.8239753
0
ARC
8
DEFAULT_255_1_388
10
23.4559605
20
21.1365387
40
0.9323368
50
180.3722704
51
188.9253909
0
ARC
8
DEFAULT_255_1_388
10
23.4529167
20
21.2298416
40
0.929284
50
169.5253055
51
180.2766048
0
ARC
8
DEFAULT_255_1_388
10
23.2388966
20
21.2692024
40
0.7116745
50
155.8314601
51
169.5088611
0
ARC
8
DEFAULT_255_1_388
10
23.0948429
20
21.3360312
40
0.5528904
50
139.6259579
51
156.0379072
0
ARC
8
DEFAULT_255_1_388
10
23.0284963
20
21.3894143
40
0.4677708
50
122.6414784
51
139.3431662
0
ARC
8
DEFAULT_255_1_388
10
23.0398217
20
21.3687787
40
0.4912586
50
93.0224537
51
122.4556091
0
ARC
8
DEFAULT_255_1_388
10
23.0519738
20
21.2601776
40
0.6003837
50
89.9756766
51
93.6340839
0
ARC
8
DEFAULT_255_1_388
10
23.0563336
20
21.3050879
40
0.5554884
50
73.7463329
51
90.4234008
0
ARC
8
DEFAULT_255_1_388
10
23.0760809
20
21.3815772
40
0.4765353
50
57.663051
51
73.4516911
0
ARC
8
DEFAULT_255_1_388
10
23.0751847
20
21.3840108
40
0.4749629
50
29.1441355
51
57.4146687
0
ARC
8
DEFAULT_255_1_388
10
22.9699658
20
21.3183046
40
0.5988917
50
24.0985653
51
29.732054
0
ARC
8
DEFAULT_255_1_388
10
22.853729
20
21.2701154
40
0.7246823
50
8.6654943
51
23.8241215
0
ARC
8
DEFAULT_255_1_388
10
22.6023708
20
21.2291037
40
0.9793537
50
359.7807044
51
8.8218476
0
ARC
8
DEFAULT_255_1_388
10
22.4733413
20
21.2319731
40
0.9358078
50
359.7054632
51
8.0359751
0
ARC
8
DEFAULT_255_1_388
10
22.8108464
20
21.2811252
40
0.5947474
50
7.8926278
51
20.2962188
0
ARC
8
DEFAULT_255_1_388
10
22.9939314
20
21.3486367
40
0.3996117
50
20.3231056
51
36.4990255
0
ARC
8
DEFAULT_255_1_388
10
23.0710612
20
21.4080399
40
0.3022818
50
36.1436715
51
85.6627846
0
ARC
8
DEFAULT_255_1_388
10
23.0527867
20
21.2910881
40
0.4203853
50
84.3845912
51
90.076054
0
ARC
8
DEFAULT_255_1_388
10
23.0480222
20
21.3653416
40
0.346157
50
89.3037228
51
109.9046209
0
ARC
8
DEFAULT_255_1_388
10
23.0376055
20
21.4083379
40
0.3022217
50
110.8229774
51
143.917961
0
ARC
8
DEFAULT_255_1_388
10
23.1426414
20
21.3281455
40
0.434348
50
143.5289166
51
163.2980252
0
ARC
8
DEFAULT_255_1_388
10
23.3572701
20
21.2606685
40
0.659321
50
163.0418884
51
174.3139873
0
ARC
8
DEFAULT_255_1_388
10
23.6277666
20
21.2294378
40
0.9315905
50
174.050934
51
179.4174954
0
ARC
8
DEFAULT_255_1_388
10
23.570961
20
21.1375382
40
0.8747493
50
179.6928582
51
188.7908948
0
ARC
8
DEFAULT_255_1_388
10
23.271341
20
21.0896086
40
0.5713262
50
188.6328449
51
202.5630732
0
ARC
8
DEFAULT_255_1_388
10
23.1302247
20
21.0329142
40
0.4192612
50
202.8078931
51
216.1195888
0
ARC
8
DEFAULT_255_1_388
10
23.0391764
20
20.9596479
40
0.3025752
50
215.0755613
51
264.6379773
0
ARC
8
DEFAULT_255_1_388
10
23.0534601
20
21.0531376
40
0.3970284
50
263.8464302
51
270.0830805
0
ARC
8
DEFAULT_255_1_388
10
23.0581146
20
21.0240808
40
0.3679937
50
269.3649295
51
287.5149684
0
ARC
8
DEFAULT_255_1_388
10
23.0781587
20
20.9512714
40
0.2925408
50
288.0629019
51
323.8115617
0
ARC
8
DEFAULT_255_1_388
10
22.9801563
20
21.0243754
40
0.4148018
50
323.6546541
51
342.6591359
0
ARC
8
DEFAULT_255_1_388
10
22.7516221
20
21.098728
40
0.6551163
50
342.4092446
51
353.6451501
0
ARC
8
DEFAULT_255_1_388
10
22.4331014
20
21.1383565
40
0.9760748
50
353.4027553
51
359.4846611
0
LINE
8
DEFAULT_255_1_388
10
24.163613
20
21.1539737
11
24.163613
21
21.0175355
0
LINE
8
DEFAULT_255_1_388
10
24.163613
20
21.0175355
11
23.7226735
21
21.0175355
0
LINE
8
DEFAULT_255_1_388
10
23.7226735
20
21.0175355
11
23.7226735
21
21.1539737
0
LINE
8
DEFAULT_255_1_388
10
23.7226735
20
21.1539737
11
24.163613
21
21.1539737
0
LINE
8
DEFAULT_255_1_388
10
20.7841637
20
28.4644
11
20.6585682
21
28.8077545
0
LINE
8
DEFAULT_255_1_388
10
20.6585682
20
28.8077545
11
20.1073939
21
28.8077545
0
LINE
8
DEFAULT_255_1_388
10
20.1073939
20
28.8077545
11
19.9836056
21
28.4644
0
LINE
8
DEFAULT_255_1_388
10
19.9836056
20
28.4644
11
19.8046998
21
28.4644
0
LINE
8
DEFAULT_255_1_388
10
19.8046998
20
28.4644
11
20.3070816
21
29.7799898
0
LINE
8
DEFAULT_255_1_388
10
20.3070816
20
29.7799898
11
20.4588805
21
29.7799898
0
LINE
8
DEFAULT_255_1_388
10
20.4588805
20
29.7799898
11
20.9621659
21
28.4644
0
LINE
8
DEFAULT_255_1_388
10
20.9621659
20
28.4644
11
20.7841637
21
28.4644
0
LINE
8
DEFAULT_255_1_388
10
20.3829811
20
29.5658451
11
20.1598006
21
28.9505177
0
LINE
8
DEFAULT_255_1_388
10
20.1598006
20
28.9505177
11
20.607065
21
28.9505177
0
LINE
8
DEFAULT_255_1_388
10
20.607065
20
28.9505177
11
20.3829811
21
29.5658451
0
LINE
8
DEFAULT_255_1_388
10
22.1413175
20
29.1628553
11
22.1413175
21
29.0797274
0
LINE
8
DEFAULT_255_1_388
10
21.0832435
20
29.0679811
11
21.0832435
21
29.1628553
0
LINE
8
DEFAULT_255_1_388
10
21.9687367
20
29.0670775
11
21.9687367
21
29.1646625
0
LINE
8
DEFAULT_255_1_388
10
21.2558243
20
29.1764088
11
21.2558243
21
29.0797274
0
ARC
8
DEFAULT_255_1_388
10
21.1690913
20
29.0752726
40
0.9722364
50
350.4878118
51
0.2625322
0
ARC
8
DEFAULT_255_1_388
10
21.4270873
20
29.0308994
40
0.7104556
50
336.0277991
51
350.5787241
0
ARC
8
DEFAULT_255_1_388
10
21.578398
20
28.9625243
40
0.544417
50
319.887443
51
336.1331163
0
ARC
8
DEFAULT_255_1_388
10
21.6461792
20
28.9082733
40
0.4576311
50
302.4806296
51
319.6144102
0
ARC
8
DEFAULT_255_1_388
10
21.6332413
20
28.9332067
40
0.4856183
50
275.8196423
51
302.1885521
0
ARC
8
DEFAULT_255_1_388
10
21.6145275
20
29.0617466
40
0.6154183
50
269.9169897
51
276.339506
0
ARC
8
DEFAULT_255_1_388
10
21.6094875
20
28.984568
40
0.5382553
50
252.5221437
51
270.441579
0
ARC
8
DEFAULT_255_1_388
10
21.5933126
20
28.9239046
40
0.4755426
50
237.5349961
51
252.1858334
0
ARC
8
DEFAULT_255_1_388
10
21.6033502
20
28.936712
40
0.4917393
50
209.0632754
51
237.3492577
0
ARC
8
DEFAULT_255_1_388
10
21.7012828
20
28.9982104
40
0.6072464
50
205.118533
51
209.6465345
0
ARC
8
DEFAULT_255_1_388
10
21.790883
20
29.0362174
40
0.7045164
50
188.7216633
51
204.8239753
0
ARC
8
DEFAULT_255_1_388
10
22.0155605
20
29.0740387
40
0.9323368
50
180.3722704
51
188.9253909
0
ARC
8
DEFAULT_255_1_388
10
22.0125167
20
29.1673416
40
0.929284
50
169.5253055
51
180.2766048
0
ARC
8
DEFAULT_255_1_388
10
21.7984966
20
29.2067024
40
0.7116745
50
155.8314601
51
169.5088611
0
ARC
8
DEFAULT_255_1_388
10
21.6544429
20
29.2735312
40
0.5528904
50
139.6259579
51
156.0379072
0
ARC
8
DEFAULT_255_1_388
10
21.5880963
20
29.3269143
40
0.4677708
50
122.6414784
51
139.3431662
0
ARC
8
DEFAULT_255_1_388
10
21.5994217
20
29.3062787
40
0.4912586
50
93.0224537
51
122.4556091
0
ARC
8
DEFAULT_255_1_388
10
21.6115738
20
29.1976776
40
0.6003837
50
89.9756766
51
93.6340839
0
ARC
8
DEFAULT_255_1_388
10
21.6159336
20
29.2425879
40
0.5554884
50
73.7463329
51
90.4234008
0
ARC
8
DEFAULT_255_1_388
10
21.6356809
20
29.3190772
40
0.4765353
50
57.663051
51
73.4516911
0
ARC
8
DEFAULT_255_1_388
10
21.6347847
20
29.3215108
40
0.4749629
50
29.1441355
51
57.4146687
0
ARC
8
DEFAULT_255_1_388
10
21.5295658
20
29.2558046
40
0.5988917
50
24.0985653
51
29.732054
0
ARC
8
DEFAULT_255_1_388
10
21.413329
20
29.2076154
40
0.7246823
50
8.6654943
51
23.8241215
0
ARC
8
DEFAULT_255_1_388
10
21.1619708
20
29.1666037
40
0.9793537
50
359.7807044
51
8.8218476
0
ARC
8
DEFAULT_255_1_388
10
21.0329413
20
29.1694731
40
0.9358078
50
359.7054632
51
8.0359751
0
ARC
8
DEFAULT_255_1_388
10
21.3704464
20
29.2186252
40
0.5947474
50
7.8926278
51
20.2962188
0
ARC
8
DEFAULT_255_1_388
10
21.5535314
20
29.2861367
40
0.3996117
50
20.3231056
51
36.4990255
0
ARC
8
DEFAULT_255_1_388
10
21.6306612
20
29.3455399
40
0.3022818
50
36.1436715
51
85.6627846
0
ARC
8
DEFAULT_255_1_388
10
21.6123867
20
29.2285881
40
0.4203853
50
84.3845912
51
90.076054
0
ARC
8
DEFAULT_255_1_388
10
21.6076222
20
29.3028416
40
0.346157
50
89.3037228
51
109.9046209
0
ARC
8
DEFAULT_255_1_388
10
21.5972055
20
29.3458379
40
0.3022217
50
110.8229774
51
143.917961
0
ARC
8
DEFAULT_255_1_388
10
21.7022414
20
29.2656455
40
0.434348
50
143.5289166
51
163.2980252
0
ARC
8
DEFAULT_255_1_388
10
21.9168701
20
29.1981685
40
0.659321
50
163.0418884
51
174.3139873
0
ARC
8
DEFAULT_255_1_388
10
22.1873666
20
29.1669378
40
0.9315905
50
174.050934
51
179.4174954
0
ARC
8
DEFAULT_255_1_388
10
22.130561
20
29.0750382
40
0.8747493
50
179.6928582
51
188.7908948
0
ARC
8
DEFAULT_255_1_388
10
21.830941
20
29.0271086
40
0.5713262
50
188.6328449
51
202.5630732
0
ARC
8
DEFAULT_255_1_388
10
21.6898247
20
28.9704142
40
0.4192612
50
202.8078931
51
216.1195888
0
ARC
8
DEFAULT_255_1_388
10
21.5987764
20
28.8971479
40
0.3025752
50
215.0755613
51
264.6379773
0
ARC
8
DEFAULT_255_1_388
10
21.6130601
20
28.9906376
40
0.3970284
50
263.8464302
51
270.0830805
0
ARC
8
DEFAULT_255_1_388
10
21.6177146
20
28.9615808
40
0.3679937
50
269.3649295
51
287.5149684
0
ARC
8
DEFAULT_255_1_388
10
21.6377587
20
28.8887714
40
0.2925408
50
288.0629019
51
323.8115617
0
ARC
8
DEFAULT_255_1_388
10
21.5397563
20
28.9618754
40
0.4148018
50
323.6546541
51
342.6591359
0
ARC
8
DEFAULT_255_1_388
10
21.3112221
20
29.036228
40
0.6551163
50
342.4092446
51
353.6451501
0
ARC
8
DEFAULT_255_1_388
10
20.9927014
20
29.0758565
40
0.9760748
50
353.4027553
51
359.4846611
0
LINE
8
DEFAULT_255_1_388
10
22.9075401
20
29.7863148
11
22.9075401
21
28.4644
0
LINE
8
DEFAULT_255_1_388
10
22.9075401
20
28.4644
11
22.7394771
21
28.4644
0
LINE
8
DEFAULT_255_1_388
10
22.7394771
20
28.4644
11
22.7394771
21
29.578495
0
LINE
8
DEFAULT_255_1_388
10
22.7394771
20
29.578495
11
22.4024476
21
29.4547066
0
LINE
8
DEFAULT_255_1_388
10
22.4024476
20
29.4547066
11
22.4024476
21
29.6065055
0
LINE
8
DEFAULT_255_1_388
10
22.4024476
20
29.6065055
11
22.8813368
21
29.7863148
0
LINE
8
DEFAULT_255_1_388
10
22.8813368
20
29.7863148
11
22.9075401
21
29.7863148
0
LINE
8
DEFAULT_255_1_388
10
23.893329
20
29.5540987
11
23.893329
21
29.1700838
0
LINE
8
DEFAULT_255_1_388
10
23.893329
20
29.1700838
11
24.2601761
21
29.1700838
0
LINE
8
DEFAULT_255_1_388
10
24.2601761
20
29.1700838
11
24.2601761
21
29.0119601
0
LINE
8
DEFAULT_255_1_388
10
24.2601761
20
29.0119601
11
23.893329
21
29.0119601
0
LINE
8
DEFAULT_255_1_388
10
23.893329
20
29.0119601
11
23.893329
21
28.5963204
0
LINE
8
DEFAULT_255_1_388
10
23.893329
20
28.5963204
11
23.725266
21
28.5963204
0
LINE
8
DEFAULT_255_1_388
10
23.725266
20
28.5963204
11
23.725266
21
29.0119601
0
LINE
8
DEFAULT_255_1_388
10
23.725266
20
29.0119601
11
23.3584188
21
29.0119601
0
LINE
8
DEFAULT_255_1_388
10
23.3584188
20
29.0119601
11
23.3584188
21
29.1700838
0
LINE
8
DEFAULT_255_1_388
10
23.3584188
20
29.1700838
11
23.725266
21
29.1700838
0
LINE
8
DEFAULT_255_1_388
10
23.725266
20
29.1700838
11
23.725266
21
29.5540987
0
LINE
8
DEFAULT_255_1_388
10
23.725266
20
29.5540987
11
23.893329
21
29.5540987
0
LINE
8
DEFAULT_255_1_388
10
20.7841637
20
36.4019
11
20.6585682
21
36.7452545
0
LINE
8
DEFAULT_255_1_388
10
20.6585682
20
36.7452545
11
20.1073939
21
36.7452545
0
LINE
8
DEFAULT_255_1_388
10
20.1073939
20
36.7452545
11
19.9836056
21
36.4019
0
LINE
8
DEFAULT_255_1_388
10
19.9836056
20
36.4019
11
19.8046998
21
36.4019
0
LINE
8
DEFAULT_255_1_388
10
19.8046998
20
36.4019
11
20.3070816
21
37.7174898
0
LINE
8
DEFAULT_255_1_388
10
20.3070816
20
37.7174898
11
20.4588805
21
37.7174898
0
LINE
8
DEFAULT_255_1_388
10
20.4588805
20
37.7174898
11
20.9621659
21
36.4019
0
LINE
8
DEFAULT_255_1_388
10
20.9621659
20
36.4019
11
20.7841637
21
36.4019
0
LINE
8
DEFAULT_255_1_388
10
20.3829811
20
37.5033451
11
20.1598006
21
36.8880177
0
LINE
8
DEFAULT_255_1_388
10
20.1598006
20
36.8880177
11
20.607065
21
36.8880177
0
LINE
8
DEFAULT_255_1_388
10
20.607065
20
36.8880177
11
20.3829811
21
37.5033451
0
LINE
8
DEFAULT_255_1_388
10
22.1413175
20
37.1003553
11
22.1413175
21
37.0172274
0
LINE
8
DEFAULT_255_1_388
10
21.0832435
20
37.0054811
11
21.0832435
21
37.1003553
0
LINE
8
DEFAULT_255_1_388
10
21.9687367
20
37.0045775
11
21.9687367
21
37.1021625
0
LINE
8
DEFAULT_255_1_388
10
21.2558243
20
37.1139088
11
21.2558243
21
37.0172274
0
ARC
8
DEFAULT_255_1_388
10
21.1690913
20
37.0127726
40
0.9722364
50
350.4878118
51
0.2625322
0
ARC
8
DEFAULT_255_1_388
10
21.4270873
20
36.9683994
40
0.7104556
50
336.0277991
51
350.5787241
0
ARC
8
DEFAULT_255_1_388
10
21.578398
20
36.9000243
40
0.544417
50
319.887443
51
336.1331163
0
ARC
8
DEFAULT_255_1_388
10
21.6461792
20
36.8457733
40
0.4576311
50
302.4806296
51
319.6144102
0
ARC
8
DEFAULT_255_1_388
10
21.6332413
20
36.8707067
40
0.4856183
50
275.8196423
51
302.1885521
0
ARC
8
DEFAULT_255_1_388
10
21.6145275
20
36.9992466
40
0.6154183
50
269.9169897
51
276.339506
0
ARC
8
DEFAULT_255_1_388
10
21.6094875
20
36.922068
40
0.5382553
50
252.5221437
51
270.441579
0
ARC
8
DEFAULT_255_1_388
10
21.5933126
20
36.8614046
40
0.4755426
50
237.5349961
51
252.1858334
0
ARC
8
DEFAULT_255_1_388
10
21.6033502
20
36.874212
40
0.4917393
50
209.0632754
51
237.3492577
0
ARC
8
DEFAULT_255_1_388
10
21.7012828
20
36.9357104
40
0.6072464
50
205.118533
51
209.6465345
0
ARC
8
DEFAULT_255_1_388
10
21.790883
20
36.9737174
40
0.7045164
50
188.7216633
51
204.8239753
0
ARC
8
DEFAULT_255_1_388
10
22.0155605
20
37.0115387
40
0.9323368
50
180.3722704
51
188.9253909
0
ARC
8
DEFAULT_255_1_388
10
22.0125167
20
37.1048416
40
0.929284
50
169.5253055
51
180.2766048
0
ARC
8
DEFAULT_255_1_388
10
21.7984966
20
37.1442024
40
0.7116745
50
155.8314601
51
169.5088611
0
ARC
8
DEFAULT_255_1_388
10
21.6544429
20
37.2110312
40
0.5528904
50
139.6259579
51
156.0379072
0
ARC
8
DEFAULT_255_1_388
10
21.5880963
20
37.2644143
40
0.4677708
50
122.6414784
51
139.3431662
0
ARC
8
DEFAULT_255_1_388
10
21.5994217
20
37.2437787
40
0.4912586
50
93.0224537
51
122.4556091
0
ARC
8
DEFAULT_255_1_388
10
21.6115738
20
37.1351776
40
0.6003837
50
89.9756766
51
93.6340839
0
ARC
8
DEFAULT_255_1_388
10
21.6159336
20
37.1800879
40
0.5554884
50
73.7463329
51
90.4234008
0
ARC
8
DEFAULT_255_1_388
10
21.6356809
20
37.2565772
40
0.4765353
50
57.663051
51
73.4516911
0
ARC
8
DEFAULT_255_1_388
10
21.6347847
20
37.2590108
40
0.4749629
50
29.1441355
51
57.4146687
0
ARC
8
DEFAULT_255_1_388
10
21.5295658
20
37.1933046
40
0.5988917
50
24.0985653
51
29.732054
0
ARC
8
DEFAULT_255_1_388
10
21.413329
20
37.1451154
40
0.7246823
50
8.6654943
51
23.8241215
0
ARC
8
DEFAULT_255_1_388
10
21.1619708
20
37.1041037
40
0.9793537
50
359.7807044
51
8.8218476
0
ARC
8
DEFAULT_255_1_388
10
21.0329413
20
37.1069731
40
0.9358078
50
359.7054632
51
8.0359751
0
ARC
8
DEFAULT_255_1_388
10
21.3704464
20
37.1561252
40
0.5947474
50
7.8926278
51
20.2962188
0
ARC
8
DEFAULT_255_1_388
10
21.5535314
20
37.2236367
40
0.3996117
50
20.3231056
51
36.4990255
0
ARC
8
DEFAULT_255_1_388
10
21.6306612
20
37.2830399
40
0.3022818
50
36.1436715
51
85.6627846
0
ARC
8
DEFAULT_255_1_388
10
21.6123867
20
37.1660881
40
0.4203853
50
84.3845912
51
90.076054
0
ARC
8
DEFAULT_255_1_388
10
21.6076222
20
37.2403416
40
0.346157
50
89.3037228
51
109.9046209
0
ARC
8
DEFAULT_255_1_388
10
21.5972055
20
37.2833379
40
0.3022217
50
110.8229774
51
143.917961
0
ARC
8
DEFAULT_255_1_388
10
21.7022414
20
37.2031455
40
0.434348
50
143.5289166
51
163.2980252
0
ARC
8
DEFAULT_255_1_388
10
21.9168701
20
37.1356685
40
0.659321
50
163.0418884
51
174.3139873
0
ARC
8
DEFAULT_255_1_388
10
22.1873666
20
37.1044378
40
0.9315905
50
174.050934
51
179.4174954
0
ARC
8
DEFAULT_255_1_388
10
22.130561
20
37.0125382
40
0.8747493
50
179.6928582
51
188.7908948
0
ARC
8
DEFAULT_255_1_388
10
21.830941
20
36.9646086
40
0.5713262
50
188.6328449
51
202.5630732
0
ARC
8
DEFAULT_255_1_388
10
21.6898247
20
36.9079142
40
0.4192612
50
202.8078931
51
216.1195888
0
ARC
8
DEFAULT_255_1_388
10
21.5987764
20
36.8346479
40
0.3025752
50
215.0755613
51
264.6379773
0
ARC
8
DEFAULT_255_1_388
10
21.6130601
20
36.9281376
40
0.3970284
50
263.8464302
51
270.0830805
0
ARC
8
DEFAULT_255_1_388
10
21.6177146
20
36.8990808
40
0.3679937
50
269.3649295
51
287.5149684
0
ARC
8
DEFAULT_255_1_388
10
21.6377587
20
36.8262714
40
0.2925408
50
288.0629019
51
323.8115617
0
ARC
8
DEFAULT_255_1_388
10
21.5397563
20
36.8993754
40
0.4148018
50
323.6546541
51
342.6591359
0
ARC
8
DEFAULT_255_1_388
10
21.3112221
20
36.973728
40
0.6551163
50
342.4092446
51
353.6451501
0
ARC
8
DEFAULT_255_1_388
10
20.9927014
20
37.0133565
40
0.9760748
50
353.4027553
51
359.4846611
0
LINE
8
DEFAULT_255_1_388
10
23.1831273
20
37.179869
11
23.1831273
21
36.9630135
0
LINE
8
DEFAULT_255_1_388
10
22.3527516
20
36.9404244
11
22.3527516
21
37.1636048
0
LINE
8
DEFAULT_255_1_388
10
23.0159679
20
36.9178353
11
23.0159679
21
37.1916153
0
LINE
8
DEFAULT_255_1_388
10
22.519911
20
37.2042652
11
22.519911
21
36.9368102
0
ARC
8
DEFAULT_255_1_388
10
21.8053607
20
36.9575118
40
1.3777776
50
353.8440855
51
0.2287917
0
ARC
8
DEFAULT_255_1_388
10
22.3272624
20
36.8992414
40
0.852639
50
344.4934746
51
353.9763743
0
ARC
8
DEFAULT_255_1_388
10
22.6639432
20
36.8035191
40
0.5026273
50
329.2803599
51
344.7473406
0
ARC
8
DEFAULT_255_1_388
10
22.7754927
20
36.7423038
40
0.3754848
50
324.9361395
51
328.6153007
0
ARC
8
DEFAULT_255_1_388
10
22.8180577
20
36.7125586
40
0.3235566
50
280.5801797
51
324.9173226
0
ARC
8
DEFAULT_255_1_388
10
22.7729206
20
36.9005236
40
0.5167077
50
269.5979457
51
281.6732777
0
ARC
8
DEFAULT_255_1_388
10
22.7648109
20
36.8870113
40
0.5032026
50
256.6228565
51
270.5105488
0
ARC
8
DEFAULT_255_1_388
10
22.7195852
20
36.7128345
40
0.3233092
50
215.8618351
51
257.2787793
0
ARC
8
DEFAULT_255_1_388
10
22.8344559
20
36.7899106
40
0.4615831
50
197.9695203
51
215.2622745
0
ARC
8
DEFAULT_255_1_388
10
23.1140235
20
36.8842641
40
0.7566307
50
187.8816486
51
198.2346584
0
ARC
8
DEFAULT_255_1_388
10
23.5593473
20
36.9485453
40
1.2065653
50
180.8977266
51
188.0054894
0
ARC
8
DEFAULT_255_1_388
10
23.8643687
20
36.96004
40
1.5117443
50
180.7434591
51
181.152202
0
ARC
8
DEFAULT_255_1_388
10
23.6968682
20
37.1690371
40
1.3441277
50
173.7674302
51
180.2315596
0
ARC
8
DEFAULT_255_1_388
10
23.1886551
20
37.2264779
40
0.8326847
50
164.3058537
51
173.9000553
0
ARC
8
DEFAULT_255_1_388
10
22.8610551
20
37.3208652
40
0.4917711
50
148.7922028
51
164.5682288
0
ARC
8
DEFAULT_255_1_388
10
22.7541289
20
37.3805457
40
0.3694204
50
144.5883979
51
148.1161588
0
ARC
8
DEFAULT_255_1_388
10
22.7154034
20
37.4075667
40
0.322202
50
101.6440149
51
144.5142619
0
ARC
8
DEFAULT_255_1_388
10
22.7632226
20
37.2175337
40
0.5180451
50
89.528284
51
102.5820197
0
ARC
8
DEFAULT_255_1_388
10
22.7721218
20
37.2131376
40
0.5224441
50
77.0437914
51
90.508231
0
ARC
8
DEFAULT_255_1_388
10
22.8173472
20
37.3979272
40
0.3322297
50
48.2777708
51
77.4996087
0
ARC
8
DEFAULT_255_1_388
10
22.8255212
20
37.4124557
40
0.315966
50
36.3141586
51
47.6307332
0
ARC
8
DEFAULT_255_1_388
10
22.7277934
20
37.3466159
40
0.4337313
50
18.2931065
51
35.6770203
0
ARC
8
DEFAULT_255_1_388
10
22.4416775
20
37.2484107
40
0.7362203
50
8.0246996
51
18.5605636
0
ARC
8
DEFAULT_255_1_388
10
21.973313
20
37.1792432
40
1.2096583
50
1.127539
51
8.1718423
0
ARC
8
DEFAULT_255_1_388
10
21.6084264
20
37.1649374
40
1.5747719
50
0.5432713
51
1.38669
0
ARC
8
DEFAULT_255_1_388
10
21.8141643
20
37.1956163
40
1.2018103
50
359.8092569
51
4.9408001
0
ARC
8
DEFAULT_255_1_388
10
22.2878224
20
37.23789
40
0.7262727
50
4.8364937
51
12.2906017
0
ARC
8
DEFAULT_255_1_388
10
22.5977689
20
37.3069485
40
0.4087324
50
12.0806994
51
23.8171225
0
ARC
8
DEFAULT_255_1_388
10
22.7298085
20
37.3628508
40
0.2653719
50
24.2874621
51
31.3934353
0
ARC
8
DEFAULT_255_1_388
10
22.788852
20
37.4014822
40
0.1948607
50
30.7407708
51
82.4658033
0
ARC
8
DEFAULT_255_1_388
10
22.7686181
20
37.3021017
40
0.2961198
50
81.1057101
51
90.2187368
0
ARC
8
DEFAULT_255_1_388
10
22.7645993
20
37.3311421
40
0.2670929
50
89.380395
51
105.6763916
0
ARC
8
DEFAULT_255_1_388
10
22.7439715
20
37.406132
40
0.1893189
50
105.7980655
51
149.7387869
0
ARC
8
DEFAULT_255_1_388
10
22.8636855
20
37.3341719
40
0.3289892
50
149.4208441
51
163.628295
0
ARC
8
DEFAULT_255_1_388
10
23.0989085
20
37.2624345
40
0.5749004
50
163.3764549
51
172.141138
0
ARC
8
DEFAULT_255_1_388
10
23.4701806
20
37.2092582
40
0.9499585
50
172.0258462
51
178.0705453
0
ARC
8
DEFAULT_255_1_388
10
23.8123359
20
37.1930682
40
1.2924734
50
177.8639301
51
179.5036263
0
ARC
8
DEFAULT_255_1_388
10
23.6904378
20
36.9327151
40
1.170534
50
179.7995545
51
185.246089
0
ARC
8
DEFAULT_255_1_388
10
23.2355971
20
36.8896404
40
0.7136613
50
185.1411911
51
193.0082205
0
ARC
8
DEFAULT_255_1_388
10
22.9382232
20
36.8193441
40
0.4080987
50
192.7897338
51
205.2507384
0
ARC
8
DEFAULT_255_1_388
10
22.8204442
20
36.7667538
40
0.2791522
50
205.8001921
51
211.2545876
0
ARC
8
DEFAULT_255_1_388
10
22.7615981
20
36.7273132
40
0.2084074
50
210.3789935
51
238.4007996
0
ARC
8
DEFAULT_255_1_388
10
22.7594067
20
36.7325786
40
0.2117943
50
239.6521916
51
265.9793852
0
ARC
8
DEFAULT_255_1_388
10
22.7689916
20
36.8082358
40
0.2879689
50
265.1324455
51
270.0603288
0
ARC
8
DEFAULT_255_1_388
10
22.7722293
20
36.7717418
40
0.2514919
50
269.3314378
51
287.2180039
0
ARC
8
DEFAULT_255_1_388
10
22.7877375
20
36.7151291
40
0.1928357
50
287.7957942
51
329.0808983
0
ARC
8
DEFAULT_255_1_388
10
22.6800132
20
36.7823651
40
0.319808
50
328.6635261
51
343.3325043
0
ARC
8
DEFAULT_255_1_388
10
22.4355591
20
36.8585195
40
0.5758408
50
343.0498092
51
351.9392499
0
ARC
8
DEFAULT_255_1_388
10
22.0454912
20
36.9160205
40
0.9701202
50
351.8071632
51
357.7957897
0
ARC
8
DEFAULT_255_1_388
10
21.6820389
20
36.9348724
40
1.3340376
50
357.5870923
51
359.2682493
0
LINE
8
DEFAULT_255_1_388
10
23.893329
20
37.4915987
11
23.893329
21
37.1075838
0
LINE
8
DEFAULT_255_1_388
10
23.893329
20
37.1075838
11
24.2601761
21
37.1075838
0
LINE
8
DEFAULT_255_1_388
10
24.2601761
20
37.1075838
11
24.2601761
21
36.9494601
0
LINE
8
DEFAULT_255_1_388
10
24.2601761
20
36.9494601
11
23.893329
21
36.9494601
0
LINE
8
DEFAULT_255_1_388
10
23.893329
20
36.9494601
11
23.893329
21
36.5338204
0
LINE
8
DEFAULT_255_1_388
10
23.893329
20
36.5338204
11
23.725266
21
36.5338204
0
LINE
8
DEFAULT_255_1_388
10
23.725266
20
36.5338204
11
23.725266
21
36.9494601
0
LINE
8
DEFAULT_255_1_388
10
23.725266
20
36.9494601
11
23.3584188
21
36.9494601
0
LINE
8
DEFAULT_255_1_388
10
23.3584188
20
36.9494601
11
23.3584188
21
37.1075838
0
LINE
8
DEFAULT_255_1_388
10
23.3584188
20
37.1075838
11
23.725266
21
37.1075838
0
LINE
8
DEFAULT_255_1_388
10
23.725266
20
37.1075838
11
23.725266
21
37.4915987
0
LINE
8
DEFAULT_255_1_388
10
23.725266
20
37.4915987
11
23.893329
21
37.4915987
0
LINE
8
DEFAULT_255_1_388
10
21.5246389
20
44.3394
11
21.1605024
21
44.3394
0
LINE
8
DEFAULT_255_1_388
10
21.1605024
20
44.3394
11
21.1605024
21
45.6549898
0
LINE
8
DEFAULT_255_1_388
10
21.1605024
20
45.6549898
11
21.5318674
21
45.6549898
0
LINE
8
DEFAULT_255_1_388
10
22.1119558
20
45.0414696
11
22.1119558
21
44.9574381
0
LINE
8
DEFAULT_255_1_388
10
21.5363852
20
45.5122267
11
21.3339868
21
45.5122267
0
LINE
8
DEFAULT_255_1_388
10
21.3339868
20
45.5122267
11
21.3339868
21
44.4812596
0
LINE
8
DEFAULT_255_1_388
10
21.3339868
20
44.4812596
11
21.5165068
21
44.4812596
0
LINE
8
DEFAULT_255_1_388
10
21.9402785
20
44.9610523
11
21.9402785
21
45.0378553
0
ARC
8
DEFAULT_255_1_388
10
21.5362469
20
44.9951436
40
0.6598608
50
75.4100343
51
90.3802731
0
ARC
8
DEFAULT_255_1_388
10
21.5620714
20
45.1027691
40
0.5492049
50
60.1455157
51
75.1889627
0
ARC
8
DEFAULT_255_1_388
10
21.5799306
20
45.1338914
40
0.5133226
50
26.525419
51
60.1451222
0
ARC
8
DEFAULT_255_1_388
10
21.4539092
20
45.0670642
40
0.6559324
50
7.4029944
51
26.832209
0
ARC
8
DEFAULT_255_1_388
10
21.2745489
20
45.0391229
40
0.8374103
50
0.1605597
51
7.7176135
0
ARC
8
DEFAULT_255_1_388
10
21.2929889
20
44.9531321
40
0.8189782
50
348.7289744
51
0.30125
0
ARC
8
DEFAULT_255_1_388
10
21.4793353
20
44.9161156
40
0.628991
50
333.0706936
51
348.7181455
0
ARC
8
DEFAULT_255_1_388
10
21.5880981
20
44.8570449
40
0.5052808
50
299.2531435
51
333.4571133
0
ARC
8
DEFAULT_255_1_388
10
21.5475012
20
44.9341629
40
0.5924066
50
278.1072193
51
299.0340218
0
ARC
8
DEFAULT_255_1_388
10
21.5187061
20
45.1037979
40
0.7644209
50
270.4446841
51
278.4508355
0
ARC
8
DEFAULT_255_1_388
10
21.5210545
20
44.99923
40
0.5179903
50
269.4969684
51
284.0204874
0
ARC
8
DEFAULT_255_1_388
10
21.5610263
20
44.8456415
40
0.3592968
50
283.7699076
51
318.1557121
0
ARC
8
DEFAULT_255_1_388
10
21.5230808
20
44.8740399
40
0.4065308
50
318.7417595
51
343.687252
0
ARC
8
DEFAULT_255_1_388
10
21.3201387
20
44.9374275
40
0.6191194
50
343.3324891
51
355.8548594
0
ARC
8
DEFAULT_255_1_388
10
21.0840424
20
44.9598719
40
0.856237
50
355.4988754
51
0.0789913
0
ARC
8
DEFAULT_255_1_388
10
21.1721224
20
45.042608
40
0.7681709
50
359.6455047
51
9.8607559
0
ARC
8
DEFAULT_255_1_388
10
21.4376947
20
45.0905664
40
0.498312
50
9.6573037
51
26.1931522
0
ARC
8
DEFAULT_255_1_388
10
21.5421022
20
45.1390587
40
0.3832303
50
26.5777895
51
40.1533752
0
ARC
8
DEFAULT_255_1_388
10
21.5708687
20
45.161502
40
0.3467742
50
40.3839958
51
80.1430923
0
ARC
8
DEFAULT_255_1_388
10
21.5340942
20
44.9984486
40
0.5137832
50
79.2153636
51
89.7445174
0
LINE
8
DEFAULT_255_1_388
10
23.167319
20
44.7568468
11
23.341707
21
44.7568468
0
LINE
8
DEFAULT_255_1_388
10
22.3288112
20
44.9357525
11
22.3288112
21
45.0622516
0
LINE
8
DEFAULT_255_1_388
10
23.341707
20
45.2321217
11
23.167319
21
45.2321217
0
LINE
8
DEFAULT_255_1_388
10
22.5031992
20
45.0577337
11
22.5031992
21
44.9303312
0
ARC
8
DEFAULT_255_1_388
10
22.7251304
20
44.8240329
40
0.6202263
50
340.1774904
51
353.7812217
0
ARC
8
DEFAULT_255_1_388
10
22.9019157
20
44.7581893
40
0.4315926
50
311.4560052
51
340.4420756
0
ARC
8
DEFAULT_255_1_388
10
22.8981696
20
44.7706665
40
0.4434573
50
282.4332229
51
310.7514507
0
ARC
8
DEFAULT_255_1_388
10
22.8487514
20
44.9748703
40
0.6535262
50
269.9358869
51
282.8096729
0
ARC
8
DEFAULT_255_1_388
10
22.8429454
20
45.1261329
40
0.8048043
50
269.9995752
51
270.3612856
0
ARC
8
DEFAULT_255_1_388
10
22.8369944
20
44.8462781
40
0.5249831
50
250.7885263
51
270.6488451
0
ARC
8
DEFAULT_255_1_388
10
22.8180768
20
44.7745853
40
0.4510942
50
219.3628377
51
250.0611024
0
ARC
8
DEFAULT_255_1_388
10
22.9113643
20
44.8538653
40
0.5735046
50
193.5480293
51
219.5755675
0
ARC
8
DEFAULT_255_1_388
10
23.1781852
20
44.923152
40
0.849146
50
181.1220183
51
193.8754971
0
ARC
8
DEFAULT_255_1_388
10
23.4105085
20
44.9355914
40
1.0816971
50
179.9914644
51
181.5398227
0
ARC
8
DEFAULT_255_1_388
10
23.2028395
20
45.0664586
40
0.8740384
50
169.5837606
51
180.275782
0
ARC
8
DEFAULT_255_1_388
10
22.9961743
20
45.1046439
40
0.6638751
50
155.0367033
51
169.6002779
0
ARC
8
DEFAULT_255_1_388
10
22.8684202
20
45.1662336
40
0.5220662
50
136.7831557
51
155.2472983
0
ARC
8
DEFAULT_255_1_388
10
22.8245992
20
45.2034577
40
0.4646502
50
121.7633063
51
136.4281161
0
ARC
8
DEFAULT_255_1_388
10
22.8397832
20
45.1754049
40
0.4964979
50
95.6460018
51
121.5489589
0
ARC
8
DEFAULT_255_1_388
10
22.8574807
20
45.0506704
40
0.6223912
50
89.9245727
51
96.1375919
0
ARC
8
DEFAULT_255_1_388
10
22.8631512
20
45.0640721
40
0.6090084
50
76.6779212
51
90.456405
0
ARC
8
DEFAULT_255_1_388
10
22.9074324
20
45.243006
40
0.42469
50
47.4858803
51
76.9287069
0
ARC
8
DEFAULT_255_1_388
10
22.8908938
20
45.2317623
40
0.4441778
50
16.5424081
51
46.8934505
0
ARC
8
DEFAULT_255_1_388
10
22.7099988
20
45.1723265
40
0.6345318
50
5.4072971
51
17.0363711
0
ARC
8
DEFAULT_255_1_388
10
22.5481713
20
45.1463304
40
0.6250632
50
7.8888693
51
15.9242022
0
ARC
8
DEFAULT_255_1_388
10
22.7716699
20
45.2112309
40
0.3923364
50
15.7650676
51
27.9410069
0
ARC
8
DEFAULT_255_1_388
10
22.8958868
20
45.2777317
40
0.2514401
50
27.8167196
51
46.4007942
0
ARC
8
DEFAULT_255_1_388
10
22.9014709
20
45.2770882
40
0.2480958
50
47.4372362
51
75.0695672
0
ARC
8
DEFAULT_255_1_388
10
22.8667545
20
45.1562277
40
0.3738281
50
74.7009379
51
87.8124314
0
ARC
8
DEFAULT_255_1_388
10
22.8585162
20
45.0378659
40
0.4924321
50
87.3802571
51
90.0251599
0
ARC
8
DEFAULT_255_1_388
10
22.854181
20
45.1698997
40
0.3604218
50
89.3451886
51
108.5744412
0
ARC
8
DEFAULT_255_1_388
10
22.8387802
20
45.2276836
40
0.3007661
50
109.2998307
51
143.3037387
0
ARC
8
DEFAULT_255_1_388
10
22.9245092
20
45.1617584
40
0.4089031
50
143.075267
51
163.1918576
0
ARC
8
DEFAULT_255_1_388
10
23.1440926
20
45.0924652
40
0.6391492
50
162.9375929
51
174.6208776
0
ARC
8
DEFAULT_255_1_388
10
23.4395308
20
45.0600711
40
0.9363344
50
174.342123
51
180.1430283
0
ARC
8
DEFAULT_255_1_388
10
23.3347849
20
44.9257117
40
0.8315986
50
179.6817261
51
189.150555
0
ARC
8
DEFAULT_255_1_388
10
23.0534598
20
44.8788559
40
0.5464044
50
188.9911061
51
203.5772363
0
ARC
8
DEFAULT_255_1_388
10
22.931989
20
44.8284539
40
0.4149206
50
203.9075402
51
215.1312435
0
ARC
8
DEFAULT_255_1_388
10
22.8281687
20
44.7479907
40
0.2837747
50
213.9071511
51
263.8848919
0
ARC
8
DEFAULT_255_1_388
10
22.8422681
20
44.8362519
40
0.3730641
50
263.1757928
51
270.1031044
0
ARC
8
DEFAULT_255_1_388
10
22.845876
20
44.9765511
40
0.5133712
50
269.6722503
51
279.0606936
0
ARC
8
DEFAULT_255_1_388
10
22.8758916
20
44.795115
40
0.3294739
50
278.8749101
51
293.6349581
0
ARC
8
DEFAULT_255_1_388
10
22.9119119
20
44.7105251
40
0.2375405
50
293.8553806
51
310.0518171
0
ARC
8
DEFAULT_255_1_388
10
22.9124628
20
44.7035021
40
0.2318463
50
311.0644687
51
332.0111037
0
ARC
8
DEFAULT_255_1_388
10
22.7783302
20
44.7774702
40
0.3850112
50
331.6586806
51
343.2877423
0
ARC
8
DEFAULT_255_1_388
10
22.5462767
20
44.8487806
40
0.6277712
50
343.1446576
51
351.0103568
0
ARC
8
DEFAULT_255_1_388
10
22.383009
20
44.8787873
40
0.7937327
50
350.71248
51
351.1626997
0
LINE
8
DEFAULT_255_1_388
10
24.3844204
20
45.6549898
11
24.3844204
21
45.5610191
0
LINE
8
DEFAULT_255_1_388
10
24.3844204
20
45.5610191
11
23.839571
21
44.3394
0
LINE
8
DEFAULT_255_1_388
10
23.839571
20
44.3394
11
23.6642795
21
44.3394
0
LINE
8
DEFAULT_255_1_388
10
23.6642795
20
44.3394
11
24.2073217
21
45.517648
0
LINE
8
DEFAULT_255_1_388
10
24.2073217
20
45.517648
11
23.4953129
21
45.517648
0
LINE
8
DEFAULT_255_1_388
10
23.4953129
20
45.517648
11
23.4953129
21
45.6549898
0
LINE
8
DEFAULT_255_1_388
10
23.4953129
20
45.6549898
11
24.3844204
21
45.6549898
0
LINE
8
DEFAULT_255_1_388
10
21.5246389
20
52.2769
11
21.1605024
21
52.2769
0
LINE
8
DEFAULT_255_1_388
10
21.1605024
20
52.2769
11
21.1605024
21
53.5924898
0
LINE
8
DEFAULT_255_1_388
10
21.1605024
20
53.5924898
11
21.5318674
21
53.5924898
0
LINE
8
DEFAULT_255_1_388
10
22.1119558
20
52.9789696
11
22.1119558
21
52.8949381
0
LINE
8
DEFAULT_255_1_388
10
21.5363852
20
53.4497267
11
21.3339868
21
53.4497267
0
LINE
8
DEFAULT_255_1_388
10
21.3339868
20
53.4497267
11
21.3339868
21
52.4187596
0
LINE
8
DEFAULT_255_1_388
10
21.3339868
20
52.4187596
11
21.5165068
21
52.4187596
0
LINE
8
DEFAULT_255_1_388
10
21.9402785
20
52.8985523
11
21.9402785
21
52.9753553
0
ARC
8
DEFAULT_255_1_388
10
21.5362469
20
52.9326436
40
0.6598608
50
75.4100343
51
90.3802731
0
ARC
8
DEFAULT_255_1_388
10
21.5620714
20
53.0402691
40
0.5492049
50
60.1455157
51
75.1889627
0
ARC
8
DEFAULT_255_1_388
10
21.5799306
20
53.0713914
40
0.5133226
50
26.525419
51
60.1451222
0
ARC
8
DEFAULT_255_1_388
10
21.4539092
20
53.0045642
40
0.6559324
50
7.4029944
51
26.832209
0
ARC
8
DEFAULT_255_1_388
10
21.2745489
20
52.9766229
40
0.8374103
50
0.1605597
51
7.7176135
0
ARC
8
DEFAULT_255_1_388
10
21.2929889
20
52.8906321
40
0.8189782
50
348.7289744
51
0.30125
0
ARC
8
DEFAULT_255_1_388
10
21.4793353
20
52.8536156
40
0.628991
50
333.0706936
51
348.7181455
0
ARC
8
DEFAULT_255_1_388
10
21.5880981
20
52.7945449
40
0.5052808
50
299.2531435
51
333.4571133
0
ARC
8
DEFAULT_255_1_388
10
21.5475012
20
52.8716629
40
0.5924066
50
278.1072193
51
299.0340218
0
ARC
8
DEFAULT_255_1_388
10
21.5187061
20
53.0412979
40
0.7644209
50
270.4446841
51
278.4508355
0
ARC
8
DEFAULT_255_1_388
10
21.5210545
20
52.93673
40
0.5179903
50
269.4969684
51
284.0204874
0
ARC
8
DEFAULT_255_1_388
10
21.5610263
20
52.7831415
40
0.3592968
50
283.7699076
51
318.1557121
0
ARC
8
DEFAULT_255_1_388
10
21.5230808
20
52.8115399
40
0.4065308
50
318.7417595
51
343.687252
0
ARC
8
DEFAULT_255_1_388
10
21.3201387
20
52.8749275
40
0.6191194
50
343.3324891
51
355.8548594
0
ARC
8
DEFAULT_255_1_388
10
21.0840424
20
52.8973719
40
0.856237
50
355.4988754
51
0.0789913
0
ARC
8
DEFAULT_255_1_388
10
21.1721224
20
52.980108
40
0.7681709
50
359.6455047
51
9.8607559
0
ARC
8
DEFAULT_255_1_388
10
21.4376947
20
53.0280664
40
0.498312
50
9.6573037
51
26.1931522
0
ARC
8
DEFAULT_255_1_388
10
21.5421022
20
53.0765587
40
0.3832303
50
26.5777895
51
40.1533752
0
ARC
8
DEFAULT_255_1_388
10
21.5708687
20
53.099002
40
0.3467742
50
40.3839958
51
80.1430923
0
ARC
8
DEFAULT_255_1_388
10
21.5340942
20
52.9359486
40
0.5137832
50
79.2153636
51
89.7445174
0
LINE
8
DEFAULT_255_1_388
10
23.167319
20
52.6943468
11
23.341707
21
52.6943468
0
LINE
8
DEFAULT_255_1_388
10
22.3288112
20
52.8732525
11
22.3288112
21
52.9997516
0
LINE
8
DEFAULT_255_1_388
10
23.341707
20
53.1696217
11
23.167319
21
53.1696217
0
LINE
8
DEFAULT_255_1_388
10
22.5031992
20
52.9952337
11
22.5031992
21
52.8678312
0
ARC
8
DEFAULT_255_1_388
10
22.7251304
20
52.7615329
40
0.6202263
50
340.1774904
51
353.7812217
0
ARC
8
DEFAULT_255_1_388
10
22.9019157
20
52.6956893
40
0.4315926
50
311.4560052
51
340.4420756
0
ARC
8
DEFAULT_255_1_388
10
22.8981696
20
52.7081665
40
0.4434573
50
282.4332229
51
310.7514507
0
ARC
8
DEFAULT_255_1_388
10
22.8487514
20
52.9123703
40
0.6535262
50
269.9358869
51
282.8096729
0
ARC
8
DEFAULT_255_1_388
10
22.8429454
20
53.0636329
40
0.8048043
50
269.9995752
51
270.3612856
0
ARC
8
DEFAULT_255_1_388
10
22.8369944
20
52.7837781
40
0.5249831
50
250.7885263
51
270.6488451
0
ARC
8
DEFAULT_255_1_388
10
22.8180768
20
52.7120853
40
0.4510942
50
219.3628377
51
250.0611024
0
ARC
8
DEFAULT_255_1_388
10
22.9113643
20
52.7913653
40
0.5735046
50
193.5480293
51
219.5755675
0
ARC
8
DEFAULT_255_1_388
10
23.1781852
20
52.860652
40
0.849146
50
181.1220183
51
193.8754971
0
ARC
8
DEFAULT_255_1_388
10
23.4105085
20
52.8730914
40
1.0816971
50
179.9914644
51
181.5398227
0
ARC
8
DEFAULT_255_1_388
10
23.2028395
20
53.0039586
40
0.8740384
50
169.5837606
51
180.275782
0
ARC
8
DEFAULT_255_1_388
10
22.9961743
20
53.0421439
40
0.6638751
50
155.0367033
51
169.6002779
0
ARC
8
DEFAULT_255_1_388
10
22.8684202
20
53.1037336
40
0.5220662
50
136.7831557
51
155.2472983
0
ARC
8
DEFAULT_255_1_388
10
22.8245992
20
53.1409577
40
0.4646502
50
121.7633063
51
136.4281161
0
ARC
8
DEFAULT_255_1_388
10
22.8397832
20
53.1129049
40
0.4964979
50
95.6460018
51
121.5489589
0
ARC
8
DEFAULT_255_1_388
10
22.8574807
20
52.9881704
40
0.6223912
50
89.9245727
51
96.1375919
0
ARC
8
DEFAULT_255_1_388
10
22.8631512
20
53.0015721
40
0.6090084
50
76.6779212
51
90.456405
0
ARC
8
DEFAULT_255_1_388
10
22.9074324
20
53.180506
40
0.42469
50
47.4858803
51
76.9287069
0
ARC
8
DEFAULT_255_1_388
10
22.8908938
20
53.1692623
40
0.4441778
50
16.5424081
51
46.8934505
0
ARC
8
DEFAULT_255_1_388
10
22.7099988
20
53.1098265
40
0.6345318
50
5.4072971
51
17.0363711
0
ARC
8
DEFAULT_255_1_388
10
22.5481713
20
53.0838304
40
0.6250632
50
7.8888693
51
15.9242022
0
ARC
8
DEFAULT_255_1_388
10
22.7716699
20
53.1487309
40
0.3923364
50
15.7650676
51
27.9410069
0
ARC
8
DEFAULT_255_1_388
10
22.8958868
20
53.2152317
40
0.2514401
50
27.8167196
51
46.4007942
0
ARC
8
DEFAULT_255_1_388
10
22.9014709
20
53.2145882
40
0.2480958
50
47.4372362
51
75.0695672
0
ARC
8
DEFAULT_255_1_388
10
22.8667545
20
53.0937277
40
0.3738281
50
74.7009379
51
87.8124314
0
ARC
8
DEFAULT_255_1_388
10
22.8585162
20
52.9753659
40
0.4924321
50
87.3802571
51
90.0251599
0
ARC
8
DEFAULT_255_1_388
10
22.854181
20
53.1073997
40
0.3604218
50
89.3451886
51
108.5744412
0
ARC
8
DEFAULT_255_1_388
10
22.8387802
20
53.1651836
40
0.3007661
50
109.2998307
51
143.3037387
0
ARC
8
DEFAULT_255_1_388
10
22.9245092
20
53.0992584
40
0.4089031
50
143.075267
51
163.1918576
0
ARC
8
DEFAULT_255_1_388
10
23.1440926
20
53.0299652
40
0.6391492
50
162.9375929
51
174.6208776
0
ARC
8
DEFAULT_255_1_388
10
23.4395308
20
52.9975711
40
0.9363344
50
174.342123
51
180.1430283
0
ARC
8
DEFAULT_255_1_388
10
23.3347849
20
52.8632117
40
0.8315986
50
179.6817261
51
189.150555
0
ARC
8
DEFAULT_255_1_388
10
23.0534598
20
52.8163559
40
0.5464044
50
188.9911061
51
203.5772363
0
ARC
8
DEFAULT_255_1_388
10
22.931989
20
52.7659539
40
0.4149206
50
203.9075402
51
215.1312435
0
ARC
8
DEFAULT_255_1_388
10
22.8281687
20
52.6854907
40
0.2837747
50
213.9071511
51
263.8848919
0
ARC
8
DEFAULT_255_1_388
10
22.8422681
20
52.7737519
40
0.3730641
50
263.1757928
51
270.1031044
0
ARC
8
DEFAULT_255_1_388
10
22.845876
20
52.9140511
40
0.5133712
50
269.6722503
51
279.0606936
0
ARC
8
DEFAULT_255_1_388
10
22.8758916
20
52.732615
40
0.3294739
50
278.8749101
51
293.6349581
0
ARC
8
DEFAULT_255_1_388
10
22.9119119
20
52.6480251
40
0.2375405
50
293.8553806
51
310.0518171
0
ARC
8
DEFAULT_255_1_388
10
22.9124628
20
52.6410021
40
0.2318463
50
311.0644687
51
332.0111037
0
ARC
8
DEFAULT_255_1_388
10
22.7783302
20
52.7149702
40
0.3850112
50
331.6586806
51
343.2877423
0
ARC
8
DEFAULT_255_1_388
10
22.5462767
20
52.7862806
40
0.6277712
50
343.1446576
51
351.0103568
0
ARC
8
DEFAULT_255_1_388
10
22.383009
20
52.8162873
40
0.7937327
50
350.71248
51
351.1626997
0
LINE
8
DEFAULT_255_1_388
10
24.1612399
20
53.5933934
11
24.1910576
21
53.5933934
0
LINE
8
DEFAULT_255_1_388
10
24.1910576
20
53.5933934
11
24.1910576
21
53.4515338
0
LINE
8
DEFAULT_255_1_388
10
24.1910576
20
53.4515338
11
24.1603364
21
53.4515338
0
LINE
8
DEFAULT_255_1_388
10
23.545009
20
52.7774747
11
23.545009
21
52.8416278
0
LINE
8
DEFAULT_255_1_388
10
23.713072
20
52.8199422
11
23.713072
21
52.7584999
0
ARC
8
DEFAULT_255_1_388
10
24.1662255
20
52.8892826
40
0.562282
50
90.6001079
51
104.5146616
0
ARC
8
DEFAULT_255_1_388
10
24.1225215
20
53.05181
40
0.3939917
50
104.2855758
51
133.8630124
0
ARC
8
DEFAULT_255_1_388
10
24.1409468
20
53.0396243
40
0.4155734
50
134.5304124
51
161.6210222
0
ARC
8
DEFAULT_255_1_388
10
24.32694
20
52.9740421
40
0.6127682
50
161.2850533
51
174.2074364
0
ARC
8
DEFAULT_255_1_388
10
24.4858967
20
52.9521437
40
0.7731446
50
173.7817938
51
174.9251711
0
ARC
8
DEFAULT_255_1_388
10
23.973316
20
52.796627
40
0.3412588
50
95.8332067
51
138.995412
0
ARC
8
DEFAULT_255_1_388
10
23.998444
20
52.6527695
40
0.4870358
50
89.8755506
51
97.0540979
0
ARC
8
DEFAULT_255_1_388
10
24.003783
20
52.7467841
40
0.3930432
50
71.6407016
51
90.6240821
0
ARC
8
DEFAULT_255_1_388
10
24.0207223
20
52.8091433
40
0.3285421
50
39.6368051
51
71.0190743
0
ARC
8
DEFAULT_255_1_388
10
23.9491131
20
52.7472586
40
0.4231706
50
10.6588054
51
39.9044509
0
ARC
8
DEFAULT_255_1_388
10
23.7749676
20
52.7094223
40
0.60133
50
359.6827842
51
11.1326896
0
ARC
8
DEFAULT_255_1_388
10
23.7705012
20
52.7014715
40
0.6058047
50
347.2485908
51
0.4371098
0
ARC
8
DEFAULT_255_1_388
10
23.9580797
20
52.6563379
40
0.4128987
50
318.1408565
51
347.6118497
0
ARC
8
DEFAULT_255_1_388
10
23.9946394
20
52.6262903
40
0.3656244
50
275.6342406
51
317.824739
0
ARC
8
DEFAULT_255_1_388
10
23.9697915
20
52.7724827
40
0.513655
50
269.8872513
51
276.7916069
0
ARC
8
DEFAULT_255_1_388
10
23.9636108
20
52.6571181
40
0.398323
50
246.9139443
51
270.7436787
0
ARC
8
DEFAULT_255_1_388
10
23.9643304
20
52.6411044
40
0.3839368
50
218.1665534
51
245.8780431
0
ARC
8
DEFAULT_255_1_388
10
24.0632676
20
52.7238903
40
0.5128958
50
191.4115343
51
218.6077624
0
ARC
8
DEFAULT_255_1_388
10
24.2812992
20
52.7727777
40
0.7363054
50
179.6344971
51
191.7836758
0
ARC
8
DEFAULT_255_1_388
10
24.9092866
20
52.8491495
40
1.3642984
50
171.4523743
51
180.3158856
0
ARC
8
DEFAULT_255_1_388
10
24.4148594
20
52.9260895
40
0.8639311
50
157.9802296
51
171.6246761
0
ARC
8
DEFAULT_255_1_388
10
24.1657944
20
53.0254038
40
0.5958004
50
141.4299236
51
157.8541251
0
ARC
8
DEFAULT_255_1_388
10
24.0936028
20
53.0764746
40
0.5075416
50
102.871586
51
140.8564533
0
ARC
8
DEFAULT_255_1_388
10
24.166458
20
52.8019943
40
0.7914163
50
90.377773
51
103.5868422
0
ARC
8
DEFAULT_255_1_388
10
23.9709101
20
52.7339543
40
0.2667015
50
89.8751238
51
126.2072139
0
ARC
8
DEFAULT_255_1_388
10
23.9760572
20
52.7165847
40
0.2838229
50
124.9742447
51
144.8960197
0
ARC
8
DEFAULT_255_1_388
10
23.9562817
20
52.7326981
40
0.2583845
50
145.2974778
51
160.2660922
0
ARC
8
DEFAULT_255_1_388
10
24.3019306
20
52.7549151
40
0.5888695
50
179.6512124
51
190.285571
0
ARC
8
DEFAULT_255_1_388
10
24.1113785
20
52.7189968
40
0.3949683
50
190.0944895
51
207.5099647
0
ARC
8
DEFAULT_255_1_388
10
24.0477367
20
52.6887177
40
0.3245464
50
207.9585471
51
216.325377
0
ARC
8
DEFAULT_255_1_388
10
24.0095004
20
52.6572712
40
0.2751259
50
215.7661336
51
232.5457193
0
ARC
8
DEFAULT_255_1_388
10
23.966412
20
52.6025273
40
0.2054668
50
232.8005815
51
270.6605497
0
ARC
8
DEFAULT_255_1_388
10
23.9715544
20
52.6434853
40
0.2464268
50
269.3550767
51
288.474612
0
ARC
8
DEFAULT_255_1_388
10
23.9820051
20
52.6041721
40
0.2058436
50
289.1831976
51
322.9685307
0
ARC
8
DEFAULT_255_1_388
10
23.9132153
20
52.6584279
40
0.2934408
50
322.6007085
51
346.5183319
0
ARC
8
DEFAULT_255_1_388
10
23.7829909
20
52.6916434
40
0.4278249
50
346.2584622
51
358.7739592
0
ARC
8
DEFAULT_255_1_388
10
23.6678484
20
52.6978829
40
0.5430876
50
358.3757628
51
0.0082477
0
ARC
8
DEFAULT_255_1_388
10
23.7535303
20
52.7009856
40
0.4574157
50
359.6211417
51
11.28403
0
ARC
8
DEFAULT_255_1_388
10
23.8971909
20
52.7309535
40
0.3106708
50
11.0483152
51
31.8145585
0
ARC
8
DEFAULT_255_1_388
10
23.9319614
20
52.7498045
40
0.2711963
50
32.3028554
51
38.0820598
0
ARC
8
DEFAULT_255_1_388
10
23.9792847
20
52.7926717
40
0.2075566
50
36.8249851
51
85.741667
0
ARC
8
DEFAULT_255_1_388
10
23.971726
20
52.7363065
40
0.2643487
50
85.0150021
51
90.050843
0
LINE
8
DEFAULT_255_1_388
10
21.5246389
20
60.2144
11
21.1605024
21
60.2144
0
LINE
8
DEFAULT_255_1_388
10
21.1605024
20
60.2144
11
21.1605024
21
61.5299898
0
LINE
8
DEFAULT_255_1_388
10
21.1605024
20
61.5299898
11
21.5318674
21
61.5299898
0
LINE
8
DEFAULT_255_1_388
10
22.1119558
20
60.9164696
11
22.1119558
21
60.8324381
0
LINE
8
DEFAULT_255_1_388
10
21.5363852
20
61.3872267
11
21.3339868
21
61.3872267
0
LINE
8
DEFAULT_255_1_388
10
21.3339868
20
61.3872267
11
21.3339868
21
60.3562596
0
LINE
8
DEFAULT_255_1_388
10
21.3339868
20
60.3562596
11
21.5165068
21
60.3562596
0
LINE
8
DEFAULT_255_1_388
10
21.9402785
20
60.8360523
11
21.9402785
21
60.9128553
0
ARC
8
DEFAULT_255_1_388
10
21.5362469
20
60.8701436
40
0.6598608
50
75.4100343
51
90.3802731
0
ARC
8
DEFAULT_255_1_388
10
21.5620714
20
60.9777691
40
0.5492049
50
60.1455157
51
75.1889627
0
ARC
8
DEFAULT_255_1_388
10
21.5799306
20
61.0088914
40
0.5133226
50
26.525419
51
60.1451222
0
ARC
8
DEFAULT_255_1_388
10
21.4539092
20
60.9420642
40
0.6559324
50
7.4029944
51
26.832209
0
ARC
8
DEFAULT_255_1_388
10
21.2745489
20
60.9141229
40
0.8374103
50
0.1605597
51
7.7176135
0
ARC
8
DEFAULT_255_1_388
10
21.2929889
20
60.8281321
40
0.8189782
50
348.7289744
51
0.30125
0
ARC
8
DEFAULT_255_1_388
10
21.4793353
20
60.7911156
40
0.628991
50
333.0706936
51
348.7181455
0
ARC
8
DEFAULT_255_1_388
10
21.5880981
20
60.7320449
40
0.5052808
50
299.2531435
51
333.4571133
0
ARC
8
DEFAULT_255_1_388
10
21.5475012
20
60.8091629
40
0.5924066
50
278.1072193
51
299.0340218
0
ARC
8
DEFAULT_255_1_388
10
21.5187061
20
60.9787979
40
0.7644209
50
270.4446841
51
278.4508355
0
ARC
8
DEFAULT_255_1_388
10
21.5210545
20
60.87423
40
0.5179903
50
269.4969684
51
284.0204874
0
ARC
8
DEFAULT_255_1_388
10
21.5610263
20
60.7206415
40
0.3592968
50
283.7699076
51
318.1557121
0
ARC
8
DEFAULT_255_1_388
10
21.5230808
20
60.7490399
40
0.4065308
50
318.7417595
51
343.687252
0
ARC
8
DEFAULT_255_1_388
10
21.3201387
20
60.8124275
40
0.6191194
50
343.3324891
51
355.8548594
0
ARC
8
DEFAULT_255_1_388
10
21.0840424
20
60.8348719
40
0.856237
50
355.4988754
51
0.0789913
0
ARC
8
DEFAULT_255_1_388
10
21.1721224
20
60.917608
40
0.7681709
50
359.6455047
51
9.8607559
0
ARC
8
DEFAULT_255_1_388
10
21.4376947
20
60.9655664
40
0.498312
50
9.6573037
51
26.1931522
0
ARC
8
DEFAULT_255_1_388
10
21.5421022
20
61.0140587
40
0.3832303
50
26.5777895
51
40.1533752
0
ARC
8
DEFAULT_255_1_388
10
21.5708687
20
61.036502
40
0.3467742
50
40.3839958
51
80.1430923
0
ARC
8
DEFAULT_255_1_388
10
21.5340942
20
60.8734486
40
0.5137832
50
79.2153636
51
89.7445174
0
LINE
8
DEFAULT_255_1_388
10
23.167319
20
60.6318468
11
23.341707
21
60.6318468
0
LINE
8
DEFAULT_255_1_388
10
22.3288112
20
60.8107525
11
22.3288112
21
60.9372516
0
LINE
8
DEFAULT_255_1_388
10
23.341707
20
61.1071217
11
23.167319
21
61.1071217
0
LINE
8
DEFAULT_255_1_388
10
22.5031992
20
60.9327337
11
22.5031992
21
60.8053312
0
ARC
8
DEFAULT_255_1_388
10
22.7251304
20
60.6990329
40
0.6202263
50
340.1774904
51
353.7812217
0
ARC
8
DEFAULT_255_1_388
10
22.9019157
20
60.6331893
40
0.4315926
50
311.4560052
51
340.4420756
0
ARC
8
DEFAULT_255_1_388
10
22.8981696
20
60.6456665
40
0.4434573
50
282.4332229
51
310.7514507
0
ARC
8
DEFAULT_255_1_388
10
22.8487514
20
60.8498703
40
0.6535262
50
269.9358869
51
282.8096729
0
ARC
8
DEFAULT_255_1_388
10
22.8429454
20
61.0011329
40
0.8048043
50
269.9995752
51
270.3612856
0
ARC
8
DEFAULT_255_1_388
10
22.8369944
20
60.7212781
40
0.5249831
50
250.7885263
51
270.6488451
0
ARC
8
DEFAULT_255_1_388
10
22.8180768
20
60.6495853
40
0.4510942
50
219.3628377
51
250.0611024
0
ARC
8
DEFAULT_255_1_388
10
22.9113643
20
60.7288653
40
0.5735046
50
193.5480293
51
219.5755675
0
ARC
8
DEFAULT_255_1_388
10
23.1781852
20
60.798152
40
0.849146
50
181.1220183
51
193.8754971
0
ARC
8
DEFAULT_255_1_388
10
23.4105085
20
60.8105914
40
1.0816971
50
179.9914644
51
181.5398227
0
ARC
8
DEFAULT_255_1_388
10
23.2028395
20
60.9414586
40
0.8740384
50
169.5837606
51
180.275782
0
ARC
8
DEFAULT_255_1_388
10
22.9961743
20
60.9796439
40
0.6638751
50
155.0367033
51
169.6002779
0
ARC
8
DEFAULT_255_1_388
10
22.8684202
20
61.0412336
40
0.5220662
50
136.7831557
51
155.2472983
0
ARC
8
DEFAULT_255_1_388
10
22.8245992
20
61.0784577
40
0.4646502
50
121.7633063
51
136.4281161
0
ARC
8
DEFAULT_255_1_388
10
22.8397832
20
61.0504049
40
0.4964979
50
95.6460018
51
121.5489589
0
ARC
8
DEFAULT_255_1_388
10
22.8574807
20
60.9256704
40
0.6223912
50
89.9245727
51
96.1375919
0
ARC
8
DEFAULT_255_1_388
10
22.8631512
20
60.9390721
40
0.6090084
50
76.6779212
51
90.456405
0
ARC
8
DEFAULT_255_1_388
10
22.9074324
20
61.118006
40
0.42469
50
47.4858803
51
76.9287069
0
ARC
8
DEFAULT_255_1_388
10
22.8908938
20
61.1067623
40
0.4441778
50
16.5424081
51
46.8934505
0
ARC
8
DEFAULT_255_1_388
10
22.7099988
20
61.0473265
40
0.6345318
50
5.4072971
51
17.0363711
0
ARC
8
DEFAULT_255_1_388
10
22.5481713
20
61.0213304
40
0.6250632
50
7.8888693
51
15.9242022
0
ARC
8
DEFAULT_255_1_388
10
22.7716699
20
61.0862309
40
0.3923364
50
15.7650676
51
27.9410069
0
ARC
8
DEFAULT_255_1_388
10
22.8958868
20
61.1527317
40
0.2514401
50
27.8167196
51
46.4007942
0
ARC
8
DEFAULT_255_1_388
10
22.9014709
20
61.1520882
40
0.2480958
50
47.4372362
51
75.0695672
0
ARC
8
DEFAULT_255_1_388
10
22.8667545
20
61.0312277
40
0.3738281
50
74.7009379
51
87.8124314
0
ARC
8
DEFAULT_255_1_388
10
22.8585162
20
60.9128659
40
0.4924321
50
87.3802571
51
90.0251599
0
ARC
8
DEFAULT_255_1_388
10
22.854181
20
61.0448997
40
0.3604218
50
89.3451886
51
108.5744412
0
ARC
8
DEFAULT_255_1_388
10
22.8387802
20
61.1026836
40
0.3007661
50
109.2998307
51
143.3037387
0
ARC
8
DEFAULT_255_1_388
10
22.9245092
20
61.0367584
40
0.4089031
50
143.075267
51
163.1918576
0
ARC
8
DEFAULT_255_1_388
10
23.1440926
20
60.9674652
40
0.6391492
50
162.9375929
51
174.6208776
0
ARC
8
DEFAULT_255_1_388
10
23.4395308
20
60.9350711
40
0.9363344
50
174.342123
51
180.1430283
0
ARC
8
DEFAULT_255_1_388
10
23.3347849
20
60.8007117
40
0.8315986
50
179.6817261
51
189.150555
0
ARC
8
DEFAULT_255_1_388
10
23.0534598
20
60.7538559
40
0.5464044
50
188.9911061
51
203.5772363
0
ARC
8
DEFAULT_255_1_388
10
22.931989
20
60.7034539
40
0.4149206
50
203.9075402
51
215.1312435
0
ARC
8
DEFAULT_255_1_388
10
22.8281687
20
60.6229907
40
0.2837747
50
213.9071511
51
263.8848919
0
ARC
8
DEFAULT_255_1_388
10
22.8422681
20
60.7112519
40
0.3730641
50
263.1757928
51
270.1031044
0
ARC
8
DEFAULT_255_1_388
10
22.845876
20
60.8515511
40
0.5133712
50
269.6722503
51
279.0606936
0
ARC
8
DEFAULT_255_1_388
10
22.8758916
20
60.670115
40
0.3294739
50
278.8749101
51
293.6349581
0
ARC
8
DEFAULT_255_1_388
10
22.9119119
20
60.5855251
40
0.2375405
50
293.8553806
51
310.0518171
0
ARC
8
DEFAULT_255_1_388
10
22.9124628
20
60.5785021
40
0.2318463
50
311.0644687
51
332.0111037
0
ARC
8
DEFAULT_255_1_388
10
22.7783302
20
60.6524702
40
0.3850112
50
331.6586806
51
343.2877423
0
ARC
8
DEFAULT_255_1_388
10
22.5462767
20
60.7237806
40
0.6277712
50
343.1446576
51
351.0103568
0
ARC
8
DEFAULT_255_1_388
10
22.383009
20
60.7537873
40
0.7937327
50
350.71248
51
351.1626997
0
LINE
8
DEFAULT_255_1_388
10
23.7456003
20
60.8396666
11
23.6118728
21
60.8740021
0
LINE
8
DEFAULT_255_1_388
10
23.6118728
20
60.8740021
11
23.6787365
21
61.5299898
0
LINE
8
DEFAULT_255_1_388
10
23.6787365
20
61.5299898
11
24.3527956
21
61.5299898
0
LINE
8
DEFAULT_255_1_388
10
24.3527956
20
61.5299898
11
24.3527956
21
61.3754803
0
LINE
8
DEFAULT_255_1_388
10
24.3527956
20
61.3754803
11
23.8205961
21
61.3754803
0
LINE
8
DEFAULT_255_1_388
10
23.8205961
20
61.3754803
11
23.7808393
21
61.0167652
0
LINE
8
DEFAULT_255_1_388
10
23.5648874
20
60.5604652
11
23.7230112
21
60.5604652
0
LINE
8
DEFAULT_255_1_388
10
23.789875
20
60.8758092
11
23.7456003
21
60.8396666
0
ARC
8
DEFAULT_255_1_388
10
23.9895007
20
60.6590241
40
0.4141476
50
93.7181681
51
120.253934
0
ARC
8
DEFAULT_255_1_388
10
24.0001059
20
60.5681284
40
0.5055616
50
89.9660471
51
94.2495185
0
ARC
8
DEFAULT_255_1_388
10
24.0046881
20
60.6344154
40
0.4392953
50
73.8045384
51
90.5585736
0
ARC
8
DEFAULT_255_1_388
10
24.0311138
20
60.730952
40
0.3392225
50
41.3071072
51
73.543002
0
ARC
8
DEFAULT_255_1_388
10
23.9842958
20
60.6906461
40
0.4009977
50
13.5075837
51
41.2174839
0
ARC
8
DEFAULT_255_1_388
10
23.7996056
20
60.6422907
40
0.5918864
50
1.1330171
51
13.8830737
0
ARC
8
DEFAULT_255_1_388
10
23.6399702
20
60.6337522
40
0.7516787
50
359.9925091
51
1.5431298
0
ARC
8
DEFAULT_255_1_388
10
23.7844316
20
60.6291027
40
0.6072343
50
347.8572712
51
0.4294349
0
ARC
8
DEFAULT_255_1_388
10
23.9813451
20
60.5844898
40
0.4053482
50
323.6727442
51
348.1674594
0
ARC
8
DEFAULT_255_1_388
10
24.0144416
20
60.5643175
40
0.3667495
50
316.8171818
51
323.1486802
0
ARC
8
DEFAULT_255_1_388
10
24.0213539
20
60.5601612
40
0.358869
50
281.839603
51
316.5458142
0
ARC
8
DEFAULT_255_1_388
10
23.9790827
20
60.7351363
40
0.5388223
50
269.5770964
51
282.4214641
0
ARC
8
DEFAULT_255_1_388
10
23.9710748
20
60.711093
40
0.5147801
50
256.2425863
51
270.4486481
0
ARC
8
DEFAULT_255_1_388
10
23.9374275
20
60.5761124
40
0.3756708
50
228.9024379
51
256.33135
0
ARC
8
DEFAULT_255_1_388
10
23.9291256
20
60.5630054
40
0.360344
50
193.7536029
51
228.5272638
0
ARC
8
DEFAULT_255_1_388
10
24.0683821
20
60.6038463
40
0.5053599
50
184.9244437
51
194.4976052
0
ARC
8
DEFAULT_255_1_388
10
24.0900462
20
60.6078722
40
0.3700839
50
187.3596909
51
198.6733728
0
ARC
8
DEFAULT_255_1_388
10
23.9719705
20
60.5669373
40
0.2451195
50
198.4453795
51
217.7945479
0
ARC
8
DEFAULT_255_1_388
10
23.9386878
20
60.5433563
40
0.2043754
50
218.2887146
51
228.5613203
0
ARC
8
DEFAULT_255_1_388
10
23.9496885
20
60.5581902
40
0.2227819
50
228.9652423
51
258.1237049
0
ARC
8
DEFAULT_255_1_388
10
23.9728322
20
60.6572964
40
0.3245374
50
257.7260585
51
270.4013717
0
ARC
8
DEFAULT_255_1_388
10
23.977882
20
60.6072255
40
0.2744726
50
269.4204315
51
286.420998
0
ARC
8
DEFAULT_255_1_388
10
23.9945876
20
60.5465705
40
0.2115721
50
286.7250065
51
320.6004665
0
ARC
8
DEFAULT_255_1_388
10
23.9514791
20
60.5815527
40
0.2670878
50
320.6712228
51
344.5440474
0
ARC
8
DEFAULT_255_1_388
10
23.8213505
20
60.6197394
40
0.4026927
50
344.241448
51
356.735803
0
ARC
8
DEFAULT_255_1_388
10
23.6809812
20
60.6313656
40
0.5435085
50
356.3547471
51
0.0507222
0
ARC
8
DEFAULT_255_1_388
10
23.8312078
20
60.6348812
40
0.3932934
50
359.5579289
51
12.9534322
0
ARC
8
DEFAULT_255_1_388
10
23.9498917
20
60.6636586
40
0.2711827
50
12.6489751
51
41.608121
0
ARC
8
DEFAULT_255_1_388
10
23.9758077
20
60.6856946
40
0.2371737
50
41.7851122
51
85.9892156
0
ARC
8
DEFAULT_255_1_388
10
23.9619388
20
60.5941738
40
0.3295244
50
84.6965848
51
90.0672125
0
ARC
8
DEFAULT_255_1_388
10
23.9592955
20
60.5190118
40
0.4046926
50
89.6804991
51
99.161352
0
ARC
8
DEFAULT_255_1_388
10
23.9361964
20
60.6570848
40
0.2647044
50
98.9836248
51
113.8905702
0
ARC
8
DEFAULT_255_1_388
10
23.9103639
20
60.7180118
40
0.1985386
50
114.195234
51
127.3641866
0
LINE
8
DEFAULT_255_1_388
10
21.3923389
20
68.1519
11
21.0282024
21
68.1519
0
LINE
8
DEFAULT_255_1_388
10
21.0282024
20
68.1519
11
21.0282024
21
69.4674898
0
LINE
8
DEFAULT_255_1_388
10
21.0282024
20
69.4674898
11
21.3995674
21
69.4674898
0
LINE
8
DEFAULT_255_1_388
10
21.9796558
20
68.8539696
11
21.9796558
21
68.7699381
0
LINE
8
DEFAULT_255_1_388
10
21.4040852
20
69.3247267
11
21.2016868
21
69.3247267
0
LINE
8
DEFAULT_255_1_388
10
21.2016868
20
69.3247267
11
21.2016868
21
68.2937596
0
LINE
8
DEFAULT_255_1_388
10
21.2016868
20
68.2937596
11
21.3842068
21
68.2937596
0
LINE
8
DEFAULT_255_1_388
10
21.8079785
20
68.7735523
11
21.8079785
21
68.8503553
0
ARC
8
DEFAULT_255_1_388
10
21.4039469
20
68.8076436
40
0.6598608
50
75.4100343
51
90.3802731
0
ARC
8
DEFAULT_255_1_388
10
21.4297714
20
68.9152691
40
0.5492049
50
60.1455157
51
75.1889627
0
ARC
8
DEFAULT_255_1_388
10
21.4476306
20
68.9463914
40
0.5133226
50
26.525419
51
60.1451222
0
ARC
8
DEFAULT_255_1_388
10
21.3216092
20
68.8795642
40
0.6559324
50
7.4029944
51
26.832209
0
ARC
8
DEFAULT_255_1_388
10
21.1422489
20
68.8516229
40
0.8374103
50
0.1605597
51
7.7176135
0
ARC
8
DEFAULT_255_1_388
10
21.1606889
20
68.7656321
40
0.8189782
50
348.7289744
51
0.30125
0
ARC
8
DEFAULT_255_1_388
10
21.3470353
20
68.7286156
40
0.628991
50
333.0706936
51
348.7181455
0
ARC
8
DEFAULT_255_1_388
10
21.4557981
20
68.6695449
40
0.5052808
50
299.2531435
51
333.4571133
0
ARC
8
DEFAULT_255_1_388
10
21.4152012
20
68.7466629
40
0.5924066
50
278.1072193
51
299.0340218
0
ARC
8
DEFAULT_255_1_388
10
21.3864061
20
68.9162979
40
0.7644209
50
270.4446841
51
278.4508355
0
ARC
8
DEFAULT_255_1_388
10
21.3887545
20
68.81173
40
0.5179903
50
269.4969684
51
284.0204874
0
ARC
8
DEFAULT_255_1_388
10
21.4287263
20
68.6581415
40
0.3592968
50
283.7699076
51
318.1557121
0
ARC
8
DEFAULT_255_1_388
10
21.3907808
20
68.6865399
40
0.4065308
50
318.7417595
51
343.687252
0
ARC
8
DEFAULT_255_1_388
10
21.1878387
20
68.7499275
40
0.6191194
50
343.3324891
51
355.8548594
0
ARC
8
DEFAULT_255_1_388
10
20.9517424
20
68.7723719
40
0.856237
50
355.4988754
51
0.0789913
0
ARC
8
DEFAULT_255_1_388
10
21.0398224
20
68.855108
40
0.7681709
50
359.6455047
51
9.8607559
0
ARC
8
DEFAULT_255_1_388
10
21.3053947
20
68.9030664
40
0.498312
50
9.6573037
51
26.1931522
0
ARC
8
DEFAULT_255_1_388
10
21.4098022
20
68.9515587
40
0.3832303
50
26.5777895
51
40.1533752
0
ARC
8
DEFAULT_255_1_388
10
21.4385687
20
68.974002
40
0.3467742
50
40.3839958
51
80.1430923
0
ARC
8
DEFAULT_255_1_388
10
21.4017942
20
68.8109486
40
0.5137832
50
79.2153636
51
89.7445174
0
LINE
8
DEFAULT_255_1_388
10
23.035019
20
68.5693468
11
23.209407
21
68.5693468
0
LINE
8
DEFAULT_255_1_388
10
22.1965112
20
68.7482525
11
22.1965112
21
68.8747516
0
LINE
8
DEFAULT_255_1_388
10
23.209407
20
69.0446217
11
23.035019
21
69.0446217
0
LINE
8
DEFAULT_255_1_388
10
22.3708992
20
68.8702337
11
22.3708992
21
68.7428312
0
ARC
8
DEFAULT_255_1_388
10
22.5928304
20
68.6365329
40
0.6202263
50
340.1774904
51
353.7812217
0
ARC
8
DEFAULT_255_1_388
10
22.7696157
20
68.5706893
40
0.4315926
50
311.4560052
51
340.4420756
0
ARC
8
DEFAULT_255_1_388
10
22.7658696
20
68.5831665
40
0.4434573
50
282.4332229
51
310.7514507
0
ARC
8
DEFAULT_255_1_388
10
22.7164514
20
68.7873703
40
0.6535262
50
269.9358869
51
282.8096729
0
ARC
8
DEFAULT_255_1_388
10
22.7106454
20
68.9386329
40
0.8048043
50
269.9995752
51
270.3612856
0
ARC
8
DEFAULT_255_1_388
10
22.7046944
20
68.6587781
40
0.5249831
50
250.7885263
51
270.6488451
0
ARC
8
DEFAULT_255_1_388
10
22.6857768
20
68.5870853
40
0.4510942
50
219.3628377
51
250.0611024
0
ARC
8
DEFAULT_255_1_388
10
22.7790643
20
68.6663653
40
0.5735046
50
193.5480293
51
219.5755675
0
ARC
8
DEFAULT_255_1_388
10
23.0458852
20
68.735652
40
0.849146
50
181.1220183
51
193.8754971
0
ARC
8
DEFAULT_255_1_388
10
23.2782085
20
68.7480914
40
1.0816971
50
179.9914644
51
181.5398227
0
ARC
8
DEFAULT_255_1_388
10
23.0705395
20
68.8789586
40
0.8740384
50
169.5837606
51
180.275782
0
ARC
8
DEFAULT_255_1_388
10
22.8638743
20
68.9171439
40
0.6638751
50
155.0367033
51
169.6002779
0
ARC
8
DEFAULT_255_1_388
10
22.7361202
20
68.9787336
40
0.5220662
50
136.7831557
51
155.2472983
0
ARC
8
DEFAULT_255_1_388
10
22.6922992
20
69.0159577
40
0.4646502
50
121.7633063
51
136.4281161
0
ARC
8
DEFAULT_255_1_388
10
22.7074832
20
68.9879049
40
0.4964979
50
95.6460018
51
121.5489589
0
ARC
8
DEFAULT_255_1_388
10
22.7251807
20
68.8631704
40
0.6223912
50
89.9245727
51
96.1375919
0
ARC
8
DEFAULT_255_1_388
10
22.7308512
20
68.8765721
40
0.6090084
50
76.6779212
51
90.456405
0
ARC
8
DEFAULT_255_1_388
10
22.7751324
20
69.055506
40
0.42469
50
47.4858803
51
76.9287069
0
ARC
8
DEFAULT_255_1_388
10
22.7585938
20
69.0442623
40
0.4441778
50
16.5424081
51
46.8934505
0
ARC
8
DEFAULT_255_1_388
10
22.5776988
20
68.9848265
40
0.6345318
50
5.4072971
51
17.0363711
0
ARC
8
DEFAULT_255_1_388
10
22.4158713
20
68.9588304
40
0.6250632
50
7.8888693
51
15.9242022
0
ARC
8
DEFAULT_255_1_388
10
22.6393699
20
69.0237309
40
0.3923364
50
15.7650676
51
27.9410069
0
ARC
8
DEFAULT_255_1_388
10
22.7635868
20
69.0902317
40
0.2514401
50
27.8167196
51
46.4007942
0
ARC
8
DEFAULT_255_1_388
10
22.7691709
20
69.0895882
40
0.2480958
50
47.4372362
51
75.0695672
0
ARC
8
DEFAULT_255_1_388
10
22.7344545
20
68.9687277
40
0.3738281
50
74.7009379
51
87.8124314
0
ARC
8
DEFAULT_255_1_388
10
22.7262162
20
68.8503659
40
0.4924321
50
87.3802571
51
90.0251599
0
ARC
8
DEFAULT_255_1_388
10
22.721881
20
68.9823997
40
0.3604218
50
89.3451886
51
108.5744412
0
ARC
8
DEFAULT_255_1_388
10
22.7064802
20
69.0401836
40
0.3007661
50
109.2998307
51
143.3037387
0
ARC
8
DEFAULT_255_1_388
10
22.7922092
20
68.9742584
40
0.4089031
50
143.075267
51
163.1918576
0
ARC
8
DEFAULT_255_1_388
10
23.0117926
20
68.9049652
40
0.6391492
50
162.9375929
51
174.6208776
0
ARC
8
DEFAULT_255_1_388
10
23.3072308
20
68.8725711
40
0.9363344
50
174.342123
51
180.1430283
0
ARC
8
DEFAULT_255_1_388
10
23.2024849
20
68.7382117
40
0.8315986
50
179.6817261
51
189.150555
0
ARC
8
DEFAULT_255_1_388
10
22.9211598
20
68.6913559
40
0.5464044
50
188.9911061
51
203.5772363
0
ARC
8
DEFAULT_255_1_388
10
22.799689
20
68.6409539
40
0.4149206
50
203.9075402
51
215.1312435
0
ARC
8
DEFAULT_255_1_388
10
22.6958687
20
68.5604907
40
0.2837747
50
213.9071511
51
263.8848919
0
ARC
8
DEFAULT_255_1_388
10
22.7099681
20
68.6487519
40
0.3730641
50
263.1757928
51
270.1031044
0
ARC
8
DEFAULT_255_1_388
10
22.713576
20
68.7890511
40
0.5133712
50
269.6722503
51
279.0606936
0
ARC
8
DEFAULT_255_1_388
10
22.7435916
20
68.607615
40
0.3294739
50
278.8749101
51
293.6349581
0
ARC
8
DEFAULT_255_1_388
10
22.7796119
20
68.5230251
40
0.2375405
50
293.8553806
51
310.0518171
0
ARC
8
DEFAULT_255_1_388
10
22.7801628
20
68.5160021
40
0.2318463
50
311.0644687
51
332.0111037
0
ARC
8
DEFAULT_255_1_388
10
22.6460302
20
68.5899702
40
0.3850112
50
331.6586806
51
343.2877423
0
ARC
8
DEFAULT_255_1_388
10
22.4139767
20
68.6612806
40
0.6277712
50
343.1446576
51
351.0103568
0
ARC
8
DEFAULT_255_1_388
10
22.250709
20
68.6912873
40
0.7937327
50
350.71248
51
351.1626997
0
LINE
8
DEFAULT_255_1_388
10
24.1084536
20
69.4674898
11
24.1084536
21
68.593743
0
LINE
8
DEFAULT_255_1_388
10
24.1084536
20
68.593743
11
24.2909736
21
68.593743
0
LINE
8
DEFAULT_255_1_388
10
24.2909736
20
68.593743
11
24.2909736
21
68.4573048
0
LINE
8
DEFAULT_255_1_388
10
24.2909736
20
68.4573048
11
24.1084536
21
68.4573048
0
LINE
8
DEFAULT_255_1_388
10
24.1084536
20
68.4573048
11
24.1084536
21
68.1519
0
LINE
8
DEFAULT_255_1_388
10
24.1084536
20
68.1519
11
23.9403906
21
68.1519
0
LINE
8
DEFAULT_255_1_388
10
23.9403906
20
68.1519
11
23.9403906
21
68.4573048
0
LINE
8
DEFAULT_255_1_388
10
23.9403906
20
68.4573048
11
23.3413274
21
68.4573048
0
LINE
8
DEFAULT_255_1_388
10
23.3413274
20
68.4573048
11
23.3413274
21
68.5557933
0
LINE
8
DEFAULT_255_1_388
10
23.3413274
20
68.5557933
11
23.9304514
21
69.4674898
0
LINE
8
DEFAULT_255_1_388
10
23.9304514
20
69.4674898
11
24.1084536
21
69.4674898
0
LINE
8
DEFAULT_255_1_388
10
23.9205122
20
69.2027455
11
23.5310759
21
68.593743
0
LINE
8
DEFAULT_255_1_388
10
23.5310759
20
68.593743
11
23.9403906
21
68.593743
0
LINE
8
DEFAULT_255_1_388
10
23.9403906
20
68.593743
11
23.9403906
21
69.238888
0
LINE
8
DEFAULT_255_1_388
10
23.9403906
20
69.238888
11
23.9205122
21
69.2027455
0
LINE
8
DEFAULT_255_1_388
10
21.5246389
20
76.0894
11
21.1605024
21
76.0894
0
LINE
8
DEFAULT_255_1_388
10
21.1605024
20
76.0894
11
21.1605024
21
77.4049898
0
LINE
8
DEFAULT_255_1_388
10
21.1605024
20
77.4049898
11
21.5318674
21
77.4049898
0
LINE
8
DEFAULT_255_1_388
10
22.1119558
20
76.7914696
11
22.1119558
21
76.7074381
0
LINE
8
DEFAULT_255_1_388
10
21.5363852
20
77.2622267
11
21.3339868
21
77.2622267
0
LINE
8
DEFAULT_255_1_388
10
21.3339868
20
77.2622267
11
21.3339868
21
76.2312596
0
LINE
8
DEFAULT_255_1_388
10
21.3339868
20
76.2312596
11
21.5165068
21
76.2312596
0
LINE
8
DEFAULT_255_1_388
10
21.9402785
20
76.7110523
11
21.9402785
21
76.7878553
0
ARC
8
DEFAULT_255_1_388
10
21.5362469
20
76.7451436
40
0.6598608
50
75.4100343
51
90.3802731
0
ARC
8
DEFAULT_255_1_388
10
21.5620714
20
76.8527691
40
0.5492049
50
60.1455157
51
75.1889627
0
ARC
8
DEFAULT_255_1_388
10
21.5799306
20
76.8838914
40
0.5133226
50
26.525419
51
60.1451222
0
ARC
8
DEFAULT_255_1_388
10
21.4539092
20
76.8170642
40
0.6559324
50
7.4029944
51
26.832209
0
ARC
8
DEFAULT_255_1_388
10
21.2745489
20
76.7891229
40
0.8374103
50
0.1605597
51
7.7176135
0
ARC
8
DEFAULT_255_1_388
10
21.2929889
20
76.7031321
40
0.8189782
50
348.7289744
51
0.30125
0
ARC
8
DEFAULT_255_1_388
10
21.4793353
20
76.6661156
40
0.628991
50
333.0706936
51
348.7181455
0
ARC
8
DEFAULT_255_1_388
10
21.5880981
20
76.6070449
40
0.5052808
50
299.2531435
51
333.4571133
0
ARC
8
DEFAULT_255_1_388
10
21.5475012
20
76.6841629
40
0.5924066
50
278.1072193
51
299.0340218
0
ARC
8
DEFAULT_255_1_388
10
21.5187061
20
76.8537979
40
0.7644209
50
270.4446841
51
278.4508355
0
ARC
8
DEFAULT_255_1_388
10
21.5210545
20
76.74923
40
0.5179903
50
269.4969684
51
284.0204874
0
ARC
8
DEFAULT_255_1_388
10
21.5610263
20
76.5956415
40
0.3592968
50
283.7699076
51
318.1557121
0
ARC
8
DEFAULT_255_1_388
10
21.5230808
20
76.6240399
40
0.4065308
50
318.7417595
51
343.687252
0
ARC
8
DEFAULT_255_1_388
10
21.3201387
20
76.6874275
40
0.6191194
50
343.3324891
51
355.8548594
0
ARC
8
DEFAULT_255_1_388
10
21.0840424
20
76.7098719
40
0.856237
50
355.4988754
51
0.0789913
0
ARC
8
DEFAULT_255_1_388
10
21.1721224
20
76.792608
40
0.7681709
50
359.6455047
51
9.8607559
0
ARC
8
DEFAULT_255_1_388
10
21.4376947
20
76.8405664
40
0.498312
50
9.6573037
51
26.1931522
0
ARC
8
DEFAULT_255_1_388
10
21.5421022
20
76.8890587
40
0.3832303
50
26.5777895
51
40.1533752
0
ARC
8
DEFAULT_255_1_388
10
21.5708687
20
76.911502
40
0.3467742
50
40.3839958
51
80.1430923
0
ARC
8
DEFAULT_255_1_388
10
21.5340942
20
76.7484486
40
0.5137832
50
79.2153636
51
89.7445174
0
LINE
8
DEFAULT_255_1_388
10
23.167319
20
76.5068468
11
23.341707
21
76.5068468
0
LINE
8
DEFAULT_255_1_388
10
22.3288112
20
76.6857525
11
22.3288112
21
76.8122516
0
LINE
8
DEFAULT_255_1_388
10
23.341707
20
76.9821217
11
23.167319
21
76.9821217
0
LINE
8
DEFAULT_255_1_388
10
22.5031992
20
76.8077337
11
22.5031992
21
76.6803312
0
ARC
8
DEFAULT_255_1_388
10
22.7251304
20
76.5740329
40
0.6202263
50
340.1774904
51
353.7812217
0
ARC
8
DEFAULT_255_1_388
10
22.9019157
20
76.5081893
40
0.4315926
50
311.4560052
51
340.4420756
0
ARC
8
DEFAULT_255_1_388
10
22.8981696
20
76.5206665
40
0.4434573
50
282.4332229
51
310.7514507
0
ARC
8
DEFAULT_255_1_388
10
22.8487514
20
76.7248703
40
0.6535262
50
269.9358869
51
282.8096729
0
ARC
8
DEFAULT_255_1_388
10
22.8429454
20
76.8761329
40
0.8048043
50
269.9995752
51
270.3612856
0
ARC
8
DEFAULT_255_1_388
10
22.8369944
20
76.5962781
40
0.5249831
50
250.7885263
51
270.6488451
0
ARC
8
DEFAULT_255_1_388
10
22.8180768
20
76.5245853
40
0.4510942
50
219.3628377
51
250.0611024
0
ARC
8
DEFAULT_255_1_388
10
22.9113643
20
76.6038653
40
0.5735046
50
193.5480293
51
219.5755675
0
ARC
8
DEFAULT_255_1_388
10
23.1781852
20
76.673152
40
0.849146
50
181.1220183
51
193.8754971
0
ARC
8
DEFAULT_255_1_388
10
23.4105085
20
76.6855914
40
1.0816971
50
179.9914644
51
181.5398227
0
ARC
8
DEFAULT_255_1_388
10
23.2028395
20
76.8164586
40
0.8740384
50
169.5837606
51
180.275782
0
ARC
8
DEFAULT_255_1_388
10
22.9961743
20
76.8546439
40
0.6638751
50
155.0367033
51
169.6002779
0
ARC
8
DEFAULT_255_1_388
10
22.8684202
20
76.9162336
40
0.5220662
50
136.7831557
51
155.2472983
0
ARC
8
DEFAULT_255_1_388
10
22.8245992
20
76.9534577
40
0.4646502
50
121.7633063
51
136.4281161
0
ARC
8
DEFAULT_255_1_388
10
22.8397832
20
76.9254049
40
0.4964979
50
95.6460018
51
121.5489589
0
ARC
8
DEFAULT_255_1_388
10
22.8574807
20
76.8006704
40
0.6223912
50
89.9245727
51
96.1375919
0
ARC
8
DEFAULT_255_1_388
10
22.8631512
20
76.8140721
40
0.6090084
50
76.6779212
51
90.456405
0
ARC
8
DEFAULT_255_1_388
10
22.9074324
20
76.993006
40
0.42469
50
47.4858803
51
76.9287069
0
ARC
8
DEFAULT_255_1_388
10
22.8908938
20
76.9817623
40
0.4441778
50
16.5424081
51
46.8934505
0
ARC
8
DEFAULT_255_1_388
10
22.7099988
20
76.9223265
40
0.6345318
50
5.4072971
51
17.0363711
0
ARC
8
DEFAULT_255_1_388
10
22.5481713
20
76.8963304
40
0.6250632
50
7.8888693
51
15.9242022
0
ARC
8
DEFAULT_255_1_388
10
22.7716699
20
76.9612309
40
0.3923364
50
15.7650676
51
27.9410069
0
ARC
8
DEFAULT_255_1_388
10
22.8958868
20
77.0277317
40
0.2514401
50
27.8167196
51
46.4007942
0
ARC
8
DEFAULT_255_1_388
10
22.9014709
20
77.0270882
40
0.2480958
50
47.4372362
51
75.0695672
0
ARC
8
DEFAULT_255_1_388
10
22.8667545
20
76.9062277
40
0.3738281
50
74.7009379
51
87.8124314
0
ARC
8
DEFAULT_255_1_388
10
22.8585162
20
76.7878659
40
0.4924321
50
87.3802571
51
90.0251599
0
ARC
8
DEFAULT_255_1_388
10
22.854181
20
76.9198997
40
0.3604218
50
89.3451886
51
108.5744412
0
ARC
8
DEFAULT_255_1_388
10
22.8387802
20
76.9776836
40
0.3007661
50
109.2998307
51
143.3037387
0
ARC
8
DEFAULT_255_1_388
10
22.9245092
20
76.9117584
40
0.4089031
50
143.075267
51
163.1918576
0
ARC
8
DEFAULT_255_1_388
10
23.1440926
20
76.8424652
40
0.6391492
50
162.9375929
51
174.6208776
0
ARC
8
DEFAULT_255_1_388
10
23.4395308
20
76.8100711
40
0.9363344
50
174.342123
51
180.1430283
0
ARC
8
DEFAULT_255_1_388
10
23.3347849
20
76.6757117
40
0.8315986
50
179.6817261
51
189.150555
0
ARC
8
DEFAULT_255_1_388
10
23.0534598
20
76.6288559
40
0.5464044
50
188.9911061
51
203.5772363
0
ARC
8
DEFAULT_255_1_388
10
22.931989
20
76.5784539
40
0.4149206
50
203.9075402
51
215.1312435
0
ARC
8
DEFAULT_255_1_388
10
22.8281687
20
76.4979907
40
0.2837747
50
213.9071511
51
263.8848919
0
ARC
8
DEFAULT_255_1_388
10
22.8422681
20
76.5862519
40
0.3730641
50
263.1757928
51
270.1031044
0
ARC
8
DEFAULT_255_1_388
10
22.845876
20
76.7265511
40
0.5133712
50
269.6722503
51
279.0606936
0
ARC
8
DEFAULT_255_1_388
10
22.8758916
20
76.545115
40
0.3294739
50
278.8749101
51
293.6349581
0
ARC
8
DEFAULT_255_1_388
10
22.9119119
20
76.4605251
40
0.2375405
50
293.8553806
51
310.0518171
0
ARC
8
DEFAULT_255_1_388
10
22.9124628
20
76.4535021
40
0.2318463
50
311.0644687
51
332.0111037
0
ARC
8
DEFAULT_255_1_388
10
22.7783302
20
76.5274702
40
0.3850112
50
331.6586806
51
343.2877423
0
ARC
8
DEFAULT_255_1_388
10
22.5462767
20
76.5987806
40
0.6277712
50
343.1446576
51
351.0103568
0
ARC
8
DEFAULT_255_1_388
10
22.383009
20
76.6287873
40
0.7937327
50
350.71248
51
351.1626997
0
LINE
8
DEFAULT_255_1_388
10
23.7781286
20
76.6920775
11
23.7781286
21
76.8285157
0
LINE
8
DEFAULT_255_1_388
10
23.7781286
20
76.8285157
11
23.9037241
21
76.8285157
0
LINE
8
DEFAULT_255_1_388
10
23.6895793
20
77.0598282
11
23.5224199
21
77.0598282
0
LINE
8
DEFAULT_255_1_388
10
23.5106735
20
76.4363688
11
23.6787365
21
76.4363688
0
LINE
8
DEFAULT_255_1_388
10
23.9037241
20
76.6920775
11
23.7781286
21
76.6920775
0
ARC
8
DEFAULT_255_1_388
10
23.9004467
20
77.2101922
40
0.3816905
50
270.491971
51
281.8953028
0
ARC
8
DEFAULT_255_1_388
10
23.9275894
20
77.0862199
40
0.2547877
50
281.6690378
51
301.2943765
0
ARC
8
DEFAULT_255_1_388
10
23.9467345
20
77.0511926
40
0.2149197
50
301.7834992
51
311.754567
0
ARC
8
DEFAULT_255_1_388
10
23.9570387
20
77.039765
40
0.1995326
50
311.7325027
51
354.2803031
0
ARC
8
DEFAULT_255_1_388
10
23.8752803
20
77.053828
40
0.2823461
50
353.0941646
51
0.1174696
0
ARC
8
DEFAULT_255_1_388
10
23.8234361
20
77.0591874
40
0.3342238
50
359.1804452
51
15.0452323
0
ARC
8
DEFAULT_255_1_388
10
23.9748419
20
77.1033546
40
0.1765747
50
13.957816
51
77.6713812
0
ARC
8
DEFAULT_255_1_388
10
23.9313655
20
76.9475464
40
0.3381982
50
76.111571
51
90.7028736
0
ARC
8
DEFAULT_255_1_388
10
23.9247067
20
76.978325
40
0.3074046
50
89.5321574
51
103.5319393
0
ARC
8
DEFAULT_255_1_388
10
23.9021451
20
77.0682443
40
0.2147041
50
103.2930114
51
133.5619756
0
ARC
8
DEFAULT_255_1_388
10
23.8971392
20
77.0749351
40
0.2064084
50
133.8349761
51
173.5343225
0
ARC
8
DEFAULT_255_1_388
10
23.978505
20
77.0605144
40
0.2889266
50
172.5097183
51
180.1360699
0
ARC
8
DEFAULT_255_1_388
10
23.8714814
20
77.064388
40
0.3490913
50
155.3483706
51
180.7484035
0
ARC
8
DEFAULT_255_1_388
10
23.8659789
20
77.0611519
40
0.3454798
50
131.5745177
51
154.4799474
0
ARC
8
DEFAULT_255_1_388
10
23.9012072
20
77.0255422
40
0.3955058
50
96.9874487
51
131.9690874
0
ARC
8
DEFAULT_255_1_388
10
23.9258964
20
76.8854407
40
0.537622
50
89.8592909
51
97.7827481
0
ARC
8
DEFAULT_255_1_388
10
23.9313073
20
76.855936
40
0.5671399
50
78.3654493
51
90.4132586
0
ARC
8
DEFAULT_255_1_388
10
23.9715715
20
77.0425918
40
0.3762034
50
56.6229818
51
78.6387103
0
ARC
8
DEFAULT_255_1_388
10
23.9957544
20
77.0848846
40
0.3275964
50
47.0254604
51
56.085558
0
ARC
8
DEFAULT_255_1_388
10
23.9979795
20
77.0893189
40
0.3228382
50
10.9207523
51
46.777927
0
ARC
8
DEFAULT_255_1_388
10
23.8445389
20
77.0538401
40
0.4802559
50
359.6364235
51
11.6087615
0
ARC
8
DEFAULT_255_1_388
10
24.0509554
20
77.0521404
40
0.273833
50
332.3549969
51
359.7179765
0
ARC
8
DEFAULT_255_1_388
10
23.9777955
20
77.0868285
40
0.3547505
50
325.2332381
51
332.8746682
0
ARC
8
DEFAULT_255_1_388
10
23.9949538
20
77.0748763
40
0.3338396
50
292.9803892
51
325.2391113
0
ARC
8
DEFAULT_255_1_388
10
23.9638734
20
77.1353679
40
0.4016959
50
292.542178
51
293.6931461
0
ARC
8
DEFAULT_255_1_388
10
24.0082306
20
76.4088036
40
0.372079
50
57.643292
51
72.8626085
0
ARC
8
DEFAULT_255_1_388
10
24.048114
20
76.4734273
40
0.2961455
50
36.7246661
51
57.4701329
0
ARC
8
DEFAULT_255_1_388
10
24.0468297
20
76.474847
40
0.2963321
50
8.054535
51
36.3561529
0
ARC
8
DEFAULT_255_1_388
10
23.949797
20
76.4574073
40
0.3948682
50
359.8316595
51
8.5873361
0
ARC
8
DEFAULT_255_1_388
10
23.9075444
20
76.451997
40
0.4371398
50
343.9831631
51
0.557075
0
ARC
8
DEFAULT_255_1_388
10
24.0072493
20
76.4246963
40
0.3337749
50
311.6358204
51
343.7652116
0
ARC
8
DEFAULT_255_1_388
10
23.9646747
20
76.4726955
40
0.3979351
50
279.7829743
51
311.625622
0
ARC
8
DEFAULT_255_1_388
10
23.9307882
20
76.6343642
40
0.5630417
50
269.7285092
51
280.3857694
0
ARC
8
DEFAULT_255_1_388
10
23.9238195
20
76.6297241
40
0.5584119
50
256.6827433
51
270.4412869
0
ARC
8
DEFAULT_255_1_388
10
23.8857182
20
76.4739698
40
0.3980715
50
229.4223821
51
256.8554507
0
ARC
8
DEFAULT_255_1_388
10
23.8390735
20
76.4214683
40
0.3278564
50
181.8183354
51
229.6455015
0
ARC
8
DEFAULT_255_1_388
10
23.9560345
20
76.4361825
40
0.4453611
50
179.9760419
51
183.2330638
0
ARC
8
DEFAULT_255_1_388
10
23.9366897
20
76.4338781
40
0.2579652
50
179.4467996
51
196.2871626
0
ARC
8
DEFAULT_255_1_388
10
23.8818351
20
76.4188709
40
0.2011057
50
196.5661293
51
227.7059371
0
ARC
8
DEFAULT_255_1_388
10
23.9002958
20
76.4395155
40
0.2287994
50
227.7653015
51
257.8763321
0
ARC
8
DEFAULT_255_1_388
10
23.9256041
20
76.5455961
40
0.3378385
50
257.4583525
51
270.4267406
0
ARC
8
DEFAULT_255_1_388
10
23.9307291
20
76.578223
40
0.3704652
50
269.5965319
51
280.8788143
0
ARC
8
DEFAULT_255_1_388
10
23.9565519
20
76.4492529
40
0.2389415
50
280.6347277
51
299.8594068
0
ARC
8
DEFAULT_255_1_388
10
23.9780288
20
76.4084736
40
0.19289
50
300.3575552
51
314.5515667
0
ARC
8
DEFAULT_255_1_388
10
23.9686964
20
76.4153025
40
0.204312
50
315.0730962
51
345.0429362
0
ARC
8
DEFAULT_255_1_388
10
23.8648471
20
76.4455539
40
0.31246
50
344.598526
51
357.9270698
0
ARC
8
DEFAULT_255_1_388
10
23.7638776
20
76.4524705
40
0.4136265
50
357.4755098
51
0.0224936
0
ARC
8
DEFAULT_255_1_388
10
23.8791654
20
76.4552099
40
0.2983498
50
359.5051035
51
13.4236939
0
ARC
8
DEFAULT_255_1_388
10
23.9766744
20
76.4801637
40
0.1977186
50
12.9497905
51
48.7550905
0
ARC
8
DEFAULT_255_1_388
10
23.9561666
20
76.4521373
40
0.2323321
50
49.509109
51
72.1832965
0
ARC
8
DEFAULT_255_1_388
10
23.9159134
20
76.3326632
40
0.358397
50
71.9008458
51
84.3555134
0
ARC
8
DEFAULT_255_1_388
10
23.8977529
20
76.1794712
40
0.512641
50
84.019632
51
89.3326067
0
LINE
8
DEFAULT_255_1_388
10
21.5246389
20
84.0269
11
21.1605024
21
84.0269
0
LINE
8
DEFAULT_255_1_388
10
21.1605024
20
84.0269
11
21.1605024
21
85.3424898
0
LINE
8
DEFAULT_255_1_388
10
21.1605024
20
85.3424898
11
21.5318674
21
85.3424898
0
LINE
8
DEFAULT_255_1_388
10
22.1119558
20
84.7289696
11
22.1119558
21
84.6449381
0
LINE
8
DEFAULT_255_1_388
10
21.5363852
20
85.1997267
11
21.3339868
21
85.1997267
0
LINE
8
DEFAULT_255_1_388
10
21.3339868
20
85.1997267
11
21.3339868
21
84.1687596
0
LINE
8
DEFAULT_255_1_388
10
21.3339868
20
84.1687596
11
21.5165068
21
84.1687596
0
LINE
8
DEFAULT_255_1_388
10
21.9402785
20
84.6485523
11
21.9402785
21
84.7253553
0
ARC
8
DEFAULT_255_1_388
10
21.5362469
20
84.6826436
40
0.6598608
50
75.4100343
51
90.3802731
0
ARC
8
DEFAULT_255_1_388
10
21.5620714
20
84.7902691
40
0.5492049
50
60.1455157
51
75.1889627
0
ARC
8
DEFAULT_255_1_388
10
21.5799306
20
84.8213914
40
0.5133226
50
26.525419
51
60.1451222
0
ARC
8
DEFAULT_255_1_388
10
21.4539092
20
84.7545642
40
0.6559324
50
7.4029944
51
26.832209
0
ARC
8
DEFAULT_255_1_388
10
21.2745489
20
84.7266229
40
0.8374103
50
0.1605597
51
7.7176135
0
ARC
8
DEFAULT_255_1_388
10
21.2929889
20
84.6406321
40
0.8189782
50
348.7289744
51
0.30125
0
ARC
8
DEFAULT_255_1_388
10
21.4793353
20
84.6036156
40
0.628991
50
333.0706936
51
348.7181455
0
ARC
8
DEFAULT_255_1_388
10
21.5880981
20
84.5445449
40
0.5052808
50
299.2531435
51
333.4571133
0
ARC
8
DEFAULT_255_1_388
10
21.5475012
20
84.6216629
40
0.5924066
50
278.1072193
51
299.0340218
0
ARC
8
DEFAULT_255_1_388
10
21.5187061
20
84.7912979
40
0.7644209
50
270.4446841
51
278.4508355
0
ARC
8
DEFAULT_255_1_388
10
21.5210545
20
84.68673
40
0.5179903
50
269.4969684
51
284.0204874
0
ARC
8
DEFAULT_255_1_388
10
21.5610263
20
84.5331415
40
0.3592968
50
283.7699076
51
318.1557121
0
ARC
8
DEFAULT_255_1_388
10
21.5230808
20
84.5615399
40
0.4065308
50
318.7417595
51
343.687252
0
ARC
8
DEFAULT_255_1_388
10
21.3201387
20
84.6249275
40
0.6191194
50
343.3324891
51
355.8548594
0
ARC
8
DEFAULT_255_1_388
10
21.0840424
20
84.6473719
40
0.856237
50
355.4988754
51
0.0789913
0
ARC
8
DEFAULT_255_1_388
10
21.1721224
20
84.730108
40
0.7681709
50
359.6455047
51
9.8607559
0
ARC
8
DEFAULT_255_1_388
10
21.4376947
20
84.7780664
40
0.498312
50
9.6573037
51
26.1931522
0
ARC
8
DEFAULT_255_1_388
10
21.5421022
20
84.8265587
40
0.3832303
50
26.5777895
51
40.1533752
0
ARC
8
DEFAULT_255_1_388
10
21.5708687
20
84.849002
40
0.3467742
50
40.3839958
51
80.1430923
0
ARC
8
DEFAULT_255_1_388
10
21.5340942
20
84.6859486
40
0.5137832
50
79.2153636
51
89.7445174
0
LINE
8
DEFAULT_255_1_388
10
23.167319
20
84.4443468
11
23.341707
21
84.4443468
0
LINE
8
DEFAULT_255_1_388
10
22.3288112
20
84.6232525
11
22.3288112
21
84.7497516
0
LINE
8
DEFAULT_255_1_388
10
23.341707
20
84.9196217
11
23.167319
21
84.9196217
0
LINE
8
DEFAULT_255_1_388
10
22.5031992
20
84.7452337
11
22.5031992
21
84.6178312
0
ARC
8
DEFAULT_255_1_388
10
22.7251304
20
84.5115329
40
0.6202263
50
340.1774904
51
353.7812217
0
ARC
8
DEFAULT_255_1_388
10
22.9019157
20
84.4456893
40
0.4315926
50
311.4560052
51
340.4420756
0
ARC
8
DEFAULT_255_1_388
10
22.8981696
20
84.4581665
40
0.4434573
50
282.4332229
51
310.7514507
0
ARC
8
DEFAULT_255_1_388
10
22.8487514
20
84.6623703
40
0.6535262
50
269.9358869
51
282.8096729
0
ARC
8
DEFAULT_255_1_388
10
22.8429454
20
84.8136329
40
0.8048043
50
269.9995752
51
270.3612856
0
ARC
8
DEFAULT_255_1_388
10
22.8369944
20
84.5337781
40
0.5249831
50
250.7885263
51
270.6488451
0
ARC
8
DEFAULT_255_1_388
10
22.8180768
20
84.4620853
40
0.4510942
50
219.3628377
51
250.0611024
0
ARC
8
DEFAULT_255_1_388
10
22.9113643
20
84.5413653
40
0.5735046
50
193.5480293
51
219.5755675
0
ARC
8
DEFAULT_255_1_388
10
23.1781852
20
84.610652
40
0.849146
50
181.1220183
51
193.8754971
0
ARC
8
DEFAULT_255_1_388
10
23.4105085
20
84.6230914
40
1.0816971
50
179.9914644
51
181.5398227
0
ARC
8
DEFAULT_255_1_388
10
23.2028395
20
84.7539586
40
0.8740384
50
169.5837606
51
180.275782
0
ARC
8
DEFAULT_255_1_388
10
22.9961743
20
84.7921439
40
0.6638751
50
155.0367033
51
169.6002779
0
ARC
8
DEFAULT_255_1_388
10
22.8684202
20
84.8537336
40
0.5220662
50
136.7831557
51
155.2472983
0
ARC
8
DEFAULT_255_1_388
10
22.8245992
20
84.8909577
40
0.4646502
50
121.7633063
51
136.4281161
0
ARC
8
DEFAULT_255_1_388
10
22.8397832
20
84.8629049
40
0.4964979
50
95.6460018
51
121.5489589
0
ARC
8
DEFAULT_255_1_388
10
22.8574807
20
84.7381704
40
0.6223912
50
89.9245727
51
96.1375919
0
ARC
8
DEFAULT_255_1_388
10
22.8631512
20
84.7515721
40
0.6090084
50
76.6779212
51
90.456405
0
ARC
8
DEFAULT_255_1_388
10
22.9074324
20
84.930506
40
0.42469
50
47.4858803
51
76.9287069
0
ARC
8
DEFAULT_255_1_388
10
22.8908938
20
84.9192623
40
0.4441778
50
16.5424081
51
46.8934505
0
ARC
8
DEFAULT_255_1_388
10
22.7099988
20
84.8598265
40
0.6345318
50
5.4072971
51
17.0363711
0
ARC
8
DEFAULT_255_1_388
10
22.5481713
20
84.8338304
40
0.6250632
50
7.8888693
51
15.9242022
0
ARC
8
DEFAULT_255_1_388
10
22.7716699
20
84.8987309
40
0.3923364
50
15.7650676
51
27.9410069
0
ARC
8
DEFAULT_255_1_388
10
22.8958868
20
84.9652317
40
0.2514401
50
27.8167196
51
46.4007942
0
ARC
8
DEFAULT_255_1_388
10
22.9014709
20
84.9645882
40
0.2480958
50
47.4372362
51
75.0695672
0
ARC
8
DEFAULT_255_1_388
10
22.8667545
20
84.8437277
40
0.3738281
50
74.7009379
51
87.8124314
0
ARC
8
DEFAULT_255_1_388
10
22.8585162
20
84.7253659
40
0.4924321
50
87.3802571
51
90.0251599
0
ARC
8
DEFAULT_255_1_388
10
22.854181
20
84.8573997
40
0.3604218
50
89.3451886
51
108.5744412
0
ARC
8
DEFAULT_255_1_388
10
22.8387802
20
84.9151836
40
0.3007661
50
109.2998307
51
143.3037387
0
ARC
8
DEFAULT_255_1_388
10
22.9245092
20
84.8492584
40
0.4089031
50
143.075267
51
163.1918576
0
ARC
8
DEFAULT_255_1_388
10
23.1440926
20
84.7799652
40
0.6391492
50
162.9375929
51
174.6208776
0
ARC
8
DEFAULT_255_1_388
10
23.4395308
20
84.7475711
40
0.9363344
50
174.342123
51
180.1430283
0
ARC
8
DEFAULT_255_1_388
10
23.3347849
20
84.6132117
40
0.8315986
50
179.6817261
51
189.150555
0
ARC
8
DEFAULT_255_1_388
10
23.0534598
20
84.5663559
40
0.5464044
50
188.9911061
51
203.5772363
0
ARC
8
DEFAULT_255_1_388
10
22.931989
20
84.5159539
40
0.4149206
50
203.9075402
51
215.1312435
0
ARC
8
DEFAULT_255_1_388
10
22.8281687
20
84.4354907
40
0.2837747
50
213.9071511
51
263.8848919
0
ARC
8
DEFAULT_255_1_388
10
22.8422681
20
84.5237519
40
0.3730641
50
263.1757928
51
270.1031044
0
ARC
8
DEFAULT_255_1_388
10
22.845876
20
84.6640511
40
0.5133712
50
269.6722503
51
279.0606936
0
ARC
8
DEFAULT_255_1_388
10
22.8758916
20
84.482615
40
0.3294739
50
278.8749101
51
293.6349581
0
ARC
8
DEFAULT_255_1_388
10
22.9119119
20
84.3980251
40
0.2375405
50
293.8553806
51
310.0518171
0
ARC
8
DEFAULT_255_1_388
10
22.9124628
20
84.3910021
40
0.2318463
50
311.0644687
51
332.0111037
0
ARC
8
DEFAULT_255_1_388
10
22.7783302
20
84.4649702
40
0.3850112
50
331.6586806
51
343.2877423
0
ARC
8
DEFAULT_255_1_388
10
22.5462767
20
84.5362806
40
0.6277712
50
343.1446576
51
351.0103568
0
ARC
8
DEFAULT_255_1_388
10
22.383009
20
84.5662873
40
0.7937327
50
350.71248
51
351.1626997
0
LINE
8
DEFAULT_255_1_388
10
24.3970703
20
84.1633382
11
24.3970703
21
84.0269
0
LINE
8
DEFAULT_255_1_388
10
24.3970703
20
84.0269
11
23.5350698
21
84.0269
0
LINE
8
DEFAULT_255_1_388
10
23.5350698
20
84.0269
11
23.5350698
21
84.1470741
0
LINE
8
DEFAULT_255_1_388
10
23.5350698
20
84.1470741
11
23.9904663
21
84.6530702
0
LINE
8
DEFAULT_255_1_388
10
23.6769294
20
84.9548607
11
23.50977
21
84.9548607
0
LINE
8
DEFAULT_255_1_388
10
24.0889548
20
84.545546
11
23.7365646
21
84.1633382
0
LINE
8
DEFAULT_255_1_388
10
23.7365646
20
84.1633382
11
24.3970703
21
84.1633382
0
ARC
8
DEFAULT_255_1_388
10
22.4728722
20
85.9950983
40
2.0258655
50
318.5132526
51
320.7829045
0
ARC
8
DEFAULT_255_1_388
10
23.0676679
20
85.5109929
40
1.2589638
50
320.7372878
51
323.9739031
0
ARC
8
DEFAULT_255_1_388
10
23.5085611
20
85.1915554
40
0.7145141
50
323.8962701
51
328.64194
0
ARC
8
DEFAULT_255_1_388
10
23.7387868
20
85.0495545
40
0.4440242
50
328.8294576
51
331.7891185
0
ARC
8
DEFAULT_255_1_388
10
23.8510188
20
84.9916374
40
0.3177517
50
331.4254512
51
352.9365785
0
ARC
8
DEFAULT_255_1_388
10
23.8663188
20
84.988205
40
0.3021496
50
353.2257659
51
0.0166158
0
ARC
8
DEFAULT_255_1_388
10
23.8899949
20
84.9907894
40
0.2784847
50
359.486299
51
15.9343185
0
ARC
8
DEFAULT_255_1_388
10
23.9470216
20
85.0061269
40
0.2194403
50
16.1712913
51
43.5286088
0
ARC
8
DEFAULT_255_1_388
10
23.955716
20
85.0148191
40
0.2071504
50
43.4417391
51
83.1661095
0
ARC
8
DEFAULT_255_1_388
10
23.9406321
20
84.9319316
40
0.2912888
50
82.160179
51
90.1505708
0
ARC
8
DEFAULT_255_1_388
10
23.9370803
20
84.8715279
40
0.3517025
50
89.5460741
51
102.5418361
0
ARC
8
DEFAULT_255_1_388
10
23.9097523
20
84.9874933
40
0.2325748
50
102.1738499
51
129.206123
0
ARC
8
DEFAULT_255_1_388
10
23.9008976
20
85.0014664
40
0.2161591
50
129.72865
51
135.753947
0
ARC
8
DEFAULT_255_1_388
10
23.9145459
20
84.9905728
40
0.2335433
50
136.1757367
51
166.3673339
0
ARC
8
DEFAULT_255_1_388
10
24.0278147
20
84.9602148
40
0.3507873
50
165.9090694
51
178.8684636
0
ARC
8
DEFAULT_255_1_388
10
24.1253918
20
84.9549263
40
0.4484624
50
178.4391136
51
180.0083808
0
ARC
8
DEFAULT_255_1_388
10
23.967462
20
84.9593197
40
0.4577138
50
163.2878482
51
180.5581842
0
ARC
8
DEFAULT_255_1_388
10
23.8772661
20
84.9841393
40
0.3641968
50
133.4540601
51
162.947111
0
ARC
8
DEFAULT_255_1_388
10
23.8973543
20
84.9627789
40
0.3935189
50
100.7869829
51
133.4382499
0
ARC
8
DEFAULT_255_1_388
10
23.9364788
20
84.7885399
40
0.5720313
50
89.660664
51
101.3702276
0
ARC
8
DEFAULT_255_1_388
10
23.9439397
20
84.7954263
40
0.5651495
50
78.2172678
51
90.412935
0
ARC
8
DEFAULT_255_1_388
10
23.9838863
20
84.9781511
40
0.378122
50
55.9269121
51
78.4888449
0
ARC
8
DEFAULT_255_1_388
10
24.0059578
20
85.0162187
40
0.3342379
50
47.929771
51
55.4049217
0
ARC
8
DEFAULT_255_1_388
10
24.0174108
20
85.0278618
40
0.3179217
50
4.334829
51
48.0560205
0
ARC
8
DEFAULT_255_1_388
10
23.894191
20
85.0087487
40
0.442341
50
359.9251713
51
5.5971671
0
ARC
8
DEFAULT_255_1_388
10
23.9424064
20
85.0150728
40
0.3941854
50
337.8914027
51
358.9967534
0
ARC
8
DEFAULT_255_1_388
10
23.6371635
20
85.1328295
40
0.7213271
50
326.9132501
51
338.3508308
0
ARC
8
DEFAULT_255_1_388
10
23.1887746
20
85.4202105
40
1.2538973
50
319.6471833
51
327.0959558
0
ARC
8
DEFAULT_255_1_388
10
22.7574405
20
85.776005
40
1.8129975
50
317.2588228
51
319.9045804
0
LINE
8
DEFAULT_255_1_388
10
21.5337389
20
91.9644
11
21.1696024
21
91.9644
0
LINE
8
DEFAULT_255_1_388
10
21.1696024
20
91.9644
11
21.1696024
21
93.2799898
0
LINE
8
DEFAULT_255_1_388
10
21.1696024
20
93.2799898
11
21.5409674
21
93.2799898
0
LINE
8
DEFAULT_255_1_388
10
22.1210558
20
92.6664696
11
22.1210558
21
92.5824381
0
LINE
8
DEFAULT_255_1_388
10
21.5454852
20
93.1372267
11
21.3430868
21
93.1372267
0
LINE
8
DEFAULT_255_1_388
10
21.3430868
20
93.1372267
11
21.3430868
21
92.1062596
0
LINE
8
DEFAULT_255_1_388
10
21.3430868
20
92.1062596
11
21.5256068
21
92.1062596
0
LINE
8
DEFAULT_255_1_388
10
21.9493785
20
92.5860523
11
21.9493785
21
92.6628553
0
ARC
8
DEFAULT_255_1_388
10
21.5453469
20
92.6201436
40
0.6598608
50
75.4100343
51
90.3802731
0
ARC
8
DEFAULT_255_1_388
10
21.5711714
20
92.7277691
40
0.5492049
50
60.1455157
51
75.1889627
0
ARC
8
DEFAULT_255_1_388
10
21.5890306
20
92.7588914
40
0.5133226
50
26.525419
51
60.1451222
0
ARC
8
DEFAULT_255_1_388
10
21.4630092
20
92.6920642
40
0.6559324
50
7.4029944
51
26.832209
0
ARC
8
DEFAULT_255_1_388
10
21.2836489
20
92.6641229
40
0.8374103
50
0.1605597
51
7.7176135
0
ARC
8
DEFAULT_255_1_388
10
21.3020889
20
92.5781321
40
0.8189782
50
348.7289744
51
0.30125
0
ARC
8
DEFAULT_255_1_388
10
21.4884353
20
92.5411156
40
0.628991
50
333.0706936
51
348.7181455
0
ARC
8
DEFAULT_255_1_388
10
21.5971981
20
92.4820449
40
0.5052808
50
299.2531435
51
333.4571133
0
ARC
8
DEFAULT_255_1_388
10
21.5566012
20
92.5591629
40
0.5924066
50
278.1072193
51
299.0340218
0
ARC
8
DEFAULT_255_1_388
10
21.5278061
20
92.7287979
40
0.7644209
50
270.4446841
51
278.4508355
0
ARC
8
DEFAULT_255_1_388
10
21.5301545
20
92.62423
40
0.5179903
50
269.4969684
51
284.0204874
0
ARC
8
DEFAULT_255_1_388
10
21.5701263
20
92.4706415
40
0.3592968
50
283.7699076
51
318.1557121
0
ARC
8
DEFAULT_255_1_388
10
21.5321808
20
92.4990399
40
0.4065308
50
318.7417595
51
343.687252
0
ARC
8
DEFAULT_255_1_388
10
21.3292387
20
92.5624275
40
0.6191194
50
343.3324891
51
355.8548594
0
ARC
8
DEFAULT_255_1_388
10
21.0931424
20
92.5848719
40
0.856237
50
355.4988754
51
0.0789913
0
ARC
8
DEFAULT_255_1_388
10
21.1812224
20
92.667608
40
0.7681709
50
359.6455047
51
9.8607559
0
ARC
8
DEFAULT_255_1_388
10
21.4467947
20
92.7155664
40
0.498312
50
9.6573037
51
26.1931522
0
ARC
8
DEFAULT_255_1_388
10
21.5512022
20
92.7640587
40
0.3832303
50
26.5777895
51
40.1533752
0
ARC
8
DEFAULT_255_1_388
10
21.5799687
20
92.786502
40
0.3467742
50
40.3839958
51
80.1430923
0
ARC
8
DEFAULT_255_1_388
10
21.5431942
20
92.6234486
40
0.5137832
50
79.2153636
51
89.7445174
0
LINE
8
DEFAULT_255_1_388
10
23.176419
20
92.3818468
11
23.350807
21
92.3818468
0
LINE
8
DEFAULT_255_1_388
10
22.3379112
20
92.5607525
11
22.3379112
21
92.6872516
0
LINE
8
DEFAULT_255_1_388
10
23.350807
20
92.8571217
11
23.176419
21
92.8571217
0
LINE
8
DEFAULT_255_1_388
10
22.5122992
20
92.6827337
11
22.5122992
21
92.5553312
0
ARC
8
DEFAULT_255_1_388
10
22.7342304
20
92.4490329
40
0.6202263
50
340.1774904
51
353.7812217
0
ARC
8
DEFAULT_255_1_388
10
22.9110157
20
92.3831893
40
0.4315926
50
311.4560052
51
340.4420756
0
ARC
8
DEFAULT_255_1_388
10
22.9072696
20
92.3956665
40
0.4434573
50
282.4332229
51
310.7514507
0
ARC
8
DEFAULT_255_1_388
10
22.8578514
20
92.5998703
40
0.6535262
50
269.9358869
51
282.8096729
0
ARC
8
DEFAULT_255_1_388
10
22.8520454
20
92.7511329
40
0.8048043
50
269.9995752
51
270.3612856
0
ARC
8
DEFAULT_255_1_388
10
22.8460944
20
92.4712781
40
0.5249831
50
250.7885263
51
270.6488451
0
ARC
8
DEFAULT_255_1_388
10
22.8271768
20
92.3995853
40
0.4510942
50
219.3628377
51
250.0611024
0
ARC
8
DEFAULT_255_1_388
10
22.9204643
20
92.4788653
40
0.5735046
50
193.5480293
51
219.5755675
0
ARC
8
DEFAULT_255_1_388
10
23.1872852
20
92.548152
40
0.849146
50
181.1220183
51
193.8754971
0
ARC
8
DEFAULT_255_1_388
10
23.4196085
20
92.5605914
40
1.0816971
50
179.9914644
51
181.5398227
0
ARC
8
DEFAULT_255_1_388
10
23.2119395
20
92.6914586
40
0.8740384
50
169.5837606
51
180.275782
0
ARC
8
DEFAULT_255_1_388
10
23.0052743
20
92.7296439
40
0.6638751
50
155.0367033
51
169.6002779
0
ARC
8
DEFAULT_255_1_388
10
22.8775202
20
92.7912336
40
0.5220662
50
136.7831557
51
155.2472983
0
ARC
8
DEFAULT_255_1_388
10
22.8336992
20
92.8284577
40
0.4646502
50
121.7633063
51
136.4281161
0
ARC
8
DEFAULT_255_1_388
10
22.8488832
20
92.8004049
40
0.4964979
50
95.6460018
51
121.5489589
0
ARC
8
DEFAULT_255_1_388
10
22.8665807
20
92.6756704
40
0.6223912
50
89.9245727
51
96.1375919
0
ARC
8
DEFAULT_255_1_388
10
22.8722512
20
92.6890721
40
0.6090084
50
76.6779212
51
90.456405
0
ARC
8
DEFAULT_255_1_388
10
22.9165324
20
92.868006
40
0.42469
50
47.4858803
51
76.9287069
0
ARC
8
DEFAULT_255_1_388
10
22.8999938
20
92.8567623
40
0.4441778
50
16.5424081
51
46.8934505
0
ARC
8
DEFAULT_255_1_388
10
22.7190988
20
92.7973265
40
0.6345318
50
5.4072971
51
17.0363711
0
ARC
8
DEFAULT_255_1_388
10
22.5572713
20
92.7713304
40
0.6250632
50
7.8888693
51
15.9242022
0
ARC
8
DEFAULT_255_1_388
10
22.7807699
20
92.8362309
40
0.3923364
50
15.7650676
51
27.9410069
0
ARC
8
DEFAULT_255_1_388
10
22.9049868
20
92.9027317
40
0.2514401
50
27.8167196
51
46.4007942
0
ARC
8
DEFAULT_255_1_388
10
22.9105709
20
92.9020882
40
0.2480958
50
47.4372362
51
75.0695672
0
ARC
8
DEFAULT_255_1_388
10
22.8758545
20
92.7812277
40
0.3738281
50
74.7009379
51
87.8124314
0
ARC
8
DEFAULT_255_1_388
10
22.8676162
20
92.6628659
40
0.4924321
50
87.3802571
51
90.0251599
0
ARC
8
DEFAULT_255_1_388
10
22.863281
20
92.7948997
40
0.3604218
50
89.3451886
51
108.5744412
0
ARC
8
DEFAULT_255_1_388
10
22.8478802
20
92.8526836
40
0.3007661
50
109.2998307
51
143.3037387
0
ARC
8
DEFAULT_255_1_388
10
22.9336092
20
92.7867584
40
0.4089031
50
143.075267
51
163.1918576
0
ARC
8
DEFAULT_255_1_388
10
23.1531926
20
92.7174652
40
0.6391492
50
162.9375929
51
174.6208776
0
ARC
8
DEFAULT_255_1_388
10
23.4486308
20
92.6850711
40
0.9363344
50
174.342123
51
180.1430283
0
ARC
8
DEFAULT_255_1_388
10
23.3438849
20
92.5507117
40
0.8315986
50
179.6817261
51
189.150555
0
ARC
8
DEFAULT_255_1_388
10
23.0625598
20
92.5038559
40
0.5464044
50
188.9911061
51
203.5772363
0
ARC
8
DEFAULT_255_1_388
10
22.941089
20
92.4534539
40
0.4149206
50
203.9075402
51
215.1312435
0
ARC
8
DEFAULT_255_1_388
10
22.8372687
20
92.3729907
40
0.2837747
50
213.9071511
51
263.8848919
0
ARC
8
DEFAULT_255_1_388
10
22.8513681
20
92.4612519
40
0.3730641
50
263.1757928
51
270.1031044
0
ARC
8
DEFAULT_255_1_388
10
22.854976
20
92.6015511
40
0.5133712
50
269.6722503
51
279.0606936
0
ARC
8
DEFAULT_255_1_388
10
22.8849916
20
92.420115
40
0.3294739
50
278.8749101
51
293.6349581
0
ARC
8
DEFAULT_255_1_388
10
22.9210119
20
92.3355251
40
0.2375405
50
293.8553806
51
310.0518171
0
ARC
8
DEFAULT_255_1_388
10
22.9215628
20
92.3285021
40
0.2318463
50
311.0644687
51
332.0111037
0
ARC
8
DEFAULT_255_1_388
10
22.7874302
20
92.4024702
40
0.3850112
50
331.6586806
51
343.2877423
0
ARC
8
DEFAULT_255_1_388
10
22.5553767
20
92.4737806
40
0.6277712
50
343.1446576
51
351.0103568
0
ARC
8
DEFAULT_255_1_388
10
22.392109
20
92.5037873
40
0.7937327
50
350.71248
51
351.1626997
0
LINE
8
DEFAULT_255_1_388
10
24.093537
20
93.2863148
11
24.093537
21
91.9644
0
LINE
8
DEFAULT_255_1_388
10
24.093537
20
91.9644
11
23.925474
21
91.9644
0
LINE
8
DEFAULT_255_1_388
10
23.925474
20
91.9644
11
23.925474
21
93.078495
0
LINE
8
DEFAULT_255_1_388
10
23.925474
20
93.078495
11
23.5884444
21
92.9547066
0
LINE
8
DEFAULT_255_1_388
10
23.5884444
20
92.9547066
11
23.5884444
21
93.1065055
0
LINE
8
DEFAULT_255_1_388
10
23.5884444
20
93.1065055
11
24.0673336
21
93.2863148
0
LINE
8
DEFAULT_255_1_388
10
24.0673336
20
93.2863148
11
24.093537
21
93.2863148
0
LINE
8
DEFAULT_255_1_388
10
21.5246389
20
99.9019
11
21.1605024
21
99.9019
0
LINE
8
DEFAULT_255_1_388
10
21.1605024
20
99.9019
11
21.1605024
21
101.2174898
0
LINE
8
DEFAULT_255_1_388
10
21.1605024
20
101.2174898
11
21.5318674
21
101.2174898
0
LINE
8
DEFAULT_255_1_388
10
22.1119558
20
100.6039696
11
22.1119558
21
100.5199381
0
LINE
8
DEFAULT_255_1_388
10
21.5363852
20
101.0747267
11
21.3339868
21
101.0747267
0
LINE
8
DEFAULT_255_1_388
10
21.3339868
20
101.0747267
11
21.3339868
21
100.0437596
0
LINE
8
DEFAULT_255_1_388
10
21.3339868
20
100.0437596
11
21.5165068
21
100.0437596
0
LINE
8
DEFAULT_255_1_388
10
21.9402785
20
100.5235523
11
21.9402785
21
100.6003553
0
ARC
8
DEFAULT_255_1_388
10
21.5362469
20
100.5576436
40
0.6598608
50
75.4100343
51
90.3802731
0
ARC
8
DEFAULT_255_1_388
10
21.5620714
20
100.6652691
40
0.5492049
50
60.1455157
51
75.1889627
0
ARC
8
DEFAULT_255_1_388
10
21.5799306
20
100.6963914
40
0.5133226
50
26.525419
51
60.1451222
0
ARC
8
DEFAULT_255_1_388
10
21.4539092
20
100.6295642
40
0.6559324
50
7.4029944
51
26.832209
0
ARC
8
DEFAULT_255_1_388
10
21.2745489
20
100.6016229
40
0.8374103
50
0.1605597
51
7.7176135
0
ARC
8
DEFAULT_255_1_388
10
21.2929889
20
100.5156321
40
0.8189782
50
348.7289744
51
0.30125
0
ARC
8
DEFAULT_255_1_388
10
21.4793353
20
100.4786156
40
0.628991
50
333.0706936
51
348.7181455
0
ARC
8
DEFAULT_255_1_388
10
21.5880981
20
100.4195449
40
0.5052808
50
299.2531435
51
333.4571133
0
ARC
8
DEFAULT_255_1_388
10
21.5475012
20
100.4966629
40
0.5924066
50
278.1072193
51
299.0340218
0
ARC
8
DEFAULT_255_1_388
10
21.5187061
20
100.6662979
40
0.7644209
50
270.4446841
51
278.4508355
0
ARC
8
DEFAULT_255_1_388
10
21.5210545
20
100.56173
40
0.5179903
50
269.4969684
51
284.0204874
0
ARC
8
DEFAULT_255_1_388
10
21.5610263
20
100.4081415
40
0.3592968
50
283.7699076
51
318.1557121
0
ARC
8
DEFAULT_255_1_388
10
21.5230808
20
100.4365399
40
0.4065308
50
318.7417595
51
343.687252
0
ARC
8
DEFAULT_255_1_388
10
21.3201387
20
100.4999275
40
0.6191194
50
343.3324891
51
355.8548594
0
ARC
8
DEFAULT_255_1_388
10
21.0840424
20
100.5223719
40
0.856237
50
355.4988754
51
0.0789913
0
ARC
8
DEFAULT_255_1_388
10
21.1721224
20
100.605108
40
0.7681709
50
359.6455047
51
9.8607559
0
ARC
8
DEFAULT_255_1_388
10
21.4376947
20
100.6530664
40
0.498312
50
9.6573037
51
26.1931522
0
ARC
8
DEFAULT_255_1_388
10
21.5421022
20
100.7015587
40
0.3832303
50
26.5777895
51
40.1533752
0
ARC
8
DEFAULT_255_1_388
10
21.5708687
20
100.724002
40
0.3467742
50
40.3839958
51
80.1430923
0
ARC
8
DEFAULT_255_1_388
10
21.5340942
20
100.5609486
40
0.5137832
50
79.2153636
51
89.7445174
0
LINE
8
DEFAULT_255_1_388
10
23.167319
20
100.3193468
11
23.341707
21
100.3193468
0
LINE
8
DEFAULT_255_1_388
10
22.3288112
20
100.4982525
11
22.3288112
21
100.6247516
0
LINE
8
DEFAULT_255_1_388
10
23.341707
20
100.7946217
11
23.167319
21
100.7946217
0
LINE
8
DEFAULT_255_1_388
10
22.5031992
20
100.6202337
11
22.5031992
21
100.4928312
0
ARC
8
DEFAULT_255_1_388
10
22.7251304
20
100.3865329
40
0.6202263
50
340.1774904
51
353.7812217
0
ARC
8
DEFAULT_255_1_388
10
22.9019157
20
100.3206893
40
0.4315926
50
311.4560052
51
340.4420756
0
ARC
8
DEFAULT_255_1_388
10
22.8981696
20
100.3331665
40
0.4434573
50
282.4332229
51
310.7514507
0
ARC
8
DEFAULT_255_1_388
10
22.8487514
20
100.5373703
40
0.6535262
50
269.9358869
51
282.8096729
0
ARC
8
DEFAULT_255_1_388
10
22.8429454
20
100.6886329
40
0.8048043
50
269.9995752
51
270.3612856
0
ARC
8
DEFAULT_255_1_388
10
22.8369944
20
100.4087781
40
0.5249831
50
250.7885263
51
270.6488451
0
ARC
8
DEFAULT_255_1_388
10
22.8180768
20
100.3370853
40
0.4510942
50
219.3628377
51
250.0611024
0
ARC
8
DEFAULT_255_1_388
10
22.9113643
20
100.4163653
40
0.5735046
50
193.5480293
51
219.5755675
0
ARC
8
DEFAULT_255_1_388
10
23.1781852
20
100.485652
40
0.849146
50
181.1220183
51
193.8754971
0
ARC
8
DEFAULT_255_1_388
10
23.4105085
20
100.4980914
40
1.0816971
50
179.9914644
51
181.5398227
0
ARC
8
DEFAULT_255_1_388
10
23.2028395
20
100.6289586
40
0.8740384
50
169.5837606
51
180.275782
0
ARC
8
DEFAULT_255_1_388
10
22.9961743
20
100.6671439
40
0.6638751
50
155.0367033
51
169.6002779
0
ARC
8
DEFAULT_255_1_388
10
22.8684202
20
100.7287336
40
0.5220662
50
136.7831557
51
155.2472983
0
ARC
8
DEFAULT_255_1_388
10
22.8245992
20
100.7659577
40
0.4646502
50
121.7633063
51
136.4281161
0
ARC
8
DEFAULT_255_1_388
10
22.8397832
20
100.7379049
40
0.4964979
50
95.6460018
51
121.5489589
0
ARC
8
DEFAULT_255_1_388
10
22.8574807
20
100.6131704
40
0.6223912
50
89.9245727
51
96.1375919
0
ARC
8
DEFAULT_255_1_388
10
22.8631512
20
100.6265721
40
0.6090084
50
76.6779212
51
90.456405
0
ARC
8
DEFAULT_255_1_388
10
22.9074324
20
100.805506
40
0.42469
50
47.4858803
51
76.9287069
0
ARC
8
DEFAULT_255_1_388
10
22.8908938
20
100.7942623
40
0.4441778
50
16.5424081
51
46.8934505
0
ARC
8
DEFAULT_255_1_388
10
22.7099988
20
100.7348265
40
0.6345318
50
5.4072971
51
17.0363711
0
ARC
8
DEFAULT_255_1_388
10
22.5481713
20
100.7088304
40
0.6250632
50
7.8888693
51
15.9242022
0
ARC
8
DEFAULT_255_1_388
10
22.7716699
20
100.7737309
40
0.3923364
50
15.7650676
51
27.9410069
0
ARC
8
DEFAULT_255_1_388
10
22.8958868
20
100.8402317
40
0.2514401
50
27.8167196
51
46.4007942
0
ARC
8
DEFAULT_255_1_388
10
22.9014709
20
100.8395882
40
0.2480958
50
47.4372362
51
75.0695672
0
ARC
8
DEFAULT_255_1_388
10
22.8667545
20
100.7187277
40
0.3738281
50
74.7009379
51
87.8124314
0
ARC
8
DEFAULT_255_1_388
10
22.8585162
20
100.6003659
40
0.4924321
50
87.3802571
51
90.0251599
0
ARC
8
DEFAULT_255_1_388
10
22.854181
20
100.7323997
40
0.3604218
50
89.3451886
51
108.5744412
0
ARC
8
DEFAULT_255_1_388
10
22.8387802
20
100.7901836
40
0.3007661
50
109.2998307
51
143.3037387
0
ARC
8
DEFAULT_255_1_388
10
22.9245092
20
100.7242584
40
0.4089031
50
143.075267
51
163.1918576
0
ARC
8
DEFAULT_255_1_388
10
23.1440926
20
100.6549652
40
0.6391492
50
162.9375929
51
174.6208776
0
ARC
8
DEFAULT_255_1_388
10
23.4395308
20
100.6225711
40
0.9363344
50
174.342123
51
180.1430283
0
ARC
8
DEFAULT_255_1_388
10
23.3347849
20
100.4882117
40
0.8315986
50
179.6817261
51
189.150555
0
ARC
8
DEFAULT_255_1_388
10
23.0534598
20
100.4413559
40
0.5464044
50
188.9911061
51
203.5772363
0
ARC
8
DEFAULT_255_1_388
10
22.931989
20
100.3909539
40
0.4149206
50
203.9075402
51
215.1312435
0
ARC
8
DEFAULT_255_1_388
10
22.8281687
20
100.3104907
40
0.2837747
50
213.9071511
51
263.8848919
0
ARC
8
DEFAULT_255_1_388
10
22.8422681
20
100.3987519
40
0.3730641
50
263.1757928
51
270.1031044
0
ARC
8
DEFAULT_255_1_388
10
22.845876
20
100.5390511
40
0.5133712
50
269.6722503
51
279.0606936
0
ARC
8
DEFAULT_255_1_388
10
22.8758916
20
100.357615
40
0.3294739
50
278.8749101
51
293.6349581
0
ARC
8
DEFAULT_255_1_388
10
22.9119119
20
100.2730251
40
0.2375405
50
293.8553806
51
310.0518171
0
ARC
8
DEFAULT_255_1_388
10
22.9124628
20
100.2660021
40
0.2318463
50
311.0644687
51
332.0111037
0
ARC
8
DEFAULT_255_1_388
10
22.7783302
20
100.3399702
40
0.3850112
50
331.6586806
51
343.2877423
0
ARC
8
DEFAULT_255_1_388
10
22.5462767
20
100.4112806
40
0.6277712
50
343.1446576
51
351.0103568
0
ARC
8
DEFAULT_255_1_388
10
22.383009
20
100.4412873
40
0.7937327
50
350.71248
51
351.1626997
0
LINE
8
DEFAULT_255_1_388
10
24.3600241
20
100.679869
11
24.3600241
21
100.4630135
0
LINE
8
DEFAULT_255_1_388
10
23.5296484
20
100.4404244
11
23.5296484
21
100.6636048
0
LINE
8
DEFAULT_255_1_388
10
24.1928647
20
100.4178353
11
24.1928647
21
100.6916153
0
LINE
8
DEFAULT_255_1_388
10
23.6968078
20
100.7042652
11
23.6968078
21
100.4368102
0
ARC
8
DEFAULT_255_1_388
10
22.9822575
20
100.4575118
40
1.3777776
50
353.8440855
51
0.2287917
0
ARC
8
DEFAULT_255_1_388
10
23.5041593
20
100.3992414
40
0.852639
50
344.4934746
51
353.9763743
0
ARC
8
DEFAULT_255_1_388
10
23.84084
20
100.3035191
40
0.5026273
50
329.2803599
51
344.7473406
0
ARC
8
DEFAULT_255_1_388
10
23.9523896
20
100.2423038
40
0.3754848
50
324.9361395
51
328.6153007
0
ARC
8
DEFAULT_255_1_388
10
23.9949545
20
100.2125586
40
0.3235566
50
280.5801797
51
324.9173226
0
ARC
8
DEFAULT_255_1_388
10
23.9498174
20
100.4005236
40
0.5167077
50
269.5979457
51
281.6732777
0
ARC
8
DEFAULT_255_1_388
10
23.9417077
20
100.3870113
40
0.5032026
50
256.6228565
51
270.5105488
0
ARC
8
DEFAULT_255_1_388
10
23.896482
20
100.2128345
40
0.3233092
50
215.8618351
51
257.2787793
0
ARC
8
DEFAULT_255_1_388
10
24.0113527
20
100.2899106
40
0.4615831
50
197.9695203
51
215.2622745
0
ARC
8
DEFAULT_255_1_388
10
24.2909203
20
100.3842641
40
0.7566307
50
187.8816486
51
198.2346584
0
ARC
8
DEFAULT_255_1_388
10
24.7362441
20
100.4485453
40
1.2065653
50
180.8977266
51
188.0054894
0
ARC
8
DEFAULT_255_1_388
10
25.0412655
20
100.46004
40
1.5117443
50
180.7434591
51
181.152202
0
ARC
8
DEFAULT_255_1_388
10
24.8737651
20
100.6690371
40
1.3441277
50
173.7674302
51
180.2315596
0
ARC
8
DEFAULT_255_1_388
10
24.365552
20
100.7264779
40
0.8326847
50
164.3058537
51
173.9000553
0
ARC
8
DEFAULT_255_1_388
10
24.037952
20
100.8208652
40
0.4917711
50
148.7922028
51
164.5682288
0
ARC
8
DEFAULT_255_1_388
10
23.9310257
20
100.8805457
40
0.3694204
50
144.5883979
51
148.1161588
0
ARC
8
DEFAULT_255_1_388
10
23.8923002
20
100.9075667
40
0.322202
50
101.6440149
51
144.5142619
0
ARC
8
DEFAULT_255_1_388
10
23.9401195
20
100.7175337
40
0.5180451
50
89.528284
51
102.5820197
0
ARC
8
DEFAULT_255_1_388
10
23.9490186
20
100.7131376
40
0.5224441
50
77.0437914
51
90.508231
0
ARC
8
DEFAULT_255_1_388
10
23.994244
20
100.8979272
40
0.3322297
50
48.2777708
51
77.4996087
0
ARC
8
DEFAULT_255_1_388
10
24.002418
20
100.9124557
40
0.315966
50
36.3141586
51
47.6307332
0
ARC
8
DEFAULT_255_1_388
10
23.9046902
20
100.8466159
40
0.4337313
50
18.2931065
51
35.6770203
0
ARC
8
DEFAULT_255_1_388
10
23.6185743
20
100.7484107
40
0.7362203
50
8.0246996
51
18.5605636
0
ARC
8
DEFAULT_255_1_388
10
23.1502099
20
100.6792432
40
1.2096583
50
1.127539
51
8.1718423
0
ARC
8
DEFAULT_255_1_388
10
22.7853232
20
100.6649374
40
1.5747719
50
0.5432713
51
1.38669
0
ARC
8
DEFAULT_255_1_388
10
22.9910611
20
100.6956163
40
1.2018103
50
359.8092569
51
4.9408001
0
ARC
8
DEFAULT_255_1_388
10
23.4647192
20
100.73789
40
0.7262727
50
4.8364937
51
12.2906017
0
ARC
8
DEFAULT_255_1_388
10
23.7746657
20
100.8069485
40
0.4087324
50
12.0806994
51
23.8171225
0
ARC
8
DEFAULT_255_1_388
10
23.9067053
20
100.8628508
40
0.2653719
50
24.2874621
51
31.3934353
0
ARC
8
DEFAULT_255_1_388
10
23.9657489
20
100.9014822
40
0.1948607
50
30.7407708
51
82.4658033
0
ARC
8
DEFAULT_255_1_388
10
23.945515
20
100.8021017
40
0.2961198
50
81.1057101
51
90.2187368
0
ARC
8
DEFAULT_255_1_388
10
23.9414961
20
100.8311421
40
0.2670929
50
89.380395
51
105.6763916
0
ARC
8
DEFAULT_255_1_388
10
23.9208683
20
100.906132
40
0.1893189
50
105.7980655
51
149.7387869
0
ARC
8
DEFAULT_255_1_388
10
24.0405824
20
100.8341719
40
0.3289892
50
149.4208441
51
163.628295
0
ARC
8
DEFAULT_255_1_388
10
24.2758053
20
100.7624345
40
0.5749004
50
163.3764549
51
172.141138
0
ARC
8
DEFAULT_255_1_388
10
24.6470775
20
100.7092582
40
0.9499585
50
172.0258462
51
178.0705453
0
ARC
8
DEFAULT_255_1_388
10
24.9892327
20
100.6930682
40
1.2924734
50
177.8639301
51
179.5036263
0
ARC
8
DEFAULT_255_1_388
10
24.8673346
20
100.4327151
40
1.170534
50
179.7995545
51
185.246089
0
ARC
8
DEFAULT_255_1_388
10
24.4124939
20
100.3896404
40
0.7136613
50
185.1411911
51
193.0082205
0
ARC
8
DEFAULT_255_1_388
10
24.11512
20
100.3193441
40
0.4080987
50
192.7897338
51
205.2507384
0
ARC
8
DEFAULT_255_1_388
10
23.997341
20
100.2667538
40
0.2791522
50
205.8001921
51
211.2545876
0
ARC
8
DEFAULT_255_1_388
10
23.9384949
20
100.2273132
40
0.2084074
50
210.3789935
51
238.4007996
0
ARC
8
DEFAULT_255_1_388
10
23.9363035
20
100.2325786
40
0.2117943
50
239.6521916
51
265.9793852
0
ARC
8
DEFAULT_255_1_388
10
23.9458884
20
100.3082358
40
0.2879689
50
265.1324455
51
270.0603288
0
ARC
8
DEFAULT_255_1_388
10
23.9491261
20
100.2717418
40
0.2514919
50
269.3314378
51
287.2180039
0
ARC
8
DEFAULT_255_1_388
10
23.9646343
20
100.2151291
40
0.1928357
50
287.7957942
51
329.0808983
0
ARC
8
DEFAULT_255_1_388
10
23.85691
20
100.2823651
40
0.319808
50
328.6635261
51
343.3325043
0
ARC
8
DEFAULT_255_1_388
10
23.6124559
20
100.3585195
40
0.5758408
50
343.0498092
51
351.9392499
0
ARC
8
DEFAULT_255_1_388
10
23.222388
20
100.4160205
40
0.9701202
50
351.8071632
51
357.7957897
0
ARC
8
DEFAULT_255_1_388
10
22.8589357
20
100.4348724
40
1.3340376
50
357.5870923
51
359.2682493
0
ENDSEC
0
EOF