0
SECTION
2
HEADER
9
$MEASUREMENT
70
1
0
ENDSEC
0
SECTION
2
TABLES
0
TABLE
2
LTYPE
0
LTYPE
72
65
70
64
2
CONTINUOUS
3
______
73
0
40
0
0
ENDTAB
0
TABLE
2
LAYER
0
LAYER
2
DEFAULT_255_2_778
70
0
62
255
6
CONTINUOUS
0
LAYER
2
DEFAULT_255_1_388
70
0
62
255
6
CONTINUOUS
0
ENDTAB
0
ENDSEC
0
SECTION
2
ENTITIES
0
ARC
8
DEFAULT_255_2_778
10
3.5700693
20
28.1802037
40
0.7914215
50
129.1312896
51
180.1450914
0
ARC
8
DEFAULT_255_2_778
10
3.5703345
20
28.1806908
40
0.7912112
50
89.854026
51
129.1684493
0
ARC
8
DEFAULT_255_2_778
10
25.7993937
20
28.1803773
40
0.7915249
50
39.4792447
51
90.147911
0
ARC
8
DEFAULT_255_2_778
10
25.7999935
20
28.180224
40
0.7911595
50
359.8533901
51
39.5154338
0
ARC
8
DEFAULT_255_2_778
10
25.7996693
20
-1.9863486
40
0.7914836
50
309.4761667
51
0.1482649
0
ARC
8
DEFAULT_255_2_778
10
25.799398
20
-1.9867797
40
0.7913235
50
269.8517415
51
309.511178
0
ARC
8
DEFAULT_255_2_778
10
3.570342
20
-1.9867215
40
0.7913815
50
219.1282118
51
270.1454017
0
ARC
8
DEFAULT_255_2_778
10
3.5700247
20
-1.986339
40
0.7913769
50
179.8524075
51
219.1641908
0
LINE
8
DEFAULT_255_2_778
10
3.5723503
20
28.9718996
11
25.7973503
21
28.9718996
0
LINE
8
DEFAULT_255_2_778
10
26.5911503
20
28.1781996
11
26.5911503
21
-1.9843004
0
LINE
8
DEFAULT_255_2_778
10
25.7973503
20
-2.7781004
11
3.5723503
21
-2.7781004
0
LINE
8
DEFAULT_255_2_778
10
2.7786503
20
-1.9843004
11
2.7786503
21
28.1781996
0
LINE
8
DEFAULT_255_1_388
10
11.485132
20
-0.2223532
11
11.6595199
21
-0.2223532
0
LINE
8
DEFAULT_255_1_388
10
10.6466242
20
-0.0434475
11
10.6466242
21
0.0830516
0
LINE
8
DEFAULT_255_1_388
10
11.6595199
20
0.2529217
11
11.485132
21
0.2529217
0
LINE
8
DEFAULT_255_1_388
10
10.8210121
20
0.0785337
11
10.8210121
21
-0.0488688
0
ARC
8
DEFAULT_255_1_388
10
11.0429433
20
-0.1551671
40
0.6202263
50
340.1774904
51
353.7812217
0
ARC
8
DEFAULT_255_1_388
10
11.2197286
20
-0.2210107
40
0.4315926
50
311.4560052
51
340.4420756
0
ARC
8
DEFAULT_255_1_388
10
11.2159826
20
-0.2085335
40
0.4434573
50
282.4332229
51
310.7514507
0
ARC
8
DEFAULT_255_1_388
10
11.1665644
20
-0.0043297
40
0.6535262
50
269.9358869
51
282.8096729
0
ARC
8
DEFAULT_255_1_388
10
11.1607583
20
0.1469329
40
0.8048043
50
269.9995752
51
270.3612856
0
ARC
8
DEFAULT_255_1_388
10
11.1548073
20
-0.1329219
40
0.5249831
50
250.7885263
51
270.6488451
0
ARC
8
DEFAULT_255_1_388
10
11.1358898
20
-0.2046147
40
0.4510942
50
219.3628377
51
250.0611024
0
ARC
8
DEFAULT_255_1_388
10
11.2291772
20
-0.1253347
40
0.5735046
50
193.5480293
51
219.5755675
0
ARC
8
DEFAULT_255_1_388
10
11.4959981
20
-0.056048
40
0.849146
50
181.1220183
51
193.8754971
0
ARC
8
DEFAULT_255_1_388
10
11.7283214
20
-0.0436086
40
1.0816971
50
179.9914644
51
181.5398227
0
ARC
8
DEFAULT_255_1_388
10
11.5206525
20
0.0872586
40
0.8740384
50
169.5837606
51
180.275782
0
ARC
8
DEFAULT_255_1_388
10
11.3139873
20
0.1254439
40
0.6638751
50
155.0367033
51
169.6002779
0
ARC
8
DEFAULT_255_1_388
10
11.1862331
20
0.1870336
40
0.5220662
50
136.7831557
51
155.2472983
0
ARC
8
DEFAULT_255_1_388
10
11.1424122
20
0.2242577
40
0.4646502
50
121.7633063
51
136.4281161
0
ARC
8
DEFAULT_255_1_388
10
11.1575962
20
0.1962049
40
0.4964979
50
95.6460018
51
121.5489589
0
ARC
8
DEFAULT_255_1_388
10
11.1752936
20
0.0714704
40
0.6223912
50
89.9245727
51
96.1375919
0
ARC
8
DEFAULT_255_1_388
10
11.1809641
20
0.0848721
40
0.6090084
50
76.6779212
51
90.456405
0
ARC
8
DEFAULT_255_1_388
10
11.2252454
20
0.263806
40
0.42469
50
47.4858803
51
76.9287069
0
ARC
8
DEFAULT_255_1_388
10
11.2087068
20
0.2525623
40
0.4441778
50
16.5424081
51
46.8934505
0
ARC
8
DEFAULT_255_1_388
10
11.0278118
20
0.1931265
40
0.6345318
50
5.4072971
51
17.0363711
0
ARC
8
DEFAULT_255_1_388
10
10.8659843
20
0.1671304
40
0.6250632
50
7.8888693
51
15.9242022
0
ARC
8
DEFAULT_255_1_388
10
11.0894828
20
0.2320309
40
0.3923364
50
15.7650676
51
27.9410069
0
ARC
8
DEFAULT_255_1_388
10
11.2136997
20
0.2985317
40
0.2514401
50
27.8167196
51
46.4007942
0
ARC
8
DEFAULT_255_1_388
10
11.2192839
20
0.2978882
40
0.2480958
50
47.4372362
51
75.0695672
0
ARC
8
DEFAULT_255_1_388
10
11.1845675
20
0.1770277
40
0.3738281
50
74.7009379
51
87.8124314
0
ARC
8
DEFAULT_255_1_388
10
11.1763292
20
0.0586659
40
0.4924321
50
87.3802571
51
90.0251599
0
ARC
8
DEFAULT_255_1_388
10
11.1719939
20
0.1906997
40
0.3604218
50
89.3451886
51
108.5744412
0
ARC
8
DEFAULT_255_1_388
10
11.1565931
20
0.2484836
40
0.3007661
50
109.2998307
51
143.3037387
0
ARC
8
DEFAULT_255_1_388
10
11.2423221
20
0.1825584
40
0.4089031
50
143.075267
51
163.1918576
0
ARC
8
DEFAULT_255_1_388
10
11.4619055
20
0.1132652
40
0.6391492
50
162.9375929
51
174.6208776
0
ARC
8
DEFAULT_255_1_388
10
11.7573437
20
0.0808711
40
0.9363344
50
174.342123
51
180.1430283
0
ARC
8
DEFAULT_255_1_388
10
11.6525978
20
-0.0534883
40
0.8315986
50
179.6817261
51
189.150555
0
ARC
8
DEFAULT_255_1_388
10
11.3712727
20
-0.1003441
40
0.5464044
50
188.9911061
51
203.5772363
0
ARC
8
DEFAULT_255_1_388
10
11.2498019
20
-0.1507461
40
0.4149206
50
203.9075402
51
215.1312435
0
ARC
8
DEFAULT_255_1_388
10
11.1459817
20
-0.2312093
40
0.2837747
50
213.9071511
51
263.8848919
0
ARC
8
DEFAULT_255_1_388
10
11.160081
20
-0.1429481
40
0.3730641
50
263.1757928
51
270.1031044
0
ARC
8
DEFAULT_255_1_388
10
11.163689
20
-0.0026489
40
0.5133712
50
269.6722503
51
279.0606936
0
ARC
8
DEFAULT_255_1_388
10
11.1937045
20
-0.184085
40
0.3294739
50
278.8749101
51
293.6349581
0
ARC
8
DEFAULT_255_1_388
10
11.2297249
20
-0.2686749
40
0.2375405
50
293.8553806
51
310.0518171
0
ARC
8
DEFAULT_255_1_388
10
11.2302758
20
-0.2756979
40
0.2318463
50
311.0644687
51
332.0111037
0
ARC
8
DEFAULT_255_1_388
10
11.0961431
20
-0.2017298
40
0.3850112
50
331.6586806
51
343.2877423
0
ARC
8
DEFAULT_255_1_388
10
10.8640896
20
-0.1304194
40
0.6277712
50
343.1446576
51
351.0103568
0
ARC
8
DEFAULT_255_1_388
10
10.700822
20
-0.1004127
40
0.7937327
50
350.71248
51
351.1626997
0
LINE
8
DEFAULT_255_1_388
10
12.6778371
20
0.138169
11
12.6778371
21
-0.0786865
0
LINE
8
DEFAULT_255_1_388
10
11.8474613
20
-0.1012756
11
11.8474613
21
0.1219048
0
LINE
8
DEFAULT_255_1_388
10
12.5106776
20
-0.1238647
11
12.5106776
21
0.1499153
0
LINE
8
DEFAULT_255_1_388
10
12.0146208
20
0.1625652
11
12.0146208
21
-0.1048898
0
ARC
8
DEFAULT_255_1_388
10
11.3000705
20
-0.0841882
40
1.3777776
50
353.8440855
51
0.2287917
0
ARC
8
DEFAULT_255_1_388
10
11.8219722
20
-0.1424586
40
0.852639
50
344.4934746
51
353.9763743
0
ARC
8
DEFAULT_255_1_388
10
12.1586529
20
-0.2381809
40
0.5026273
50
329.2803599
51
344.7473406
0
ARC
8
DEFAULT_255_1_388
10
12.2702025
20
-0.2993962
40
0.3754848
50
324.9361395
51
328.6153007
0
ARC
8
DEFAULT_255_1_388
10
12.3127675
20
-0.3291414
40
0.3235566
50
280.5801797
51
324.9173226
0
ARC
8
DEFAULT_255_1_388
10
12.2676303
20
-0.1411764
40
0.5167077
50
269.5979457
51
281.6732777
0
ARC
8
DEFAULT_255_1_388
10
12.2595207
20
-0.1546887
40
0.5032026
50
256.6228565
51
270.5105488
0
ARC
8
DEFAULT_255_1_388
10
12.214295
20
-0.3288655
40
0.3233092
50
215.8618351
51
257.2787793
0
ARC
8
DEFAULT_255_1_388
10
12.3291657
20
-0.2517894
40
0.4615831
50
197.9695203
51
215.2622745
0
ARC
8
DEFAULT_255_1_388
10
12.6087332
20
-0.1574359
40
0.7566307
50
187.8816486
51
198.2346584
0
ARC
8
DEFAULT_255_1_388
10
13.054057
20
-0.0931547
40
1.2065653
50
180.8977266
51
188.0054894
0
ARC
8
DEFAULT_255_1_388
10
13.3590784
20
-0.08166
40
1.5117443
50
180.7434591
51
181.152202
0
ARC
8
DEFAULT_255_1_388
10
13.191578
20
0.1273371
40
1.3441277
50
173.7674302
51
180.2315596
0
ARC
8
DEFAULT_255_1_388
10
12.6833649
20
0.1847779
40
0.8326847
50
164.3058537
51
173.9000553
0
ARC
8
DEFAULT_255_1_388
10
12.3557649
20
0.2791652
40
0.4917711
50
148.7922028
51
164.5682288
0
ARC
8
DEFAULT_255_1_388
10
12.2488386
20
0.3388457
40
0.3694204
50
144.5883979
51
148.1161588
0
ARC
8
DEFAULT_255_1_388
10
12.2101132
20
0.3658667
40
0.322202
50
101.6440149
51
144.5142619
0
ARC
8
DEFAULT_255_1_388
10
12.2579324
20
0.1758337
40
0.5180451
50
89.528284
51
102.5820197
0
ARC
8
DEFAULT_255_1_388
10
12.2668316
20
0.1714376
40
0.5224441
50
77.0437914
51
90.508231
0
ARC
8
DEFAULT_255_1_388
10
12.312057
20
0.3562272
40
0.3322297
50
48.2777708
51
77.4996087
0
ARC
8
DEFAULT_255_1_388
10
12.320231
20
0.3707557
40
0.315966
50
36.3141586
51
47.6307332
0
ARC
8
DEFAULT_255_1_388
10
12.2225032
20
0.3049159
40
0.4337313
50
18.2931065
51
35.6770203
0
ARC
8
DEFAULT_255_1_388
10
11.9363873
20
0.2067107
40
0.7362203
50
8.0246996
51
18.5605636
0
ARC
8
DEFAULT_255_1_388
10
11.4680228
20
0.1375432
40
1.2096583
50
1.127539
51
8.1718423
0
ARC
8
DEFAULT_255_1_388
10
11.1031362
20
0.1232374
40
1.5747719
50
0.5432713
51
1.38669
0
ARC
8
DEFAULT_255_1_388
10
11.308874
20
0.1539163
40
1.2018103
50
359.8092569
51
4.9408001
0
ARC
8
DEFAULT_255_1_388
10
11.7825322
20
0.19619
40
0.7262727
50
4.8364937
51
12.2906017
0
ARC
8
DEFAULT_255_1_388
10
12.0924786
20
0.2652485
40
0.4087324
50
12.0806994
51
23.8171225
0
ARC
8
DEFAULT_255_1_388
10
12.2245182
20
0.3211508
40
0.2653719
50
24.2874621
51
31.3934353
0
ARC
8
DEFAULT_255_1_388
10
12.2835618
20
0.3597822
40
0.1948607
50
30.7407708
51
82.4658033
0
ARC
8
DEFAULT_255_1_388
10
12.2633279
20
0.2604017
40
0.2961198
50
81.1057101
51
90.2187368
0
ARC
8
DEFAULT_255_1_388
10
12.2593091
20
0.2894421
40
0.2670929
50
89.380395
51
105.6763916
0
ARC
8
DEFAULT_255_1_388
10
12.2386813
20
0.364432
40
0.1893189
50
105.7980655
51
149.7387869
0
ARC
8
DEFAULT_255_1_388
10
12.3583953
20
0.2924719
40
0.3289892
50
149.4208441
51
163.628295
0
ARC
8
DEFAULT_255_1_388
10
12.5936183
20
0.2207345
40
0.5749004
50
163.3764549
51
172.141138
0
ARC
8
DEFAULT_255_1_388
10
12.9648904
20
0.1675582
40
0.9499585
50
172.0258462
51
178.0705453
0
ARC
8
DEFAULT_255_1_388
10
13.3070457
20
0.1513682
40
1.2924734
50
177.8639301
51
179.5036263
0
ARC
8
DEFAULT_255_1_388
10
13.1851476
20
-0.1089849
40
1.170534
50
179.7995545
51
185.246089
0
ARC
8
DEFAULT_255_1_388
10
12.7303069
20
-0.1520596
40
0.7136613
50
185.1411911
51
193.0082205
0
ARC
8
DEFAULT_255_1_388
10
12.4329329
20
-0.2223559
40
0.4080987
50
192.7897338
51
205.2507384
0
ARC
8
DEFAULT_255_1_388
10
12.3151539
20
-0.2749462
40
0.2791522
50
205.8001921
51
211.2545876
0
ARC
8
DEFAULT_255_1_388
10
12.2563078
20
-0.3143868
40
0.2084074
50
210.3789935
51
238.4007996
0
ARC
8
DEFAULT_255_1_388
10
12.2541164
20
-0.3091214
40
0.2117943
50
239.6521916
51
265.9793852
0
ARC
8
DEFAULT_255_1_388
10
12.2637013
20
-0.2334642
40
0.2879689
50
265.1324455
51
270.0603288
0
ARC
8
DEFAULT_255_1_388
10
12.266939
20
-0.2699582
40
0.2514919
50
269.3314378
51
287.2180039
0
ARC
8
DEFAULT_255_1_388
10
12.2824473
20
-0.3265709
40
0.1928357
50
287.7957942
51
329.0808983
0
ARC
8
DEFAULT_255_1_388
10
12.174723
20
-0.2593349
40
0.319808
50
328.6635261
51
343.3325043
0
ARC
8
DEFAULT_255_1_388
10
11.9302688
20
-0.1831805
40
0.5758408
50
343.0498092
51
351.9392499
0
ARC
8
DEFAULT_255_1_388
10
11.540201
20
-0.1256795
40
0.9701202
50
351.8071632
51
357.7957897
0
ARC
8
DEFAULT_255_1_388
10
11.1767487
20
-0.1068276
40
1.3340376
50
357.5870923
51
359.2682493
0
LINE
8
DEFAULT_255_1_388
10
13.2570219
20
-0.0127263
11
13.2570219
21
-0.1491645
0
LINE
8
DEFAULT_255_1_388
10
13.2570219
20
-0.1491645
11
12.8160824
21
-0.1491645
0
LINE
8
DEFAULT_255_1_388
10
12.8160824
20
-0.1491645
11
12.8160824
21
-0.0127263
0
LINE
8
DEFAULT_255_1_388
10
12.8160824
20
-0.0127263
11
13.2570219
21
-0.0127263
0
LINE
8
DEFAULT_255_1_388
10
14.2274501
20
0.138169
11
14.2274501
21
-0.0786865
0
LINE
8
DEFAULT_255_1_388
10
13.3970744
20
-0.1012756
11
13.3970744
21
0.1219048
0
LINE
8
DEFAULT_255_1_388
10
14.0602907
20
-0.1238647
11
14.0602907
21
0.1499153
0
LINE
8
DEFAULT_255_1_388
10
13.5642338
20
0.1625652
11
13.5642338
21
-0.1048898
0
ARC
8
DEFAULT_255_1_388
10
12.8496835
20
-0.0841882
40
1.3777776
50
353.8440855
51
0.2287917
0
ARC
8
DEFAULT_255_1_388
10
13.3715852
20
-0.1424586
40
0.852639
50
344.4934746
51
353.9763743
0
ARC
8
DEFAULT_255_1_388
10
13.708266
20
-0.2381809
40
0.5026273
50
329.2803599
51
344.7473406
0
ARC
8
DEFAULT_255_1_388
10
13.8198155
20
-0.2993962
40
0.3754848
50
324.9361395
51
328.6153007
0
ARC
8
DEFAULT_255_1_388
10
13.8623805
20
-0.3291414
40
0.3235566
50
280.5801797
51
324.9173226
0
ARC
8
DEFAULT_255_1_388
10
13.8172434
20
-0.1411764
40
0.5167077
50
269.5979457
51
281.6732777
0
ARC
8
DEFAULT_255_1_388
10
13.8091337
20
-0.1546887
40
0.5032026
50
256.6228565
51
270.5105488
0
ARC
8
DEFAULT_255_1_388
10
13.763908
20
-0.3288655
40
0.3233092
50
215.8618351
51
257.2787793
0
ARC
8
DEFAULT_255_1_388
10
13.8787787
20
-0.2517894
40
0.4615831
50
197.9695203
51
215.2622745
0
ARC
8
DEFAULT_255_1_388
10
14.1583463
20
-0.1574359
40
0.7566307
50
187.8816486
51
198.2346584
0
ARC
8
DEFAULT_255_1_388
10
14.6036701
20
-0.0931547
40
1.2065653
50
180.8977266
51
188.0054894
0
ARC
8
DEFAULT_255_1_388
10
14.9086915
20
-0.08166
40
1.5117443
50
180.7434591
51
181.152202
0
ARC
8
DEFAULT_255_1_388
10
14.741191
20
0.1273371
40
1.3441277
50
173.7674302
51
180.2315596
0
ARC
8
DEFAULT_255_1_388
10
14.2329779
20
0.1847779
40
0.8326847
50
164.3058537
51
173.9000553
0
ARC
8
DEFAULT_255_1_388
10
13.9053779
20
0.2791652
40
0.4917711
50
148.7922028
51
164.5682288
0
ARC
8
DEFAULT_255_1_388
10
13.7984517
20
0.3388457
40
0.3694204
50
144.5883979
51
148.1161588
0
ARC
8
DEFAULT_255_1_388
10
13.7597262
20
0.3658667
40
0.322202
50
101.6440149
51
144.5142619
0
ARC
8
DEFAULT_255_1_388
10
13.8075454
20
0.1758337
40
0.5180451
50
89.528284
51
102.5820197
0
ARC
8
DEFAULT_255_1_388
10
13.8164446
20
0.1714376
40
0.5224441
50
77.0437914
51
90.508231
0
ARC
8
DEFAULT_255_1_388
10
13.86167
20
0.3562272
40
0.3322297
50
48.2777708
51
77.4996087
0
ARC
8
DEFAULT_255_1_388
10
13.869844
20
0.3707557
40
0.315966
50
36.3141586
51
47.6307332
0
ARC
8
DEFAULT_255_1_388
10
13.7721162
20
0.3049159
40
0.4337313
50
18.2931065
51
35.6770203
0
ARC
8
DEFAULT_255_1_388
10
13.4860003
20
0.2067107
40
0.7362203
50
8.0246996
51
18.5605636
0
ARC
8
DEFAULT_255_1_388
10
13.0176358
20
0.1375432
40
1.2096583
50
1.127539
51
8.1718423
0
ARC
8
DEFAULT_255_1_388
10
12.6527492
20
0.1232374
40
1.5747719
50
0.5432713
51
1.38669
0
ARC
8
DEFAULT_255_1_388
10
12.8584871
20
0.1539163
40
1.2018103
50
359.8092569
51
4.9408001
0
ARC
8
DEFAULT_255_1_388
10
13.3321452
20
0.19619
40
0.7262727
50
4.8364937
51
12.2906017
0
ARC
8
DEFAULT_255_1_388
10
13.6420917
20
0.2652485
40
0.4087324
50
12.0806994
51
23.8171225
0
ARC
8
DEFAULT_255_1_388
10
13.7741313
20
0.3211508
40
0.2653719
50
24.2874621
51
31.3934353
0
ARC
8
DEFAULT_255_1_388
10
13.8331748
20
0.3597822
40
0.1948607
50
30.7407708
51
82.4658033
0
ARC
8
DEFAULT_255_1_388
10
13.8129409
20
0.2604017
40
0.2961198
50
81.1057101
51
90.2187368
0
ARC
8
DEFAULT_255_1_388
10
13.8089221
20
0.2894421
40
0.2670929
50
89.380395
51
105.6763916
0
ARC
8
DEFAULT_255_1_388
10
13.7882943
20
0.364432
40
0.1893189
50
105.7980655
51
149.7387869
0
ARC
8
DEFAULT_255_1_388
10
13.9080083
20
0.2924719
40
0.3289892
50
149.4208441
51
163.628295
0
ARC
8
DEFAULT_255_1_388
10
14.1432313
20
0.2207345
40
0.5749004
50
163.3764549
51
172.141138
0
ARC
8
DEFAULT_255_1_388
10
14.5145034
20
0.1675582
40
0.9499585
50
172.0258462
51
178.0705453
0
ARC
8
DEFAULT_255_1_388
10
14.8566587
20
0.1513682
40
1.2924734
50
177.8639301
51
179.5036263
0
ARC
8
DEFAULT_255_1_388
10
14.7347606
20
-0.1089849
40
1.170534
50
179.7995545
51
185.246089
0
ARC
8
DEFAULT_255_1_388
10
14.2799199
20
-0.1520596
40
0.7136613
50
185.1411911
51
193.0082205
0
ARC
8
DEFAULT_255_1_388
10
13.982546
20
-0.2223559
40
0.4080987
50
192.7897338
51
205.2507384
0
ARC
8
DEFAULT_255_1_388
10
13.864767
20
-0.2749462
40
0.2791522
50
205.8001921
51
211.2545876
0
ARC
8
DEFAULT_255_1_388
10
13.8059209
20
-0.3143868
40
0.2084074
50
210.3789935
51
238.4007996
0
ARC
8
DEFAULT_255_1_388
10
13.8037295
20
-0.3091214
40
0.2117943
50
239.6521916
51
265.9793852
0
ARC
8
DEFAULT_255_1_388
10
13.8133144
20
-0.2334642
40
0.2879689
50
265.1324455
51
270.0603288
0
ARC
8
DEFAULT_255_1_388
10
13.8165521
20
-0.2699582
40
0.2514919
50
269.3314378
51
287.2180039
0
ARC
8
DEFAULT_255_1_388
10
13.8320603
20
-0.3265709
40
0.1928357
50
287.7957942
51
329.0808983
0
ARC
8
DEFAULT_255_1_388
10
13.724336
20
-0.2593349
40
0.319808
50
328.6635261
51
343.3325043
0
ARC
8
DEFAULT_255_1_388
10
13.4798819
20
-0.1831805
40
0.5758408
50
343.0498092
51
351.9392499
0
ARC
8
DEFAULT_255_1_388
10
13.089814
20
-0.1256795
40
0.9701202
50
351.8071632
51
357.7957897
0
ARC
8
DEFAULT_255_1_388
10
12.7263617
20
-0.1068276
40
1.3340376
50
357.5870923
51
359.2682493
0
LINE
8
DEFAULT_255_1_388
10
14.9909621
20
0.6821148
11
14.9909621
21
-0.6398
0
LINE
8
DEFAULT_255_1_388
10
14.9909621
20
-0.6398
11
14.8228991
21
-0.6398
0
LINE
8
DEFAULT_255_1_388
10
14.8228991
20
-0.6398
11
14.8228991
21
0.474295
0
LINE
8
DEFAULT_255_1_388
10
14.8228991
20
0.474295
11
14.4858695
21
0.3505066
0
LINE
8
DEFAULT_255_1_388
10
14.4858695
20
0.3505066
11
14.4858695
21
0.5023055
0
LINE
8
DEFAULT_255_1_388
10
14.4858695
20
0.5023055
11
14.9647587
21
0.6821148
0
LINE
8
DEFAULT_255_1_388
10
14.9647587
20
0.6821148
11
14.9909621
21
0.6821148
0
LINE
8
DEFAULT_255_1_388
10
16.3761264
20
-0.6398
11
16.2505309
21
-0.2964455
0
LINE
8
DEFAULT_255_1_388
10
16.2505309
20
-0.2964455
11
15.6993566
21
-0.2964455
0
LINE
8
DEFAULT_255_1_388
10
15.6993566
20
-0.2964455
11
15.5755683
21
-0.6398
0
LINE
8
DEFAULT_255_1_388
10
15.5755683
20
-0.6398
11
15.3966625
21
-0.6398
0
LINE
8
DEFAULT_255_1_388
10
15.3966625
20
-0.6398
11
15.8990443
21
0.6757898
0
LINE
8
DEFAULT_255_1_388
10
15.8990443
20
0.6757898
11
16.0508432
21
0.6757898
0
LINE
8
DEFAULT_255_1_388
10
16.0508432
20
0.6757898
11
16.5541286
21
-0.6398
0
LINE
8
DEFAULT_255_1_388
10
16.5541286
20
-0.6398
11
16.3761264
21
-0.6398
0
LINE
8
DEFAULT_255_1_388
10
15.9749437
20
0.4616451
11
15.7517633
21
-0.1536823
0
LINE
8
DEFAULT_255_1_388
10
15.7517633
20
-0.1536823
11
16.1990277
21
-0.1536823
0
LINE
8
DEFAULT_255_1_388
10
16.1990277
20
-0.1536823
11
15.9749437
21
0.4616451
0
LINE
8
DEFAULT_255_1_388
10
17.5146176
20
-0.2223532
11
17.6890055
21
-0.2223532
0
LINE
8
DEFAULT_255_1_388
10
16.6761098
20
-0.0434475
11
16.6761098
21
0.0830516
0
LINE
8
DEFAULT_255_1_388
10
17.6890055
20
0.2529217
11
17.5146176
21
0.2529217
0
LINE
8
DEFAULT_255_1_388
10
16.8504977
20
0.0785337
11
16.8504977
21
-0.0488688
0
ARC
8
DEFAULT_255_1_388
10
17.0724289
20
-0.1551671
40
0.6202263
50
340.1774904
51
353.7812217
0
ARC
8
DEFAULT_255_1_388
10
17.2492142
20
-0.2210107
40
0.4315926
50
311.4560052
51
340.4420756
0
ARC
8
DEFAULT_255_1_388
10
17.2454682
20
-0.2085335
40
0.4434573
50
282.4332229
51
310.7514507
0
ARC
8
DEFAULT_255_1_388
10
17.19605
20
-0.0043297
40
0.6535262
50
269.9358869
51
282.8096729
0
ARC
8
DEFAULT_255_1_388
10
17.1902439
20
0.1469329
40
0.8048043
50
269.9995752
51
270.3612856
0
ARC
8
DEFAULT_255_1_388
10
17.1842929
20
-0.1329219
40
0.5249831
50
250.7885263
51
270.6488451
0
ARC
8
DEFAULT_255_1_388
10
17.1653754
20
-0.2046147
40
0.4510942
50
219.3628377
51
250.0611024
0
ARC
8
DEFAULT_255_1_388
10
17.2586628
20
-0.1253347
40
0.5735046
50
193.5480293
51
219.5755675
0
ARC
8
DEFAULT_255_1_388
10
17.5254837
20
-0.056048
40
0.849146
50
181.1220183
51
193.8754971
0
ARC
8
DEFAULT_255_1_388
10
17.757807
20
-0.0436086
40
1.0816971
50
179.9914644
51
181.5398227
0
ARC
8
DEFAULT_255_1_388
10
17.5501381
20
0.0872586
40
0.8740384
50
169.5837606
51
180.275782
0
ARC
8
DEFAULT_255_1_388
10
17.3434729
20
0.1254439
40
0.6638751
50
155.0367033
51
169.6002779
0
ARC
8
DEFAULT_255_1_388
10
17.2157187
20
0.1870336
40
0.5220662
50
136.7831557
51
155.2472983
0
ARC
8
DEFAULT_255_1_388
10
17.1718978
20
0.2242577
40
0.4646502
50
121.7633063
51
136.4281161
0
ARC
8
DEFAULT_255_1_388
10
17.1870817
20
0.1962049
40
0.4964979
50
95.6460018
51
121.5489589
0
ARC
8
DEFAULT_255_1_388
10
17.2047792
20
0.0714704
40
0.6223912
50
89.9245727
51
96.1375919
0
ARC
8
DEFAULT_255_1_388
10
17.2104497
20
0.0848721
40
0.6090084
50
76.6779212
51
90.456405
0
ARC
8
DEFAULT_255_1_388
10
17.254731
20
0.263806
40
0.42469
50
47.4858803
51
76.9287069
0
ARC
8
DEFAULT_255_1_388
10
17.2381924
20
0.2525623
40
0.4441778
50
16.5424081
51
46.8934505
0
ARC
8
DEFAULT_255_1_388
10
17.0572973
20
0.1931265
40
0.6345318
50
5.4072971
51
17.0363711
0
ARC
8
DEFAULT_255_1_388
10
16.8954699
20
0.1671304
40
0.6250632
50
7.8888693
51
15.9242022
0
ARC
8
DEFAULT_255_1_388
10
17.1189684
20
0.2320309
40
0.3923364
50
15.7650676
51
27.9410069
0
ARC
8
DEFAULT_255_1_388
10
17.2431853
20
0.2985317
40
0.2514401
50
27.8167196
51
46.4007942
0
ARC
8
DEFAULT_255_1_388
10
17.2487695
20
0.2978882
40
0.2480958
50
47.4372362
51
75.0695672
0
ARC
8
DEFAULT_255_1_388
10
17.2140531
20
0.1770277
40
0.3738281
50
74.7009379
51
87.8124314
0
ARC
8
DEFAULT_255_1_388
10
17.2058148
20
0.0586659
40
0.4924321
50
87.3802571
51
90.0251599
0
ARC
8
DEFAULT_255_1_388
10
17.2014795
20
0.1906997
40
0.3604218
50
89.3451886
51
108.5744412
0
ARC
8
DEFAULT_255_1_388
10
17.1860787
20
0.2484836
40
0.3007661
50
109.2998307
51
143.3037387
0
ARC
8
DEFAULT_255_1_388
10
17.2718077
20
0.1825584
40
0.4089031
50
143.075267
51
163.1918576
0
ARC
8
DEFAULT_255_1_388
10
17.4913911
20
0.1132652
40
0.6391492
50
162.9375929
51
174.6208776
0
ARC
8
DEFAULT_255_1_388
10
17.7868293
20
0.0808711
40
0.9363344
50
174.342123
51
180.1430283
0
ARC
8
DEFAULT_255_1_388
10
17.6820834
20
-0.0534883
40
0.8315986
50
179.6817261
51
189.150555
0
ARC
8
DEFAULT_255_1_388
10
17.4007583
20
-0.1003441
40
0.5464044
50
188.9911061
51
203.5772363
0
ARC
8
DEFAULT_255_1_388
10
17.2792875
20
-0.1507461
40
0.4149206
50
203.9075402
51
215.1312435
0
ARC
8
DEFAULT_255_1_388
10
17.1754673
20
-0.2312093
40
0.2837747
50
213.9071511
51
263.8848919
0
ARC
8
DEFAULT_255_1_388
10
17.1895666
20
-0.1429481
40
0.3730641
50
263.1757928
51
270.1031044
0
ARC
8
DEFAULT_255_1_388
10
17.1931746
20
-0.0026489
40
0.5133712
50
269.6722503
51
279.0606936
0
ARC
8
DEFAULT_255_1_388
10
17.2231901
20
-0.184085
40
0.3294739
50
278.8749101
51
293.6349581
0
ARC
8
DEFAULT_255_1_388
10
17.2592105
20
-0.2686749
40
0.2375405
50
293.8553806
51
310.0518171
0
ARC
8
DEFAULT_255_1_388
10
17.2597614
20
-0.2756979
40
0.2318463
50
311.0644687
51
332.0111037
0
ARC
8
DEFAULT_255_1_388
10
17.1256287
20
-0.2017298
40
0.3850112
50
331.6586806
51
343.2877423
0
ARC
8
DEFAULT_255_1_388
10
16.8935752
20
-0.1304194
40
0.6277712
50
343.1446576
51
351.0103568
0
ARC
8
DEFAULT_255_1_388
10
16.7303076
20
-0.1004127
40
0.7937327
50
350.71248
51
351.1626997
0
ARC
8
DEFAULT_255_2_778
10
13.4953021
20
26.2610533
40
2.3035416
50
339.8907409
51
346.994376
0
ARC
8
DEFAULT_255_2_778
10
14.4646357
20
25.9009276
40
1.2694939
50
328.7691853
51
340.1120733
0
ARC
8
DEFAULT_255_2_778
10
14.9922733
20
25.5742249
40
0.6489533
50
308.240385
51
329.2799976
0
ARC
8
DEFAULT_255_2_778
10
15.1335254
20
25.4053956
40
0.42897
50
290.2149747
51
307.3797345
0
ARC
8
DEFAULT_255_2_778
10
14.8550836
20
25.6680832
40
0.5085768
50
279.0582472
51
335.0254579
0
ARC
8
DEFAULT_255_2_778
10
14.4035606
20
25.9163036
40
1.0232605
50
333.100566
51
347.4967948
0
ARC
8
DEFAULT_255_2_778
10
13.9267879
20
26.0402273
40
1.515659
50
346.8251736
51
349.6433145
0
ARC
8
DEFAULT_255_2_778
10
16.7325297
20
26.3127541
40
0.6340004
50
90.2418805
51
180.4975197
0
ARC
8
DEFAULT_255_2_778
10
16.7271765
20
26.312754
40
0.6340006
50
359.5024881
51
89.7581009
0
ARC
8
DEFAULT_255_2_778
10
16.7271768
20
26.3017436
40
0.6340003
50
270.2418684
51
0.4975336
0
ARC
8
DEFAULT_255_2_778
10
16.7325299
20
26.3017437
40
0.6340005
50
179.5024805
51
269.758104
0
ARC
8
DEFAULT_255_2_778
10
17.1189581
20
26.3271235
40
0.5748535
50
158.6224664
51
180.7450103
0
ARC
8
DEFAULT_255_2_778
10
16.8143054
20
26.4541995
40
0.2449488
50
125.6968143
51
160.3264119
0
ARC
8
DEFAULT_255_2_778
10
16.7310393
20
26.5609868
40
0.1097683
50
90.6191325
51
122.9231799
0
ARC
8
DEFAULT_255_2_778
10
16.7161984
20
26.5228461
40
0.1485318
50
26.6299238
51
84.7252528
0
ARC
8
DEFAULT_255_2_778
10
16.4561415
20
26.357402
40
0.4562354
50
6.9672199
51
30.5675002
0
ARC
8
DEFAULT_255_2_778
10
16.261361
20
26.3204325
40
0.6541928
50
359.9313724
51
8.1119436
0
ARC
8
DEFAULT_255_2_778
10
16.3407903
20
26.3122075
40
0.5748111
50
338.6217917
51
0.7417631
0
ARC
8
DEFAULT_255_2_778
10
16.6452775
20
26.1851776
40
0.2450776
50
305.7107467
51
340.3279893
0
ARC
8
DEFAULT_255_2_778
10
16.7286626
20
26.0782757
40
0.1097331
50
270.6216799
51
302.9378787
0
ARC
8
DEFAULT_255_2_778
10
16.7435343
20
26.1164636
40
0.148546
50
206.6181959
51
264.7155805
0
ARC
8
DEFAULT_255_2_778
10
17.0037331
20
26.2819852
40
0.456409
50
186.9714802
51
210.5628916
0
ARC
8
DEFAULT_255_2_778
10
17.1979553
20
26.3188721
40
0.6538026
50
179.9319269
51
188.1143536
0
ARC
8
DEFAULT_255_2_778
10
14.2076298
20
26.3127541
40
0.6340005
50
90.2418914
51
180.4975151
0
ARC
8
DEFAULT_255_2_778
10
14.2022765
20
26.312754
40
0.6340006
50
359.5024881
51
89.7581009
0
ARC
8
DEFAULT_255_2_778
10
14.2022768
20
26.3017436
40
0.6340003
50
270.2418684
51
0.4975336
0
ARC
8
DEFAULT_255_2_778
10
14.2076299
20
26.3017437
40
0.6340005
50
179.5024805
51
269.758104
0
ARC
8
DEFAULT_255_2_778
10
14.5935296
20
26.3271068
40
0.5744248
50
158.6039448
51
180.7439081
0
ARC
8
DEFAULT_255_2_778
10
14.2894145
20
26.454083
40
0.2450547
50
125.6846154
51
160.3063409
0
ARC
8
DEFAULT_255_2_778
10
14.2061439
20
26.560937
40
0.1098183
50
90.6212609
51
122.9155624
0
ARC
8
DEFAULT_255_2_778
10
14.1912984
20
26.5228461
40
0.1485318
50
26.6299238
51
84.7252528
0
ARC
8
DEFAULT_255_2_778
10
13.9312415
20
26.357402
40
0.4562354
50
6.9672199
51
30.5675002
0
ARC
8
DEFAULT_255_2_778
10
13.736461
20
26.3204325
40
0.6541928
50
359.9313724
51
8.1119436
0
ARC
8
DEFAULT_255_2_778
10
13.8158903
20
26.3122075
40
0.5748111
50
338.6217917
51
0.7417631
0
ARC
8
DEFAULT_255_2_778
10
14.1203775
20
26.1851776
40
0.2450776
50
305.7107467
51
340.3279893
0
ARC
8
DEFAULT_255_2_778
10
14.2037626
20
26.0782757
40
0.1097331
50
270.6216799
51
302.9378787
0
ARC
8
DEFAULT_255_2_778
10
14.2183015
20
26.1157507
40
0.1478058
50
207.0367178
51
264.8185874
0
ARC
8
DEFAULT_255_2_778
10
14.4731143
20
26.2799943
40
0.4504617
50
187.4901111
51
210.9147812
0
ARC
8
DEFAULT_255_2_778
10
14.6699142
20
26.3187625
40
0.6507616
50
179.9219565
51
188.6157011
0
LINE
8
DEFAULT_255_2_778
10
14.8857532
20
26.9216489
11
15.3807532
21
26.9216489
0
LINE
8
DEFAULT_255_2_778
10
15.3807532
20
26.9216489
11
15.5540532
21
26.2569489
0
LINE
8
DEFAULT_255_2_778
10
15.5540532
20
26.2569489
11
15.7397532
21
26.9340489
0
LINE
8
DEFAULT_255_2_778
10
15.7397532
20
26.9340489
11
16.0369532
21
26.8462489
0
LINE
8
DEFAULT_255_2_778
10
16.0369532
20
26.8462489
11
15.7397532
21
25.7426489
0
LINE
8
DEFAULT_255_2_778
10
15.2817532
20
25.0028489
11
14.9351532
21
25.1658489
0
LINE
8
DEFAULT_255_2_778
10
15.4177532
20
25.7677489
11
15.2074532
21
25.7677489
0
LINE
8
DEFAULT_255_2_778
10
15.2074532
20
25.7677489
11
14.8857532
21
26.9216489
0
LINE
8
DEFAULT_255_2_778
10
16.0985532
20
26.3072489
11
16.0985532
21
26.3072489
0
LINE
8
DEFAULT_255_2_778
10
16.5441532
20
26.3196489
11
16.5441532
21
26.3196489
0
LINE
8
DEFAULT_255_2_778
10
13.5736532
20
26.3072489
11
13.5736532
21
26.3072489
0
LINE
8
DEFAULT_255_2_778
10
14.0191532
20
26.3196489
11
14.0191532
21
26.3196489
0
LINE
8
DEFAULT_255_2_778
10
12.0390532
20
27.6489489
11
12.5835532
21
27.6489489
0
LINE
8
DEFAULT_255_2_778
10
12.5835532
20
27.6489489
11
12.5835532
21
26.9216489
0
LINE
8
DEFAULT_255_2_778
10
12.5835532
20
26.9216489
11
13.0291532
21
27.6489489
0
LINE
8
DEFAULT_255_2_778
10
13.0291532
20
27.6489489
11
13.4995532
21
27.6489489
0
LINE
8
DEFAULT_255_2_778
10
13.4995532
20
27.6489489
11
12.9796532
21
26.7961489
0
LINE
8
DEFAULT_255_2_778
10
12.9796532
20
26.7961489
11
13.5985532
21
25.7428489
0
LINE
8
DEFAULT_255_2_778
10
13.5985532
20
25.7428489
11
13.0291532
21
25.7428489
0
LINE
8
DEFAULT_255_2_778
10
13.0291532
20
25.7428489
11
12.5586532
21
26.5453489
0
LINE
8
DEFAULT_255_2_778
10
12.5586532
20
26.5453489
11
12.5586532
21
25.7428489
0
LINE
8
DEFAULT_255_2_778
10
12.5586532
20
25.7428489
11
12.0390532
21
25.7428489
0
LINE
8
DEFAULT_255_2_778
10
12.0390532
20
25.7428489
11
12.0390532
21
27.6489489
0
LINE
8
DEFAULT_255_1_388
10
10.3519605
20
22.5113
11
9.8857212
21
23.1230131
0
LINE
8
DEFAULT_255_1_388
10
9.8857212
20
23.1230131
11
9.7248868
21
22.9558537
0
LINE
8
DEFAULT_255_1_388
10
9.7248868
20
22.9558537
11
9.7248868
21
22.5113
0
LINE
8
DEFAULT_255_1_388
10
9.7248868
20
22.5113
11
9.5514024
21
22.5113
0
LINE
8
DEFAULT_255_1_388
10
9.5514024
20
22.5113
11
9.5514024
21
23.8268898
0
LINE
8
DEFAULT_255_1_388
10
9.5514024
20
23.8268898
11
9.7248868
21
23.8268898
0
LINE
8
DEFAULT_255_1_388
10
9.7248868
20
23.8268898
11
9.7248868
21
23.1763234
0
LINE
8
DEFAULT_255_1_388
10
9.7248868
20
23.1763234
11
10.309493
21
23.8268898
0
LINE
8
DEFAULT_255_1_388
10
10.309493
20
23.8268898
11
10.5191199
21
23.8268898
0
LINE
8
DEFAULT_255_1_388
10
10.5191199
20
23.8268898
11
10.0013775
21
23.2458979
0
LINE
8
DEFAULT_255_1_388
10
10.0013775
20
23.2458979
11
10.5597803
21
22.5113
0
LINE
8
DEFAULT_255_1_388
10
10.5597803
20
22.5113
11
10.3519605
21
22.5113
0
LINE
8
DEFAULT_255_1_388
10
11.6955608
20
23.2097553
11
11.6955608
21
23.1266274
0
LINE
8
DEFAULT_255_1_388
10
10.6374869
20
23.1148811
11
10.6374869
21
23.2097553
0
LINE
8
DEFAULT_255_1_388
10
11.52298
20
23.1139775
11
11.52298
21
23.2115625
0
LINE
8
DEFAULT_255_1_388
10
10.8100677
20
23.2233088
11
10.8100677
21
23.1266274
0
ARC
8
DEFAULT_255_1_388
10
10.7233347
20
23.1221726
40
0.9722364
50
350.4878118
51
0.2625322
0
ARC
8
DEFAULT_255_1_388
10
10.9813307
20
23.0777994
40
0.7104556
50
336.0277991
51
350.5787241
0
ARC
8
DEFAULT_255_1_388
10
11.1326414
20
23.0094243
40
0.544417
50
319.887443
51
336.1331163
0
ARC
8
DEFAULT_255_1_388
10
11.2004226
20
22.9551733
40
0.4576311
50
302.4806296
51
319.6144102
0
ARC
8
DEFAULT_255_1_388
10
11.1874847
20
22.9801067
40
0.4856183
50
275.8196423
51
302.1885521
0
ARC
8
DEFAULT_255_1_388
10
11.1687708
20
23.1086466
40
0.6154183
50
269.9169897
51
276.339506
0
ARC
8
DEFAULT_255_1_388
10
11.1637309
20
23.031468
40
0.5382553
50
252.5221437
51
270.441579
0
ARC
8
DEFAULT_255_1_388
10
11.147556
20
22.9708046
40
0.4755426
50
237.5349961
51
252.1858334
0
ARC
8
DEFAULT_255_1_388
10
11.1575936
20
22.983612
40
0.4917393
50
209.0632754
51
237.3492577
0
ARC
8
DEFAULT_255_1_388
10
11.2555261
20
23.0451104
40
0.6072464
50
205.118533
51
209.6465345
0
ARC
8
DEFAULT_255_1_388
10
11.3451264
20
23.0831174
40
0.7045164
50
188.7216633
51
204.8239753
0
ARC
8
DEFAULT_255_1_388
10
11.5698039
20
23.1209387
40
0.9323368
50
180.3722704
51
188.9253909
0
ARC
8
DEFAULT_255_1_388
10
11.56676
20
23.2142416
40
0.929284
50
169.5253055
51
180.2766048
0
ARC
8
DEFAULT_255_1_388
10
11.3527399
20
23.2536024
40
0.7116745
50
155.8314601
51
169.5088611
0
ARC
8
DEFAULT_255_1_388
10
11.2086862
20
23.3204312
40
0.5528904
50
139.6259579
51
156.0379072
0
ARC
8
DEFAULT_255_1_388
10
11.1423396
20
23.3738143
40
0.4677708
50
122.6414784
51
139.3431662
0
ARC
8
DEFAULT_255_1_388
10
11.1536651
20
23.3531787
40
0.4912586
50
93.0224537
51
122.4556091
0
ARC
8
DEFAULT_255_1_388
10
11.1658172
20
23.2445776
40
0.6003837
50
89.9756766
51
93.6340839
0
ARC
8
DEFAULT_255_1_388
10
11.1701769
20
23.2894879
40
0.5554884
50
73.7463329
51
90.4234008
0
ARC
8
DEFAULT_255_1_388
10
11.1899243
20
23.3659772
40
0.4765353
50
57.663051
51
73.4516911
0
ARC
8
DEFAULT_255_1_388
10
11.189028
20
23.3684108
40
0.4749629
50
29.1441355
51
57.4146687
0
ARC
8
DEFAULT_255_1_388
10
11.0838092
20
23.3027046
40
0.5988917
50
24.0985653
51
29.732054
0
ARC
8
DEFAULT_255_1_388
10
10.9675723
20
23.2545154
40
0.7246823
50
8.6654943
51
23.8241215
0
ARC
8
DEFAULT_255_1_388
10
10.7162142
20
23.2135037
40
0.9793537
50
359.7807044
51
8.8218476
0
ARC
8
DEFAULT_255_1_388
10
10.5871846
20
23.2163731
40
0.9358078
50
359.7054632
51
8.0359751
0
ARC
8
DEFAULT_255_1_388
10
10.9246898
20
23.2655252
40
0.5947474
50
7.8926278
51
20.2962188
0
ARC
8
DEFAULT_255_1_388
10
11.1077748
20
23.3330367
40
0.3996117
50
20.3231056
51
36.4990255
0
ARC
8
DEFAULT_255_1_388
10
11.1849045
20
23.3924399
40
0.3022818
50
36.1436715
51
85.6627846
0
ARC
8
DEFAULT_255_1_388
10
11.1666301
20
23.2754881
40
0.4203853
50
84.3845912
51
90.076054
0
ARC
8
DEFAULT_255_1_388
10
11.1618656
20
23.3497416
40
0.346157
50
89.3037228
51
109.9046209
0
ARC
8
DEFAULT_255_1_388
10
11.1514489
20
23.3927379
40
0.3022217
50
110.8229774
51
143.917961
0
ARC
8
DEFAULT_255_1_388
10
11.2564848
20
23.3125455
40
0.434348
50
143.5289166
51
163.2980252
0
ARC
8
DEFAULT_255_1_388
10
11.4711135
20
23.2450685
40
0.659321
50
163.0418884
51
174.3139873
0
ARC
8
DEFAULT_255_1_388
10
11.74161
20
23.2138378
40
0.9315905
50
174.050934
51
179.4174954
0
ARC
8
DEFAULT_255_1_388
10
11.6848044
20
23.1219382
40
0.8747493
50
179.6928582
51
188.7908948
0
ARC
8
DEFAULT_255_1_388
10
11.3851844
20
23.0740086
40
0.5713262
50
188.6328449
51
202.5630732
0
ARC
8
DEFAULT_255_1_388
10
11.244068
20
23.0173142
40
0.4192612
50
202.8078931
51
216.1195888
0
ARC
8
DEFAULT_255_1_388
10
11.1530197
20
22.9440479
40
0.3025752
50
215.0755613
51
264.6379773
0
ARC
8
DEFAULT_255_1_388
10
11.1673035
20
23.0375376
40
0.3970284
50
263.8464302
51
270.0830805
0
ARC
8
DEFAULT_255_1_388
10
11.171958
20
23.0084808
40
0.3679937
50
269.3649295
51
287.5149684
0
ARC
8
DEFAULT_255_1_388
10
11.192002
20
22.9356714
40
0.2925408
50
288.0629019
51
323.8115617
0
ARC
8
DEFAULT_255_1_388
10
11.0939997
20
23.0087754
40
0.4148018
50
323.6546541
51
342.6591359
0
ARC
8
DEFAULT_255_1_388
10
10.8654654
20
23.083128
40
0.6551163
50
342.4092446
51
353.6451501
0
ARC
8
DEFAULT_255_1_388
10
10.5469448
20
23.1227565
40
0.9760748
50
353.4027553
51
359.4846611
0
LINE
8
DEFAULT_255_1_388
10
12.8286307
20
23.4464892
11
12.6542427
21
23.4464892
0
LINE
8
DEFAULT_255_1_388
10
11.8753702
20
22.8926042
11
12.0497581
21
22.8926042
0
ARC
8
DEFAULT_255_1_388
10
12.7283154
20
24.4528821
40
1.4087688
50
248.9196578
51
254.1442424
0
ARC
8
DEFAULT_255_1_388
10
12.5393034
20
23.9662805
40
0.8867498
50
241.6337352
51
249.0064643
0
ARC
8
DEFAULT_255_1_388
10
12.3673348
20
23.6511764
40
0.5277799
50
230.4982261
51
241.8087583
0
ARC
8
DEFAULT_255_1_388
10
12.2791119
20
23.5387686
40
0.3849419
50
227.4062979
51
229.9877433
0
ARC
8
DEFAULT_255_1_388
10
12.2242465
20
23.4852155
40
0.3084129
50
200.6782127
51
228.1765252
0
ARC
8
DEFAULT_255_1_388
10
12.2323834
20
23.4835277
40
0.315461
50
179.506278
51
199.8695278
0
ARC
8
DEFAULT_255_1_388
10
12.2313423
20
23.4918671
40
0.3144584
50
132.4834401
51
181.0242352
0
ARC
8
DEFAULT_255_1_388
10
12.2982627
20
23.4286788
40
0.4063094
50
129.2526113
51
133.4249077
0
ARC
8
DEFAULT_255_1_388
10
12.314822
20
23.4038619
40
0.436014
50
101.9878945
51
128.8741833
0
ARC
8
DEFAULT_255_1_388
10
12.3596635
20
23.210236
40
0.6347415
50
89.5906376
51
102.3170567
0
ARC
8
DEFAULT_255_1_388
10
12.3675947
20
23.2460586
40
0.5989122
50
77.2359491
51
90.3248968
0
ARC
8
DEFAULT_255_1_388
10
12.3908878
20
23.3548554
40
0.4876594
50
63.8379856
51
77.0808925
0
ARC
8
DEFAULT_255_1_388
10
12.4221411
20
23.4130882
40
0.4216191
50
45.9863127
51
64.1608798
0
ARC
8
DEFAULT_255_1_388
10
12.4514805
20
23.446599
40
0.3771394
50
32.2747934
51
45.6544796
0
ARC
8
DEFAULT_255_1_388
10
12.4589611
20
23.4487426
40
0.3696765
50
359.6507495
51
32.6129943
0
ARC
8
DEFAULT_255_1_388
10
12.3528794
20
23.4492788
40
0.3013762
50
359.469654
51
14.983205
0
ARC
8
DEFAULT_255_1_388
10
12.4322046
20
23.4705288
40
0.2192542
50
14.9781954
51
48.2004799
0
ARC
8
DEFAULT_255_1_388
10
12.4137157
20
23.4472937
40
0.2489048
50
48.5926661
51
74.1242559
0
ARC
8
DEFAULT_255_1_388
10
12.376196
20
23.3234607
40
0.3782845
50
73.7889321
51
86.6653996
0
ARC
8
DEFAULT_255_1_388
10
12.3646774
20
23.1876955
40
0.5145025
50
86.2642725
51
90.0533288
0
ARC
8
DEFAULT_255_1_388
10
12.3614867
20
23.2321376
40
0.4700681
50
89.669455
51
99.2313411
0
ARC
8
DEFAULT_255_1_388
10
12.3342027
20
23.3946401
40
0.3052945
50
99.0695987
51
113.7659242
0
ARC
8
DEFAULT_255_1_388
10
12.3034021
20
23.4672772
40
0.226407
50
114.0402885
51
127.9848946
0
ARC
8
DEFAULT_255_1_388
10
12.2763497
20
23.5005884
40
0.1835045
50
127.7287217
51
176.7106493
0
ARC
8
DEFAULT_255_1_388
10
12.3527162
20
23.489221
40
0.2604907
50
175.1780759
51
180.0581213
0
ARC
8
DEFAULT_255_1_388
10
12.2578506
20
23.4878411
40
0.1656287
50
179.6140658
51
228.124674
0
ARC
8
DEFAULT_255_1_388
10
12.3075863
20
23.533894
40
0.2332038
50
226.5785315
51
230.8792476
0
ARC
8
DEFAULT_255_1_388
10
12.360535
20
23.6041908
40
0.3211664
50
231.4636401
51
241.9261664
0
ARC
8
DEFAULT_255_1_388
10
12.4952133
20
23.8520349
40
0.6032345
50
241.7177136
51
248.3259138
0
ARC
8
DEFAULT_255_1_388
10
12.6510728
20
24.2381771
40
1.0196417
50
248.2007377
51
252.4527713
0
ARC
8
DEFAULT_255_1_388
10
12.7864255
20
24.6566092
40
1.4594143
50
252.3388938
51
254.347037
0
ARC
8
DEFAULT_255_1_388
10
11.9379555
20
21.6218095
40
1.6917621
50
71.0197462
51
74.4085467
0
ARC
8
DEFAULT_255_1_388
10
12.1286643
20
22.1723144
40
1.1091618
50
66.1845203
51
71.086519
0
ARC
8
DEFAULT_255_1_388
10
12.3037192
20
22.5664439
40
0.6779073
50
59.3537334
51
66.269255
0
ARC
8
DEFAULT_255_1_388
10
12.4036918
20
22.7355777
40
0.4814366
50
49.1021732
51
59.3294421
0
ARC
8
DEFAULT_255_1_388
10
12.4957906
20
22.8405575
40
0.3417875
50
32.7924183
51
49.2503526
0
ARC
8
DEFAULT_255_1_388
10
12.530752
20
22.8655311
40
0.2988789
50
31.121225
51
32.3977355
0
ARC
8
DEFAULT_255_1_388
10
12.5219698
20
22.8622728
40
0.3080861
50
8.1116803
51
30.7958224
0
ARC
8
DEFAULT_255_1_388
10
12.4308044
20
22.8467437
40
0.4005385
50
359.8390945
51
8.4707348
0
ARC
8
DEFAULT_255_1_388
10
12.5012092
20
22.8412751
40
0.3301608
50
337.4732479
51
0.7538283
0
ARC
8
DEFAULT_255_1_388
10
12.5213117
20
22.8390554
40
0.3107929
50
307.5917028
51
336.4313755
0
ARC
8
DEFAULT_255_1_388
10
12.4702175
20
22.8958509
40
0.3870096
50
307.6560665
51
308.4561779
0
ARC
8
DEFAULT_255_1_388
10
12.4436391
20
22.9366832
40
0.435591
50
284.3733666
51
307.1426212
0
ARC
8
DEFAULT_255_1_388
10
12.3879285
20
23.1416391
40
0.6479685
50
272.4384566
51
284.6464689
0
ARC
8
DEFAULT_255_1_388
10
12.373667
20
23.3440434
40
0.8508149
50
269.9708517
51
272.8180721
0
ARC
8
DEFAULT_255_1_388
10
12.3688353
20
23.1148283
40
0.6216151
50
248.2707343
51
270.4054609
0
ARC
8
DEFAULT_255_1_388
10
12.3627224
20
23.0933673
40
0.5994203
50
246.1380358
51
248.054058
0
ARC
8
DEFAULT_255_1_388
10
12.3156367
20
22.9944705
40
0.4899388
50
233.1671897
51
246.4951656
0
ARC
8
DEFAULT_255_1_388
10
12.2533002
20
22.9103137
40
0.3852115
50
215.3403381
51
233.084328
0
ARC
8
DEFAULT_255_1_388
10
12.2226366
20
22.8880093
40
0.3472969
50
179.2419235
51
215.2648426
0
ARC
8
DEFAULT_255_1_388
10
12.3089917
20
22.8895979
40
0.259251
50
179.3355796
51
199.1045873
0
ARC
8
DEFAULT_255_1_388
10
12.2716059
20
22.8798223
40
0.2207454
50
199.8830064
51
232.7061328
0
ARC
8
DEFAULT_255_1_388
10
12.3247333
20
22.9466456
40
0.306101
50
232.3736206
51
255.5136621
0
ARC
8
DEFAULT_255_1_388
10
12.3630839
20
23.0866177
40
0.4512213
50
255.2447928
51
267.5318292
0
ARC
8
DEFAULT_255_1_388
10
12.3729306
20
23.2252709
40
0.5901825
50
267.1564563
51
270.0294721
0
ARC
8
DEFAULT_255_1_388
10
12.3760631
20
23.1753623
40
0.5402814
50
269.6999944
51
278.1662446
0
ARC
8
DEFAULT_255_1_388
10
12.4048659
20
22.9806974
40
0.3435003
50
278.0229022
51
290.6255326
0
ARC
8
DEFAULT_255_1_388
10
12.4439825
20
22.8763547
40
0.2320666
50
290.6616368
51
307.0374127
0
ARC
8
DEFAULT_255_1_388
10
12.4777725
20
22.834904
40
0.1786372
50
306.3942078
51
355.303191
0
ARC
8
DEFAULT_255_1_388
10
12.4202018
20
22.8435186
40
0.2367516
50
354.3662092
51
0.0709489
0
ARC
8
DEFAULT_255_1_388
10
12.4361887
20
22.8460561
40
0.2207761
50
359.4175379
51
16.1975911
0
ARC
8
DEFAULT_255_1_388
10
12.4874005
20
22.8600954
40
0.1676828
50
16.4721294
51
52.6261798
0
ARC
8
DEFAULT_255_1_388
10
12.3950512
20
22.7381606
40
0.3206412
50
52.7381828
51
62.4979144
0
ARC
8
DEFAULT_255_1_388
10
12.2392265
20
22.4449236
40
0.6527035
50
62.2517425
51
68.1219454
0
ARC
8
DEFAULT_255_1_388
10
12.0457753
20
21.9694951
40
1.1659797
50
68.006043
51
71.8055127
0
ARC
8
DEFAULT_255_1_388
10
11.8437661
20
21.3636723
40
1.8045908
50
71.718361
51
73.9260743
0
LINE
8
DEFAULT_255_1_388
10
13.9626041
20
23.8268898
11
13.9626041
21
23.6841267
0
LINE
8
DEFAULT_255_1_388
10
13.9626041
20
23.6841267
11
13.5397359
21
23.6841267
0
LINE
8
DEFAULT_255_1_388
10
13.5397359
20
23.6841267
11
13.5397359
21
22.5113
0
LINE
8
DEFAULT_255_1_388
10
13.5397359
20
22.5113
11
13.3671551
21
22.5113
0
LINE
8
DEFAULT_255_1_388
10
13.3671551
20
22.5113
11
13.3671551
21
23.6841267
0
LINE
8
DEFAULT_255_1_388
10
13.3671551
20
23.6841267
11
12.9451905
21
23.6841267
0
LINE
8
DEFAULT_255_1_388
10
12.9451905
20
23.6841267
11
12.9451905
21
23.8268898
0
LINE
8
DEFAULT_255_1_388
10
12.9451905
20
23.8268898
11
13.9626041
21
23.8268898
0
LINE
8
DEFAULT_255_1_388
10
14.9384537
20
22.5113
11
14.8128582
21
22.8546545
0
LINE
8
DEFAULT_255_1_388
10
14.8128582
20
22.8546545
11
14.2616839
21
22.8546545
0
LINE
8
DEFAULT_255_1_388
10
14.2616839
20
22.8546545
11
14.1378956
21
22.5113
0
LINE
8
DEFAULT_255_1_388
10
14.1378956
20
22.5113
11
13.9589898
21
22.5113
0
LINE
8
DEFAULT_255_1_388
10
13.9589898
20
22.5113
11
14.4613716
21
23.8268898
0
LINE
8
DEFAULT_255_1_388
10
14.4613716
20
23.8268898
11
14.6131705
21
23.8268898
0
LINE
8
DEFAULT_255_1_388
10
14.6131705
20
23.8268898
11
15.1164559
21
22.5113
0
LINE
8
DEFAULT_255_1_388
10
15.1164559
20
22.5113
11
14.9384537
21
22.5113
0
LINE
8
DEFAULT_255_1_388
10
14.537271
20
23.6127451
11
14.3140906
21
22.9974177
0
LINE
8
DEFAULT_255_1_388
10
14.3140906
20
22.9974177
11
14.761355
21
22.9974177
0
LINE
8
DEFAULT_255_1_388
10
14.761355
20
22.9974177
11
14.537271
21
23.6127451
0
LINE
8
DEFAULT_255_1_388
10
16.0769449
20
22.9287468
11
16.2513328
21
22.9287468
0
LINE
8
DEFAULT_255_1_388
10
15.2384371
20
23.1076525
11
15.2384371
21
23.2341516
0
LINE
8
DEFAULT_255_1_388
10
16.2513328
20
23.4040217
11
16.0769449
21
23.4040217
0
LINE
8
DEFAULT_255_1_388
10
15.412825
20
23.2296337
11
15.412825
21
23.1022312
0
ARC
8
DEFAULT_255_1_388
10
15.6347562
20
22.9959329
40
0.6202263
50
340.1774904
51
353.7812217
0
ARC
8
DEFAULT_255_1_388
10
15.8115415
20
22.9300893
40
0.4315926
50
311.4560052
51
340.4420756
0
ARC
8
DEFAULT_255_1_388
10
15.8077955
20
22.9425665
40
0.4434573
50
282.4332229
51
310.7514507
0
ARC
8
DEFAULT_255_1_388
10
15.7583772
20
23.1467703
40
0.6535262
50
269.9358869
51
282.8096729
0
ARC
8
DEFAULT_255_1_388
10
15.7525712
20
23.2980329
40
0.8048043
50
269.9995752
51
270.3612856
0
ARC
8
DEFAULT_255_1_388
10
15.7466202
20
23.0181781
40
0.5249831
50
250.7885263
51
270.6488451
0
ARC
8
DEFAULT_255_1_388
10
15.7277027
20
22.9464853
40
0.4510942
50
219.3628377
51
250.0611024
0
ARC
8
DEFAULT_255_1_388
10
15.8209901
20
23.0257653
40
0.5735046
50
193.5480293
51
219.5755675
0
ARC
8
DEFAULT_255_1_388
10
16.087811
20
23.095052
40
0.849146
50
181.1220183
51
193.8754971
0
ARC
8
DEFAULT_255_1_388
10
16.3201343
20
23.1074914
40
1.0816971
50
179.9914644
51
181.5398227
0
ARC
8
DEFAULT_255_1_388
10
16.1124653
20
23.2383586
40
0.8740384
50
169.5837606
51
180.275782
0
ARC
8
DEFAULT_255_1_388
10
15.9058002
20
23.2765439
40
0.6638751
50
155.0367033
51
169.6002779
0
ARC
8
DEFAULT_255_1_388
10
15.778046
20
23.3381336
40
0.5220662
50
136.7831557
51
155.2472983
0
ARC
8
DEFAULT_255_1_388
10
15.7342251
20
23.3753577
40
0.4646502
50
121.7633063
51
136.4281161
0
ARC
8
DEFAULT_255_1_388
10
15.749409
20
23.3473049
40
0.4964979
50
95.6460018
51
121.5489589
0
ARC
8
DEFAULT_255_1_388
10
15.7671065
20
23.2225704
40
0.6223912
50
89.9245727
51
96.1375919
0
ARC
8
DEFAULT_255_1_388
10
15.772777
20
23.2359721
40
0.6090084
50
76.6779212
51
90.456405
0
ARC
8
DEFAULT_255_1_388
10
15.8170583
20
23.414906
40
0.42469
50
47.4858803
51
76.9287069
0
ARC
8
DEFAULT_255_1_388
10
15.8005197
20
23.4036623
40
0.4441778
50
16.5424081
51
46.8934505
0
ARC
8
DEFAULT_255_1_388
10
15.6196246
20
23.3442265
40
0.6345318
50
5.4072971
51
17.0363711
0
ARC
8
DEFAULT_255_1_388
10
15.4577972
20
23.3182304
40
0.6250632
50
7.8888693
51
15.9242022
0
ARC
8
DEFAULT_255_1_388
10
15.6812957
20
23.3831309
40
0.3923364
50
15.7650676
51
27.9410069
0
ARC
8
DEFAULT_255_1_388
10
15.8055126
20
23.4496317
40
0.2514401
50
27.8167196
51
46.4007942
0
ARC
8
DEFAULT_255_1_388
10
15.8110968
20
23.4489882
40
0.2480958
50
47.4372362
51
75.0695672
0
ARC
8
DEFAULT_255_1_388
10
15.7763804
20
23.3281277
40
0.3738281
50
74.7009379
51
87.8124314
0
ARC
8
DEFAULT_255_1_388
10
15.7681421
20
23.2097659
40
0.4924321
50
87.3802571
51
90.0251599
0
ARC
8
DEFAULT_255_1_388
10
15.7638068
20
23.3417997
40
0.3604218
50
89.3451886
51
108.5744412
0
ARC
8
DEFAULT_255_1_388
10
15.748406
20
23.3995836
40
0.3007661
50
109.2998307
51
143.3037387
0
ARC
8
DEFAULT_255_1_388
10
15.834135
20
23.3336584
40
0.4089031
50
143.075267
51
163.1918576
0
ARC
8
DEFAULT_255_1_388
10
16.0537184
20
23.2643652
40
0.6391492
50
162.9375929
51
174.6208776
0
ARC
8
DEFAULT_255_1_388
10
16.3491566
20
23.2319711
40
0.9363344
50
174.342123
51
180.1430283
0
ARC
8
DEFAULT_255_1_388
10
16.2444107
20
23.0976117
40
0.8315986
50
179.6817261
51
189.150555
0
ARC
8
DEFAULT_255_1_388
10
15.9630856
20
23.0507559
40
0.5464044
50
188.9911061
51
203.5772363
0
ARC
8
DEFAULT_255_1_388
10
15.8416148
20
23.0003539
40
0.4149206
50
203.9075402
51
215.1312435
0
ARC
8
DEFAULT_255_1_388
10
15.7377946
20
22.9198907
40
0.2837747
50
213.9071511
51
263.8848919
0
ARC
8
DEFAULT_255_1_388
10
15.7518939
20
23.0081519
40
0.3730641
50
263.1757928
51
270.1031044
0
ARC
8
DEFAULT_255_1_388
10
15.7555019
20
23.1484511
40
0.5133712
50
269.6722503
51
279.0606936
0
ARC
8
DEFAULT_255_1_388
10
15.7855174
20
22.967015
40
0.3294739
50
278.8749101
51
293.6349581
0
ARC
8
DEFAULT_255_1_388
10
15.8215378
20
22.8824251
40
0.2375405
50
293.8553806
51
310.0518171
0
ARC
8
DEFAULT_255_1_388
10
15.8220886
20
22.8754021
40
0.2318463
50
311.0644687
51
332.0111037
0
ARC
8
DEFAULT_255_1_388
10
15.687956
20
22.9493702
40
0.3850112
50
331.6586806
51
343.2877423
0
ARC
8
DEFAULT_255_1_388
10
15.4559025
20
23.0206806
40
0.6277712
50
343.1446576
51
351.0103568
0
ARC
8
DEFAULT_255_1_388
10
15.2926348
20
23.0506873
40
0.7937327
50
350.71248
51
351.1626997
0
LINE
8
DEFAULT_255_1_388
10
17.8190171
20
23.4464892
11
17.6446292
21
23.4464892
0
LINE
8
DEFAULT_255_1_388
10
16.8657566
20
22.8926042
11
17.0401446
21
22.8926042
0
ARC
8
DEFAULT_255_1_388
10
17.7187019
20
24.4528821
40
1.4087688
50
248.9196578
51
254.1442424
0
ARC
8
DEFAULT_255_1_388
10
17.5296899
20
23.9662805
40
0.8867498
50
241.6337352
51
249.0064643
0
ARC
8
DEFAULT_255_1_388
10
17.3577212
20
23.6511764
40
0.5277799
50
230.4982261
51
241.8087583
0
ARC
8
DEFAULT_255_1_388
10
17.2694984
20
23.5387686
40
0.3849419
50
227.4062979
51
229.9877433
0
ARC
8
DEFAULT_255_1_388
10
17.214633
20
23.4852155
40
0.3084129
50
200.6782127
51
228.1765252
0
ARC
8
DEFAULT_255_1_388
10
17.2227699
20
23.4835277
40
0.315461
50
179.506278
51
199.8695278
0
ARC
8
DEFAULT_255_1_388
10
17.2217288
20
23.4918671
40
0.3144584
50
132.4834401
51
181.0242352
0
ARC
8
DEFAULT_255_1_388
10
17.2886492
20
23.4286788
40
0.4063094
50
129.2526113
51
133.4249077
0
ARC
8
DEFAULT_255_1_388
10
17.3052085
20
23.4038619
40
0.436014
50
101.9878945
51
128.8741833
0
ARC
8
DEFAULT_255_1_388
10
17.35005
20
23.210236
40
0.6347415
50
89.5906376
51
102.3170567
0
ARC
8
DEFAULT_255_1_388
10
17.3579811
20
23.2460586
40
0.5989122
50
77.2359491
51
90.3248968
0
ARC
8
DEFAULT_255_1_388
10
17.3812742
20
23.3548554
40
0.4876594
50
63.8379856
51
77.0808925
0
ARC
8
DEFAULT_255_1_388
10
17.4125276
20
23.4130882
40
0.4216191
50
45.9863127
51
64.1608798
0
ARC
8
DEFAULT_255_1_388
10
17.441867
20
23.446599
40
0.3771394
50
32.2747934
51
45.6544796
0
ARC
8
DEFAULT_255_1_388
10
17.4493476
20
23.4487426
40
0.3696765
50
359.6507495
51
32.6129943
0
ARC
8
DEFAULT_255_1_388
10
17.3432659
20
23.4492788
40
0.3013762
50
359.469654
51
14.983205
0
ARC
8
DEFAULT_255_1_388
10
17.4225911
20
23.4705288
40
0.2192542
50
14.9781954
51
48.2004799
0
ARC
8
DEFAULT_255_1_388
10
17.4041022
20
23.4472937
40
0.2489048
50
48.5926661
51
74.1242559
0
ARC
8
DEFAULT_255_1_388
10
17.3665824
20
23.3234607
40
0.3782845
50
73.7889321
51
86.6653996
0
ARC
8
DEFAULT_255_1_388
10
17.3550639
20
23.1876955
40
0.5145025
50
86.2642725
51
90.0533288
0
ARC
8
DEFAULT_255_1_388
10
17.3518732
20
23.2321376
40
0.4700681
50
89.669455
51
99.2313411
0
ARC
8
DEFAULT_255_1_388
10
17.3245891
20
23.3946401
40
0.3052945
50
99.0695987
51
113.7659242
0
ARC
8
DEFAULT_255_1_388
10
17.2937886
20
23.4672772
40
0.226407
50
114.0402885
51
127.9848946
0
ARC
8
DEFAULT_255_1_388
10
17.2667362
20
23.5005884
40
0.1835045
50
127.7287217
51
176.7106493
0
ARC
8
DEFAULT_255_1_388
10
17.3431027
20
23.489221
40
0.2604907
50
175.1780759
51
180.0581213
0
ARC
8
DEFAULT_255_1_388
10
17.2482371
20
23.4878411
40
0.1656287
50
179.6140658
51
228.124674
0
ARC
8
DEFAULT_255_1_388
10
17.2979728
20
23.533894
40
0.2332038
50
226.5785315
51
230.8792476
0
ARC
8
DEFAULT_255_1_388
10
17.3509215
20
23.6041908
40
0.3211664
50
231.4636401
51
241.9261664
0
ARC
8
DEFAULT_255_1_388
10
17.4855998
20
23.8520349
40
0.6032345
50
241.7177136
51
248.3259138
0
ARC
8
DEFAULT_255_1_388
10
17.6414593
20
24.2381771
40
1.0196417
50
248.2007377
51
252.4527713
0
ARC
8
DEFAULT_255_1_388
10
17.7768119
20
24.6566092
40
1.4594143
50
252.3388938
51
254.347037
0
ARC
8
DEFAULT_255_1_388
10
16.928342
20
21.6218095
40
1.6917621
50
71.0197462
51
74.4085467
0
ARC
8
DEFAULT_255_1_388
10
17.1190508
20
22.1723144
40
1.1091618
50
66.1845203
51
71.086519
0
ARC
8
DEFAULT_255_1_388
10
17.2941057
20
22.5664439
40
0.6779073
50
59.3537334
51
66.269255
0
ARC
8
DEFAULT_255_1_388
10
17.3940783
20
22.7355777
40
0.4814366
50
49.1021732
51
59.3294421
0
ARC
8
DEFAULT_255_1_388
10
17.4861771
20
22.8405575
40
0.3417875
50
32.7924183
51
49.2503526
0
ARC
8
DEFAULT_255_1_388
10
17.5211385
20
22.8655311
40
0.2988789
50
31.121225
51
32.3977355
0
ARC
8
DEFAULT_255_1_388
10
17.5123563
20
22.8622728
40
0.3080861
50
8.1116803
51
30.7958224
0
ARC
8
DEFAULT_255_1_388
10
17.4211909
20
22.8467437
40
0.4005385
50
359.8390945
51
8.4707348
0
ARC
8
DEFAULT_255_1_388
10
17.4915956
20
22.8412751
40
0.3301608
50
337.4732479
51
0.7538283
0
ARC
8
DEFAULT_255_1_388
10
17.5116982
20
22.8390554
40
0.3107929
50
307.5917028
51
336.4313755
0
ARC
8
DEFAULT_255_1_388
10
17.4606039
20
22.8958509
40
0.3870096
50
307.6560665
51
308.4561779
0
ARC
8
DEFAULT_255_1_388
10
17.4340256
20
22.9366832
40
0.435591
50
284.3733666
51
307.1426212
0
ARC
8
DEFAULT_255_1_388
10
17.378315
20
23.1416391
40
0.6479685
50
272.4384566
51
284.6464689
0
ARC
8
DEFAULT_255_1_388
10
17.3640535
20
23.3440434
40
0.8508149
50
269.9708517
51
272.8180721
0
ARC
8
DEFAULT_255_1_388
10
17.3592218
20
23.1148283
40
0.6216151
50
248.2707343
51
270.4054609
0
ARC
8
DEFAULT_255_1_388
10
17.3531089
20
23.0933673
40
0.5994203
50
246.1380358
51
248.054058
0
ARC
8
DEFAULT_255_1_388
10
17.3060232
20
22.9944705
40
0.4899388
50
233.1671897
51
246.4951656
0
ARC
8
DEFAULT_255_1_388
10
17.2436867
20
22.9103137
40
0.3852115
50
215.3403381
51
233.084328
0
ARC
8
DEFAULT_255_1_388
10
17.2130231
20
22.8880093
40
0.3472969
50
179.2419235
51
215.2648426
0
ARC
8
DEFAULT_255_1_388
10
17.2993782
20
22.8895979
40
0.259251
50
179.3355796
51
199.1045873
0
ARC
8
DEFAULT_255_1_388
10
17.2619924
20
22.8798223
40
0.2207454
50
199.8830064
51
232.7061328
0
ARC
8
DEFAULT_255_1_388
10
17.3151198
20
22.9466456
40
0.306101
50
232.3736206
51
255.5136621
0
ARC
8
DEFAULT_255_1_388
10
17.3534704
20
23.0866177
40
0.4512213
50
255.2447928
51
267.5318292
0
ARC
8
DEFAULT_255_1_388
10
17.3633171
20
23.2252709
40
0.5901825
50
267.1564563
51
270.0294721
0
ARC
8
DEFAULT_255_1_388
10
17.3664496
20
23.1753623
40
0.5402814
50
269.6999944
51
278.1662446
0
ARC
8
DEFAULT_255_1_388
10
17.3952524
20
22.9806974
40
0.3435003
50
278.0229022
51
290.6255326
0
ARC
8
DEFAULT_255_1_388
10
17.434369
20
22.8763547
40
0.2320666
50
290.6616368
51
307.0374127
0
ARC
8
DEFAULT_255_1_388
10
17.468159
20
22.834904
40
0.1786372
50
306.3942078
51
355.303191
0
ARC
8
DEFAULT_255_1_388
10
17.4105883
20
22.8435186
40
0.2367516
50
354.3662092
51
0.0709489
0
ARC
8
DEFAULT_255_1_388
10
17.4265752
20
22.8460561
40
0.2207761
50
359.4175379
51
16.1975911
0
ARC
8
DEFAULT_255_1_388
10
17.477787
20
22.8600954
40
0.1676828
50
16.4721294
51
52.6261798
0
ARC
8
DEFAULT_255_1_388
10
17.3854377
20
22.7381606
40
0.3206412
50
52.7381828
51
62.4979144
0
ARC
8
DEFAULT_255_1_388
10
17.229613
20
22.4449236
40
0.6527035
50
62.2517425
51
68.1219454
0
ARC
8
DEFAULT_255_1_388
10
17.0361618
20
21.9694951
40
1.1659797
50
68.006043
51
71.8055127
0
ARC
8
DEFAULT_255_1_388
10
16.8341526
20
21.3636723
40
1.8045908
50
71.718361
51
73.9260743
0
LINE
8
DEFAULT_255_1_388
10
18.595179
20
22.8926042
11
18.595179
21
23.8268898
0
LINE
8
DEFAULT_255_1_388
10
18.595179
20
23.8268898
11
18.7695669
21
23.8268898
0
LINE
8
DEFAULT_255_1_388
10
18.7695669
20
23.8268898
11
18.7695669
21
22.8953149
0
LINE
8
DEFAULT_255_1_388
10
17.9391912
20
22.8745329
11
18.1126756
21
22.8745329
0
ARC
8
DEFAULT_255_1_388
10
18.2643392
20
22.8909958
40
0.5052462
50
346.3132364
51
0.4897996
0
ARC
8
DEFAULT_255_1_388
10
18.4182925
20
22.8515792
40
0.3463431
50
313.3793278
51
346.6225662
0
ARC
8
DEFAULT_255_1_388
10
18.3957008
20
22.8800186
40
0.3825426
50
281.1587645
51
312.9130978
0
ARC
8
DEFAULT_255_1_388
10
18.3573914
20
23.0481607
40
0.5549427
50
269.6423454
51
281.6796473
0
ARC
8
DEFAULT_255_1_388
10
18.3496692
20
23.1099499
40
0.6167359
50
258.9989698
51
270.3955842
0
ARC
8
DEFAULT_255_1_388
10
18.3075151
20
22.9019792
40
0.4045461
50
239.625581
51
259.2387746
0
ARC
8
DEFAULT_255_1_388
10
18.2750144
20
22.8406638
40
0.3352261
50
227.4961805
51
239.1189042
0
ARC
8
DEFAULT_255_1_388
10
18.2708027
20
22.8338009
40
0.3273245
50
191.3396895
51
227.2280349
0
ARC
8
DEFAULT_255_1_388
10
18.4288349
20
22.8711896
40
0.4896551
50
179.6087821
51
191.9932937
0
ARC
8
DEFAULT_255_1_388
10
18.4439094
20
22.8720216
40
0.3312434
50
179.565607
51
192.0702314
0
ARC
8
DEFAULT_255_1_388
10
18.3346046
20
22.847456
40
0.2192212
50
191.7655537
51
215.6462731
0
ARC
8
DEFAULT_255_1_388
10
18.3145287
20
22.8353629
40
0.1958682
50
216.1940686
51
224.3931249
0
ARC
8
DEFAULT_255_1_388
10
18.3152984
20
22.8383862
40
0.1985399
50
224.861176
51
254.3628599
0
ARC
8
DEFAULT_255_1_388
10
18.3457527
20
22.9390135
40
0.3036595
50
253.9470645
51
267.395327
0
ARC
8
DEFAULT_255_1_388
10
18.3536826
20
23.0429346
40
0.4078462
50
266.9458957
51
270.0343693
0
ARC
8
DEFAULT_255_1_388
10
18.3565407
20
22.9122844
40
0.2772084
50
269.4598277
51
286.1819188
0
ARC
8
DEFAULT_255_1_388
10
18.372438
20
22.8539765
40
0.2167824
50
286.4415261
51
315.8045035
0
ARC
8
DEFAULT_255_1_388
10
18.3663412
20
22.8587201
40
0.2244619
50
316.0212602
51
345.479585
0
ARC
8
DEFAULT_255_1_388
10
18.2571571
20
22.8894753
40
0.3378781
50
345.0729937
51
358.3249855
0
ARC
8
DEFAULT_255_1_388
10
18.1596017
20
22.8957509
40
0.4355887
50
357.8749464
51
359.5860856
0
LINE
8
DEFAULT_255_2_778
10
10.7161501
20
17.0656499
11
18.6536501
21
17.0656499
0
LINE
8
DEFAULT_255_2_778
10
18.6536501
20
17.0656499
11
18.6536501
21
9.1281499
0
LINE
8
DEFAULT_255_2_778
10
18.6536501
20
9.1281499
11
10.7161501
21
9.1281499
0
LINE
8
DEFAULT_255_2_778
10
10.7161501
20
9.1281499
11
10.7161501
21
17.0656499
0
LINE
8
DEFAULT_255_2_778
10
10.7161501
20
9.1281499
11
18.6536501
21
17.0656499
0
ARC
8
DEFAULT_255_2_778
10
14.1077114
20
14.1817807
40
2.9032284
50
151.5042733
51
153.4806603
0
ARC
8
DEFAULT_255_2_778
10
13.4588806
20
14.5346763
40
2.1646375
50
149.0139962
51
151.519903
0
ARC
8
DEFAULT_255_2_778
10
12.9473115
20
14.8424368
40
1.567629
50
145.9162939
51
149.0311909
0
ARC
8
DEFAULT_255_2_778
10
12.5625818
20
15.1034335
40
1.1027247
50
141.9200062
51
145.9453242
0
ARC
8
DEFAULT_255_2_778
10
12.282074
20
15.3241211
40
0.7458118
50
136.484805
51
141.9744057
0
ARC
8
DEFAULT_255_2_778
10
12.092306
20
15.5052808
40
0.4834572
50
128.8638593
51
136.5691139
0
ARC
8
DEFAULT_255_2_778
10
11.9803184
20
15.6453418
40
0.304132
50
117.7110364
51
128.9931649
0
ARC
8
DEFAULT_255_2_778
10
11.928938
20
15.7449194
40
0.1920847
50
98.9021051
51
117.9549066
0
ARC
8
DEFAULT_255_2_778
10
11.9218758
20
15.780191
40
0.1561525
50
90.0344408
51
98.3447638
0
ARC
8
DEFAULT_255_2_778
10
11.9166634
20
15.7540238
40
0.1823916
50
50.7117937
51
88.3918664
0
ARC
8
DEFAULT_255_2_778
10
11.7837308
20
15.5756057
40
0.4047836
50
38.9451112
51
52.1404787
0
ARC
8
DEFAULT_255_2_778
10
11.431008
20
15.2861907
40
0.8610391
50
31.5376489
51
39.1699631
0
ARC
8
DEFAULT_255_2_778
10
10.4867496
20
14.7024547
40
1.9711589
50
27.5029892
51
31.6426884
0
ARC
8
DEFAULT_255_2_778
10
5.9865457
20
12.3482708
40
7.0499372
50
26.3566909
51
27.5839254
0
ARC
8
DEFAULT_255_2_778
10
16.3884515
20
17.4770746
40
4.5476932
50
206.0760745
51
208.8893742
0
ARC
8
DEFAULT_255_2_778
10
13.5302207
20
15.9044384
40
1.2853914
50
209.0650167
51
214.9193276
0
ARC
8
DEFAULT_255_2_778
10
12.9623008
20
15.5066421
40
0.5920141
50
214.8141771
51
224.5237395
0
ARC
8
DEFAULT_255_2_778
10
12.7411911
20
15.2860149
40
0.279676
50
224.0617241
51
242.8344517
0
ARC
8
DEFAULT_255_2_778
10
12.6867767
20
15.182833
40
0.1630376
50
243.2923391
51
269.5752511
0
ARC
8
DEFAULT_255_2_778
10
12.6838992
20
15.1918104
40
0.1720185
50
270.5559033
51
293.8685481
0
ARC
8
DEFAULT_255_2_778
10
12.6466708
20
15.2790881
40
0.2668991
50
293.5955797
51
306.345121
0
ARC
8
DEFAULT_255_2_778
10
12.553747
20
15.4072986
40
0.4252403
50
306.1919045
51
314.6688826
0
ARC
8
DEFAULT_255_2_778
10
12.3914409
20
15.5731992
40
0.6573295
50
314.5642472
51
320.4128675
0
ARC
8
DEFAULT_255_2_778
10
12.1431104
20
15.7795069
40
0.980177
50
320.3694038
51
324.845255
0
ARC
8
DEFAULT_255_2_778
10
11.7903394
20
16.0291469
40
1.4123423
50
324.8053061
51
328.1530642
0
ARC
8
DEFAULT_255_2_778
10
11.3253883
20
16.3188419
40
1.9601584
50
328.1310763
51
330.7610809
0
ARC
8
DEFAULT_255_2_778
10
10.732481
20
16.6515279
40
2.640025
50
330.7460722
51
332.8554872
0
ARC
8
DEFAULT_255_2_778
10
10.2490419
20
16.902094
40
3.1845357
50
332.812199
51
333.437874
0
LINE
8
DEFAULT_255_2_778
10
16.27245
20
11.0331
11
17.85995
21
11.0331
0
LINE
8
DEFAULT_255_2_778
10
16.27245
20
10.3981
11
16.58995
21
10.3981
0
LINE
8
DEFAULT_255_2_778
10
16.90745
20
10.3981
11
17.22495
21
10.3981
0
LINE
8
DEFAULT_255_2_778
10
17.54245
20
10.3981
11
17.85995
21
10.3981
0
LINE
8
DEFAULT_255_1_388
10
4.8805318
20
20.6633382
11
4.8805318
21
20.5269
0
LINE
8
DEFAULT_255_1_388
10
4.8805318
20
20.5269
11
4.0185313
21
20.5269
0
LINE
8
DEFAULT_255_1_388
10
4.0185313
20
20.5269
11
4.0185313
21
20.6470741
0
LINE
8
DEFAULT_255_1_388
10
4.0185313
20
20.6470741
11
4.4739278
21
21.1530702
0
LINE
8
DEFAULT_255_1_388
10
4.1603909
20
21.4548607
11
3.9932315
21
21.4548607
0
LINE
8
DEFAULT_255_1_388
10
4.5724163
20
21.045546
11
4.2200262
21
20.6633382
0
LINE
8
DEFAULT_255_1_388
10
4.2200262
20
20.6633382
11
4.8805318
21
20.6633382
0
ARC
8
DEFAULT_255_1_388
10
2.9563337
20
22.4950983
40
2.0258655
50
318.5132526
51
320.7829045
0
ARC
8
DEFAULT_255_1_388
10
3.5511294
20
22.0109929
40
1.2589638
50
320.7372878
51
323.9739031
0
ARC
8
DEFAULT_255_1_388
10
3.9920226
20
21.6915554
40
0.7145141
50
323.8962701
51
328.64194
0
ARC
8
DEFAULT_255_1_388
10
4.2222484
20
21.5495545
40
0.4440242
50
328.8294576
51
331.7891185
0
ARC
8
DEFAULT_255_1_388
10
4.3344804
20
21.4916374
40
0.3177517
50
331.4254512
51
352.9365785
0
ARC
8
DEFAULT_255_1_388
10
4.3497804
20
21.488205
40
0.3021496
50
353.2257659
51
0.0166158
0
ARC
8
DEFAULT_255_1_388
10
4.3734564
20
21.4907894
40
0.2784847
50
359.486299
51
15.9343185
0
ARC
8
DEFAULT_255_1_388
10
4.4304831
20
21.5061269
40
0.2194403
50
16.1712913
51
43.5286088
0
ARC
8
DEFAULT_255_1_388
10
4.4391776
20
21.5148191
40
0.2071504
50
43.4417391
51
83.1661095
0
ARC
8
DEFAULT_255_1_388
10
4.4240937
20
21.4319316
40
0.2912888
50
82.160179
51
90.1505708
0
ARC
8
DEFAULT_255_1_388
10
4.4205418
20
21.3715279
40
0.3517025
50
89.5460741
51
102.5418361
0
ARC
8
DEFAULT_255_1_388
10
4.3932138
20
21.4874933
40
0.2325748
50
102.1738499
51
129.206123
0
ARC
8
DEFAULT_255_1_388
10
4.3843592
20
21.5014664
40
0.2161591
50
129.72865
51
135.753947
0
ARC
8
DEFAULT_255_1_388
10
4.3980074
20
21.4905728
40
0.2335433
50
136.1757367
51
166.3673339
0
ARC
8
DEFAULT_255_1_388
10
4.5112762
20
21.4602148
40
0.3507873
50
165.9090694
51
178.8684636
0
ARC
8
DEFAULT_255_1_388
10
4.6088534
20
21.4549263
40
0.4484624
50
178.4391136
51
180.0083808
0
ARC
8
DEFAULT_255_1_388
10
4.4509235
20
21.4593197
40
0.4577138
50
163.2878482
51
180.5581842
0
ARC
8
DEFAULT_255_1_388
10
4.3607276
20
21.4841393
40
0.3641968
50
133.4540601
51
162.947111
0
ARC
8
DEFAULT_255_1_388
10
4.3808158
20
21.4627789
40
0.3935189
50
100.7869829
51
133.4382499
0
ARC
8
DEFAULT_255_1_388
10
4.4199403
20
21.2885399
40
0.5720313
50
89.660664
51
101.3702276
0
ARC
8
DEFAULT_255_1_388
10
4.4274012
20
21.2954263
40
0.5651495
50
78.2172678
51
90.412935
0
ARC
8
DEFAULT_255_1_388
10
4.4673478
20
21.4781511
40
0.378122
50
55.9269121
51
78.4888449
0
ARC
8
DEFAULT_255_1_388
10
4.4894193
20
21.5162187
40
0.3342379
50
47.929771
51
55.4049217
0
ARC
8
DEFAULT_255_1_388
10
4.5008723
20
21.5278618
40
0.3179217
50
4.334829
51
48.0560205
0
ARC
8
DEFAULT_255_1_388
10
4.3776525
20
21.5087487
40
0.442341
50
359.9251713
51
5.5971671
0
ARC
8
DEFAULT_255_1_388
10
4.425868
20
21.5150728
40
0.3941854
50
337.8914027
51
358.9967534
0
ARC
8
DEFAULT_255_1_388
10
4.120625
20
21.6328295
40
0.7213271
50
326.9132501
51
338.3508308
0
ARC
8
DEFAULT_255_1_388
10
3.6722362
20
21.9202105
40
1.2538973
50
319.6471833
51
327.0959558
0
ARC
8
DEFAULT_255_1_388
10
3.240902
20
22.276005
40
1.8129975
50
317.2588228
51
319.9045804
0
LINE
8
DEFAULT_255_1_388
10
5.7633143
20
21.8424898
11
5.7633143
21
20.968743
0
LINE
8
DEFAULT_255_1_388
10
5.7633143
20
20.968743
11
5.9458343
21
20.968743
0
LINE
8
DEFAULT_255_1_388
10
5.9458343
20
20.968743
11
5.9458343
21
20.8323048
0
LINE
8
DEFAULT_255_1_388
10
5.9458343
20
20.8323048
11
5.7633143
21
20.8323048
0
LINE
8
DEFAULT_255_1_388
10
5.7633143
20
20.8323048
11
5.7633143
21
20.5269
0
LINE
8
DEFAULT_255_1_388
10
5.7633143
20
20.5269
11
5.5952513
21
20.5269
0
LINE
8
DEFAULT_255_1_388
10
5.5952513
20
20.5269
11
5.5952513
21
20.8323048
0
LINE
8
DEFAULT_255_1_388
10
5.5952513
20
20.8323048
11
4.996188
21
20.8323048
0
LINE
8
DEFAULT_255_1_388
10
4.996188
20
20.8323048
11
4.996188
21
20.9307933
0
LINE
8
DEFAULT_255_1_388
10
4.996188
20
20.9307933
11
5.5853121
21
21.8424898
0
LINE
8
DEFAULT_255_1_388
10
5.5853121
20
21.8424898
11
5.7633143
21
21.8424898
0
LINE
8
DEFAULT_255_1_388
10
5.5753729
20
21.5777455
11
5.1859366
21
20.968743
0
LINE
8
DEFAULT_255_1_388
10
5.1859366
20
20.968743
11
5.5952513
21
20.968743
0
LINE
8
DEFAULT_255_1_388
10
5.5952513
20
20.968743
11
5.5952513
21
21.613888
0
LINE
8
DEFAULT_255_1_388
10
5.5952513
20
21.613888
11
5.5753729
21
21.5777455
0
LINE
8
DEFAULT_255_1_388
10
6.201543
20
21.8424898
11
6.5756187
21
20.7573089
0
LINE
8
DEFAULT_255_1_388
10
6.5756187
20
20.7573089
11
6.9515015
21
21.8424898
0
LINE
8
DEFAULT_255_1_388
10
6.9515015
20
21.8424898
11
7.14125
21
21.8424898
0
LINE
8
DEFAULT_255_1_388
10
7.14125
20
21.8424898
11
6.6533252
21
20.5269
0
LINE
8
DEFAULT_255_1_388
10
6.6533252
20
20.5269
11
6.4997193
21
20.5269
0
LINE
8
DEFAULT_255_1_388
10
6.4997193
20
20.5269
11
6.012698
21
21.8424898
0
LINE
8
DEFAULT_255_1_388
10
6.012698
20
21.8424898
11
6.201543
21
21.8424898
0
LINE
8
DEFAULT_255_1_388
10
4.1939903
20
13.9049898
11
4.1939903
21
12.7312596
0
LINE
8
DEFAULT_255_1_388
10
4.1939903
20
12.7312596
11
4.8174498
21
12.7312596
0
LINE
8
DEFAULT_255_1_388
10
4.8174498
20
12.7312596
11
4.8174498
21
12.5894
0
LINE
8
DEFAULT_255_1_388
10
4.8174498
20
12.5894
11
4.0196024
21
12.5894
0
LINE
8
DEFAULT_255_1_388
10
4.0196024
20
12.5894
11
4.0196024
21
13.9049898
0
LINE
8
DEFAULT_255_1_388
10
4.0196024
20
13.9049898
11
4.1939903
21
13.9049898
0
LINE
8
DEFAULT_255_1_388
10
23.1196856
20
21.304869
11
23.1196856
21
21.0880135
0
LINE
8
DEFAULT_255_1_388
10
22.2893099
20
21.0654244
11
22.2893099
21
21.2886048
0
LINE
8
DEFAULT_255_1_388
10
22.9525262
20
21.0428353
11
22.9525262
21
21.3166153
0
LINE
8
DEFAULT_255_1_388
10
22.4564693
20
21.3292652
11
22.4564693
21
21.0618102
0
ARC
8
DEFAULT_255_1_388
10
21.741919
20
21.0825118
40
1.3777776
50
353.8440855
51
0.2287917
0
ARC
8
DEFAULT_255_1_388
10
22.2638208
20
21.0242414
40
0.852639
50
344.4934746
51
353.9763743
0
ARC
8
DEFAULT_255_1_388
10
22.6005015
20
20.9285191
40
0.5026273
50
329.2803599
51
344.7473406
0
ARC
8
DEFAULT_255_1_388
10
22.7120511
20
20.8673038
40
0.3754848
50
324.9361395
51
328.6153007
0
ARC
8
DEFAULT_255_1_388
10
22.7546161
20
20.8375586
40
0.3235566
50
280.5801797
51
324.9173226
0
ARC
8
DEFAULT_255_1_388
10
22.7094789
20
21.0255236
40
0.5167077
50
269.5979457
51
281.6732777
0
ARC
8
DEFAULT_255_1_388
10
22.7013693
20
21.0120113
40
0.5032026
50
256.6228565
51
270.5105488
0
ARC
8
DEFAULT_255_1_388
10
22.6561435
20
20.8378345
40
0.3233092
50
215.8618351
51
257.2787793
0
ARC
8
DEFAULT_255_1_388
10
22.7710142
20
20.9149106
40
0.4615831
50
197.9695203
51
215.2622745
0
ARC
8
DEFAULT_255_1_388
10
23.0505818
20
21.0092641
40
0.7566307
50
187.8816486
51
198.2346584
0
ARC
8
DEFAULT_255_1_388
10
23.4959056
20
21.0735453
40
1.2065653
50
180.8977266
51
188.0054894
0
ARC
8
DEFAULT_255_1_388
10
23.800927
20
21.08504
40
1.5117443
50
180.7434591
51
181.152202
0
ARC
8
DEFAULT_255_1_388
10
23.6334266
20
21.2940371
40
1.3441277
50
173.7674302
51
180.2315596
0
ARC
8
DEFAULT_255_1_388
10
23.1252135
20
21.3514779
40
0.8326847
50
164.3058537
51
173.9000553
0
ARC
8
DEFAULT_255_1_388
10
22.7976135
20
21.4458652
40
0.4917711
50
148.7922028
51
164.5682288
0
ARC
8
DEFAULT_255_1_388
10
22.6906872
20
21.5055457
40
0.3694204
50
144.5883979
51
148.1161588
0
ARC
8
DEFAULT_255_1_388
10
22.6519618
20
21.5325667
40
0.322202
50
101.6440149
51
144.5142619
0
ARC
8
DEFAULT_255_1_388
10
22.699781
20
21.3425337
40
0.5180451
50
89.528284
51
102.5820197
0
ARC
8
DEFAULT_255_1_388
10
22.7086802
20
21.3381376
40
0.5224441
50
77.0437914
51
90.508231
0
ARC
8
DEFAULT_255_1_388
10
22.7539055
20
21.5229272
40
0.3322297
50
48.2777708
51
77.4996087
0
ARC
8
DEFAULT_255_1_388
10
22.7620795
20
21.5374557
40
0.315966
50
36.3141586
51
47.6307332
0
ARC
8
DEFAULT_255_1_388
10
22.6643518
20
21.4716159
40
0.4337313
50
18.2931065
51
35.6770203
0
ARC
8
DEFAULT_255_1_388
10
22.3782358
20
21.3734107
40
0.7362203
50
8.0246996
51
18.5605636
0
ARC
8
DEFAULT_255_1_388
10
21.9098714
20
21.3042432
40
1.2096583
50
1.127539
51
8.1718423
0
ARC
8
DEFAULT_255_1_388
10
21.5449847
20
21.2899374
40
1.5747719
50
0.5432713
51
1.38669
0
ARC
8
DEFAULT_255_1_388
10
21.7507226
20
21.3206163
40
1.2018103
50
359.8092569
51
4.9408001
0
ARC
8
DEFAULT_255_1_388
10
22.2243807
20
21.36289
40
0.7262727
50
4.8364937
51
12.2906017
0
ARC
8
DEFAULT_255_1_388
10
22.5343272
20
21.4319485
40
0.4087324
50
12.0806994
51
23.8171225
0
ARC
8
DEFAULT_255_1_388
10
22.6663668
20
21.4878508
40
0.2653719
50
24.2874621
51
31.3934353
0
ARC
8
DEFAULT_255_1_388
10
22.7254104
20
21.5264822
40
0.1948607
50
30.7407708
51
82.4658033
0
ARC
8
DEFAULT_255_1_388
10
22.7051765
20
21.4271017
40
0.2961198
50
81.1057101
51
90.2187368
0
ARC
8
DEFAULT_255_1_388
10
22.7011577
20
21.4561421
40
0.2670929
50
89.380395
51
105.6763916
0
ARC
8
DEFAULT_255_1_388
10
22.6805299
20
21.531132
40
0.1893189
50
105.7980655
51
149.7387869
0
ARC
8
DEFAULT_255_1_388
10
22.8002439
20
21.4591719
40
0.3289892
50
149.4208441
51
163.628295
0
ARC
8
DEFAULT_255_1_388
10
23.0354668
20
21.3874345
40
0.5749004
50
163.3764549
51
172.141138
0
ARC
8
DEFAULT_255_1_388
10
23.406739
20
21.3342582
40
0.9499585
50
172.0258462
51
178.0705453
0
ARC
8
DEFAULT_255_1_388
10
23.7488943
20
21.3180682
40
1.2924734
50
177.8639301
51
179.5036263
0
ARC
8
DEFAULT_255_1_388
10
23.6269961
20
21.0577151
40
1.170534
50
179.7995545
51
185.246089
0
ARC
8
DEFAULT_255_1_388
10
23.1721554
20
21.0146404
40
0.7136613
50
185.1411911
51
193.0082205
0
ARC
8
DEFAULT_255_1_388
10
22.8747815
20
20.9443441
40
0.4080987
50
192.7897338
51
205.2507384
0
ARC
8
DEFAULT_255_1_388
10
22.7570025
20
20.8917538
40
0.2791522
50
205.8001921
51
211.2545876
0
ARC
8
DEFAULT_255_1_388
10
22.6981564
20
20.8523132
40
0.2084074
50
210.3789935
51
238.4007996
0
ARC
8
DEFAULT_255_1_388
10
22.695965
20
20.8575786
40
0.2117943
50
239.6521916
51
265.9793852
0
ARC
8
DEFAULT_255_1_388
10
22.7055499
20
20.9332358
40
0.2879689
50
265.1324455
51
270.0603288
0
ARC
8
DEFAULT_255_1_388
10
22.7087876
20
20.8967418
40
0.2514919
50
269.3314378
51
287.2180039
0
ARC
8
DEFAULT_255_1_388
10
22.7242958
20
20.8401291
40
0.1928357
50
287.7957942
51
329.0808983
0
ARC
8
DEFAULT_255_1_388
10
22.6165715
20
20.9073651
40
0.319808
50
328.6635261
51
343.3325043
0
ARC
8
DEFAULT_255_1_388
10
22.3721174
20
20.9835195
40
0.5758408
50
343.0498092
51
351.9392499
0
ARC
8
DEFAULT_255_1_388
10
21.9820496
20
21.0410205
40
0.9701202
50
351.8071632
51
357.7957897
0
ARC
8
DEFAULT_255_1_388
10
21.6185973
20
21.0598724
40
1.3340376
50
357.5870923
51
359.2682493
0
LINE
8
DEFAULT_255_1_388
10
23.4386439
20
21.8424898
11
23.8127196
21
20.7573089
0
LINE
8
DEFAULT_255_1_388
10
23.8127196
20
20.7573089
11
24.1886024
21
21.8424898
0
LINE
8
DEFAULT_255_1_388
10
24.1886024
20
21.8424898
11
24.3783509
21
21.8424898
0
LINE
8
DEFAULT_255_1_388
10
24.3783509
20
21.8424898
11
23.8904261
21
20.5269
0
LINE
8
DEFAULT_255_1_388
10
23.8904261
20
20.5269
11
23.7368202
21
20.5269
0
LINE
8
DEFAULT_255_1_388
10
23.7368202
20
20.5269
11
23.2497989
21
21.8424898
0
LINE
8
DEFAULT_255_1_388
10
23.2497989
20
21.8424898
11
23.4386439
21
21.8424898
0
LINE
8
DEFAULT_255_1_388
10
21.7503342
20
5.3069842
11
21.7503342
21
4.8244808
0
LINE
8
DEFAULT_255_1_388
10
20.7365349
20
5.2464454
11
20.7365349
21
5.3611981
0
LINE
8
DEFAULT_255_1_388
10
21.7503342
20
5.5816678
11
21.5768498
21
5.5816678
0
LINE
8
DEFAULT_255_1_388
10
20.9109228
20
5.3657159
11
20.9109228
21
5.2581917
0
LINE
8
DEFAULT_255_1_388
10
21.5777534
20
4.8705626
11
21.5777534
21
5.1660282
0
LINE
8
DEFAULT_255_1_388
10
21.5777534
20
5.1660282
11
21.2732521
21
5.1660282
0
LINE
8
DEFAULT_255_1_388
10
21.2732521
20
5.1660282
11
21.2732521
21
5.3069842
0
LINE
8
DEFAULT_255_1_388
10
21.2732521
20
5.3069842
11
21.7503342
21
5.3069842
0
ARC
8
DEFAULT_255_1_388
10
21.4317942
20
5.0487284
40
0.3895571
50
295.8437277
51
324.8549962
0
ARC
8
DEFAULT_255_1_388
10
21.3850325
20
5.1333619
40
0.4861381
50
291.5691164
51
296.4556269
0
ARC
8
DEFAULT_255_1_388
10
21.3275327
20
5.2869801
40
0.6501442
50
278.6622213
51
291.3047061
0
ARC
8
DEFAULT_255_1_388
10
21.2893359
20
5.5286557
40
0.8948168
50
270.0200506
51
278.7494673
0
ARC
8
DEFAULT_255_1_388
10
21.2849563
20
5.7132453
40
1.0794166
50
270.0022372
51
270.2490917
0
ARC
8
DEFAULT_255_1_388
10
21.2807456
20
5.2173827
40
0.5835695
50
253.5785313
51
270.4175629
0
ARC
8
DEFAULT_255_1_388
10
21.2612452
20
5.1418625
40
0.5056241
50
238.8203954
51
253.2788387
0
ARC
8
DEFAULT_255_1_388
10
21.2590367
20
5.1361224
40
0.4995712
50
206.7883476
51
238.696262
0
ARC
8
DEFAULT_255_1_388
10
21.3465763
20
5.1885847
40
0.6014056
50
206.1137778
51
207.4912776
0
ARC
8
DEFAULT_255_1_388
10
21.4132599
20
5.2169284
40
0.6737692
50
188.6922336
51
205.782076
0
ARC
8
DEFAULT_255_1_388
10
21.6220958
20
5.2524455
40
0.8855812
50
180.3881972
51
188.9218085
0
ARC
8
DEFAULT_255_1_388
10
21.7602116
20
5.3675622
40
1.0236965
50
170.2024645
51
180.3561986
0
ARC
8
DEFAULT_255_1_388
10
21.4043266
20
5.4312101
40
0.6621746
50
154.2856519
51
170.3893388
0
ARC
8
DEFAULT_255_1_388
10
21.260123
20
5.4972192
40
0.5036209
50
139.8400879
51
153.9334639
0
ARC
8
DEFAULT_255_1_388
10
21.2197133
20
5.5295716
40
0.4518751
50
98.4190017
51
139.6707015
0
ARC
8
DEFAULT_255_1_388
10
21.2624101
20
5.3219755
40
0.6635912
50
89.7660128
51
99.4415389
0
ARC
8
DEFAULT_255_1_388
10
21.2697497
20
5.3293517
40
0.6562258
50
78.0552044
51
90.4042252
0
ARC
8
DEFAULT_255_1_388
10
21.3152561
20
5.5339661
40
0.4466287
50
54.6380186
51
78.3338577
0
ARC
8
DEFAULT_255_1_388
10
21.3366859
20
5.5700444
40
0.4048184
50
50.0313964
51
54.1562739
0
ARC
8
DEFAULT_255_1_388
10
21.3245753
20
5.5591798
40
0.4209308
50
18.1092229
51
49.7179911
0
ARC
8
DEFAULT_255_1_388
10
21.1606833
20
5.4991399
40
0.5953982
50
7.967396
51
18.698492
0
ARC
8
DEFAULT_255_1_388
10
21.1776094
20
5.5130236
40
0.4050986
50
9.7558763
51
27.3214087
0
ARC
8
DEFAULT_255_1_388
10
21.3044559
20
5.5764087
40
0.2633168
50
27.736147
51
84.5257861
0
ARC
8
DEFAULT_255_1_388
10
21.2675968
20
5.3914988
40
0.4513019
50
82.1064239
51
90.1997295
0
ARC
8
DEFAULT_255_1_388
10
21.2619985
20
5.4486501
40
0.3941684
50
89.4148952
51
105.5824837
0
ARC
8
DEFAULT_255_1_388
10
21.2330865
20
5.5539043
40
0.2850167
50
105.6678541
51
144.2649156
0
ARC
8
DEFAULT_255_1_388
10
21.3335758
20
5.4824024
40
0.4083468
50
144.3560675
51
162.8564185
0
ARC
8
DEFAULT_255_1_388
10
21.56802
20
5.4071083
40
0.6545749
50
162.6076338
51
173.6779811
0
ARC
8
DEFAULT_255_1_388
10
21.9124315
20
5.3652422
40
1.0015089
50
173.4670996
51
179.9729015
0
ARC
8
DEFAULT_255_1_388
10
21.6977186
20
5.2534636
40
0.78681
50
179.6556955
51
190.007958
0
ARC
8
DEFAULT_255_1_388
10
21.4371468
20
5.205666
40
0.5218997
50
189.8117884
51
206.6795375
0
ARC
8
DEFAULT_255_1_388
10
21.3420914
20
5.1613514
40
0.4170788
50
207.1031171
51
217.7074698
0
ARC
8
DEFAULT_255_1_388
10
21.2707344
20
5.0992596
40
0.3226945
50
216.7345117
51
265.6812141
0
ARC
8
DEFAULT_255_1_388
10
21.2854486
20
5.201003
40
0.4253149
50
264.7367524
51
270.0610826
0
ARC
8
DEFAULT_255_1_388
10
21.2880672
20
5.5205173
40
0.7448321
50
269.8334494
51
276.0538364
0
ARC
8
DEFAULT_255_1_388
10
21.3113534
20
5.3065924
40
0.5296446
50
275.9894423
51
284.4615914
0
ARC
8
DEFAULT_255_1_388
10
21.3335047
20
5.213357
40
0.4338353
50
284.7038488
51
286.4938196
0
ARC
8
DEFAULT_255_1_388
10
21.3794196
20
5.0654371
40
0.2789738
50
286.0770429
51
304.2629628
0
ARC
8
DEFAULT_255_1_388
10
21.3944354
20
5.040868
40
0.2502188
50
304.5886247
51
317.1074126
0
LINE
8
DEFAULT_255_1_388
10
23.0505634
20
5.9674898
11
23.0505634
21
4.6519
0
LINE
8
DEFAULT_255_1_388
10
23.0505634
20
4.6519
11
22.8761755
21
4.6519
0
LINE
8
DEFAULT_255_1_388
10
22.8761755
20
4.6519
11
22.2138627
21
5.6656993
0
LINE
8
DEFAULT_255_1_388
10
22.2138627
20
5.6656993
11
22.2138627
21
4.6519
0
LINE
8
DEFAULT_255_1_388
10
22.2138627
20
4.6519
11
22.0394748
21
4.6519
0
LINE
8
DEFAULT_255_1_388
10
22.0394748
20
4.6519
11
22.0394748
21
5.9674898
0
LINE
8
DEFAULT_255_1_388
10
22.0394748
20
5.9674898
11
22.2138627
21
5.9674898
0
LINE
8
DEFAULT_255_1_388
10
22.2138627
20
5.9674898
11
22.8779826
21
4.9491727
0
LINE
8
DEFAULT_255_1_388
10
22.8779826
20
4.9491727
11
22.8779826
21
5.9674898
0
LINE
8
DEFAULT_255_1_388
10
22.8779826
20
5.9674898
11
23.0505634
21
5.9674898
0
LINE
8
DEFAULT_255_1_388
10
23.7228154
20
4.6519
11
23.3586789
21
4.6519
0
LINE
8
DEFAULT_255_1_388
10
23.3586789
20
4.6519
11
23.3586789
21
5.9674898
0
LINE
8
DEFAULT_255_1_388
10
23.3586789
20
5.9674898
11
23.7300439
21
5.9674898
0
LINE
8
DEFAULT_255_1_388
10
24.3101323
20
5.3539696
11
24.3101323
21
5.2699381
0
LINE
8
DEFAULT_255_1_388
10
23.7345617
20
5.8247267
11
23.5321633
21
5.8247267
0
LINE
8
DEFAULT_255_1_388
10
23.5321633
20
5.8247267
11
23.5321633
21
4.7937596
0
LINE
8
DEFAULT_255_1_388
10
23.5321633
20
4.7937596
11
23.7146833
21
4.7937596
0
LINE
8
DEFAULT_255_1_388
10
24.138455
20
5.2735523
11
24.138455
21
5.3503553
0
ARC
8
DEFAULT_255_1_388
10
23.7344234
20
5.3076436
40
0.6598608
50
75.4100343
51
90.3802731
0
ARC
8
DEFAULT_255_1_388
10
23.7602479
20
5.4152691
40
0.5492049
50
60.1455157
51
75.1889627
0
ARC
8
DEFAULT_255_1_388
10
23.7781071
20
5.4463914
40
0.5133226
50
26.525419
51
60.1451222
0
ARC
8
DEFAULT_255_1_388
10
23.6520857
20
5.3795642
40
0.6559324
50
7.4029944
51
26.832209
0
ARC
8
DEFAULT_255_1_388
10
23.4727254
20
5.3516229
40
0.8374103
50
0.1605597
51
7.7176135
0
ARC
8
DEFAULT_255_1_388
10
23.4911654
20
5.2656321
40
0.8189782
50
348.7289744
51
0.30125
0
ARC
8
DEFAULT_255_1_388
10
23.6775118
20
5.2286156
40
0.628991
50
333.0706936
51
348.7181455
0
ARC
8
DEFAULT_255_1_388
10
23.7862747
20
5.1695449
40
0.5052808
50
299.2531435
51
333.4571133
0
ARC
8
DEFAULT_255_1_388
10
23.7456777
20
5.2466629
40
0.5924066
50
278.1072193
51
299.0340218
0
ARC
8
DEFAULT_255_1_388
10
23.7168826
20
5.4162979
40
0.7644209
50
270.4446841
51
278.4508355
0
ARC
8
DEFAULT_255_1_388
10
23.719231
20
5.31173
40
0.5179903
50
269.4969684
51
284.0204874
0
ARC
8
DEFAULT_255_1_388
10
23.7592028
20
5.1581415
40
0.3592968
50
283.7699076
51
318.1557121
0
ARC
8
DEFAULT_255_1_388
10
23.7212573
20
5.1865399
40
0.4065308
50
318.7417595
51
343.687252
0
ARC
8
DEFAULT_255_1_388
10
23.5183152
20
5.2499275
40
0.6191194
50
343.3324891
51
355.8548594
0
ARC
8
DEFAULT_255_1_388
10
23.282219
20
5.2723719
40
0.856237
50
355.4988754
51
0.0789913
0
ARC
8
DEFAULT_255_1_388
10
23.3702989
20
5.355108
40
0.7681709
50
359.6455047
51
9.8607559
0
ARC
8
DEFAULT_255_1_388
10
23.6358712
20
5.4030664
40
0.498312
50
9.6573037
51
26.1931522
0
ARC
8
DEFAULT_255_1_388
10
23.7402787
20
5.4515587
40
0.3832303
50
26.5777895
51
40.1533752
0
ARC
8
DEFAULT_255_1_388
10
23.7690452
20
5.474002
40
0.3467742
50
40.3839958
51
80.1430923
0
ARC
8
DEFAULT_255_1_388
10
23.7322708
20
5.3109486
40
0.5137832
50
79.2153636
51
89.7445174
0
LINE
8
DEFAULT_255_1_388
10
24.317791
20
13.9049898
11
24.317791
21
12.5894
0
LINE
8
DEFAULT_255_1_388
10
24.317791
20
12.5894
11
24.1434031
21
12.5894
0
LINE
8
DEFAULT_255_1_388
10
24.1434031
20
12.5894
11
23.4810903
21
13.6031993
0
LINE
8
DEFAULT_255_1_388
10
23.4810903
20
13.6031993
11
23.4810903
21
12.5894
0
LINE
8
DEFAULT_255_1_388
10
23.4810903
20
12.5894
11
23.3067024
21
12.5894
0
LINE
8
DEFAULT_255_1_388
10
23.3067024
20
12.5894
11
23.3067024
21
13.9049898
0
LINE
8
DEFAULT_255_1_388
10
23.3067024
20
13.9049898
11
23.4810903
21
13.9049898
0
LINE
8
DEFAULT_255_1_388
10
23.4810903
20
13.9049898
11
24.1452102
21
12.8866727
0
LINE
8
DEFAULT_255_1_388
10
24.1452102
20
12.8866727
11
24.1452102
21
13.9049898
0
LINE
8
DEFAULT_255_1_388
10
24.1452102
20
13.9049898
11
24.317791
21
13.9049898
0
ENDSEC
0
EOF