0
SECTION
2
HEADER
9
$MEASUREMENT
70
1
0
ENDSEC
0
SECTION
2
TABLES
0
TABLE
2
LTYPE
0
LTYPE
72
65
70
64
2
CONTINUOUS
3
______
73
0
40
0
0
ENDTAB
0
TABLE
2
LAYER
0
LAYER
2
DEFAULT_255_2_778
70
0
62
255
6
CONTINUOUS
0
ENDTAB
0
ENDSEC
0
SECTION
2
ENTITIES
0
LINE
8
DEFAULT_255_2_778
10
52.0373444
20
-0.2302
11
1.9374444
21
-0.2302
0
LINE
8
DEFAULT_255_2_778
10
17.8214417
20
78.9499937
11
17.8214417
21
76.1498937
0
LINE
8
DEFAULT_255_2_778
10
17.8214417
20
76.1498937
11
18.8387417
21
76.1498937
0
LINE
8
DEFAULT_255_2_778
10
18.8387417
20
76.1498937
11
18.8387417
21
78.9499937
0
LINE
8
DEFAULT_255_2_778
10
18.8387417
20
78.9499937
11
20.2854417
21
78.9499937
0
LINE
8
DEFAULT_255_2_778
10
20.2854417
20
78.9499937
11
20.2854417
21
79.6312937
0
LINE
8
DEFAULT_255_2_778
10
20.2854417
20
79.6312937
11
16.5241417
21
79.6312937
0
LINE
8
DEFAULT_255_2_778
10
16.5241417
20
79.6312937
11
16.5241417
21
78.9499937
0
LINE
8
DEFAULT_255_2_778
10
16.5241417
20
78.9499937
11
17.8214417
21
78.9499937
0
LINE
8
DEFAULT_255_2_778
10
7.6105823
20
76.1498937
11
6.1831823
21
76.1498937
0
LINE
8
DEFAULT_255_2_778
10
6.1831823
20
76.1498937
11
4.7546823
21
77.9355937
0
LINE
8
DEFAULT_255_2_778
10
4.7546823
20
77.9355937
11
4.7546823
21
76.1498937
0
LINE
8
DEFAULT_255_2_778
10
4.7546823
20
76.1498937
11
3.7373823
21
76.1498937
0
LINE
8
DEFAULT_255_2_778
10
3.7373823
20
76.1498937
11
3.7373823
21
79.6312937
0
LINE
8
DEFAULT_255_2_778
10
3.7373823
20
79.6312937
11
4.7546823
21
79.6312937
0
LINE
8
DEFAULT_255_2_778
10
4.7546823
20
79.6312937
11
4.7546823
21
78.0630937
0
LINE
8
DEFAULT_255_2_778
10
4.7546823
20
78.0630937
11
6.1659823
21
79.6312937
0
LINE
8
DEFAULT_255_2_778
10
6.1659823
20
79.6312937
11
7.4251823
21
79.6312937
0
LINE
8
DEFAULT_255_2_778
10
7.4251823
20
79.6312937
11
5.8643823
21
77.9836937
0
LINE
8
DEFAULT_255_2_778
10
5.8643823
20
77.9836937
11
7.6105823
21
76.1498937
0
ARC
8
DEFAULT_255_2_778
10
10.0019358
20
77.8853447
40
1.4637662
50
156.0380107
51
180.1842545
0
ARC
8
DEFAULT_255_2_778
10
9.8488249
20
77.9626047
40
1.292501
50
118.7478335
51
156.4111943
0
ARC
8
DEFAULT_255_2_778
10
9.7633172
20
78.0982196
40
1.1325178
50
89.9919076
51
118.2548789
0
ARC
8
DEFAULT_255_2_778
10
9.7428024
20
78.025681
40
1.2052338
50
26.7281889
51
89.0170943
0
ARC
8
DEFAULT_255_2_778
10
9.5421755
20
77.8896455
40
1.4459451
50
2.8867178
51
27.967224
0
ARC
8
DEFAULT_255_2_778
10
9.4633601
20
77.8807372
40
1.5251172
50
359.9962508
51
3.0718416
0
ARC
8
DEFAULT_255_2_778
10
9.5242108
20
77.8759183
40
1.464274
50
336.0446133
51
0.1846546
0
ARC
8
DEFAULT_255_2_778
10
9.6775176
20
77.7986599
40
1.292831
50
298.8836115
51
336.4149884
0
ARC
8
DEFAULT_255_2_778
10
9.7636068
20
77.6625296
40
1.1320921
50
269.9934392
51
298.3964988
0
ARC
8
DEFAULT_255_2_778
10
9.7843987
20
77.736113
40
1.205857
50
206.744655
51
269.0058697
0
ARC
8
DEFAULT_255_2_778
10
9.9839519
20
77.8717091
40
1.4454212
50
182.891351
51
207.9850037
0
ARC
8
DEFAULT_255_2_778
10
10.0622888
20
77.880541
40
1.5241116
50
179.9963758
51
183.0743979
0
ARC
8
DEFAULT_255_2_778
10
9.1435755
20
77.8561265
40
1.7056745
50
132.341565
51
179.1766174
0
ARC
8
DEFAULT_255_2_778
10
9.5648639
20
77.4555557
40
2.2858903
50
114.7548398
51
133.3840313
0
ARC
8
DEFAULT_255_2_778
10
9.7229575
20
77.1259595
40
2.6514046
50
99.128441
51
114.8748188
0
ARC
8
DEFAULT_255_2_778
10
9.7615162
20
76.9169102
40
2.8639279
50
89.9607701
51
99.2265719
0
ARC
8
DEFAULT_255_2_778
10
9.7685077
20
76.9608182
40
2.8200237
50
75.3078493
51
90.1022087
0
ARC
8
DEFAULT_255_2_778
10
9.8447832
20
77.2389716
40
2.5316219
50
58.5795689
51
75.3810569
0
ARC
8
DEFAULT_255_2_778
10
10.0676835
20
77.5929459
40
2.1133593
50
38.0894148
51
58.7336574
0
ARC
8
DEFAULT_255_2_778
10
10.43716
20
77.8698851
40
1.651752
50
0.3729779
51
38.4349718
0
ARC
8
DEFAULT_255_2_778
10
10.3819195
20
77.9054608
40
1.7071381
50
312.1600263
51
359.1668379
0
ARC
8
DEFAULT_255_2_778
10
9.9605801
20
78.3078042
40
2.2885795
50
294.6694192
51
313.218418
0
ARC
8
DEFAULT_255_2_778
10
9.8027506
20
78.6390621
40
2.6554841
50
278.7060473
51
294.7808293
0
ARC
8
DEFAULT_255_2_778
10
9.7655627
20
78.8467371
40
2.8664001
50
269.9643091
51
278.81248
0
ARC
8
DEFAULT_255_2_778
10
9.7587725
20
78.7996592
40
2.8193262
50
255.3059778
51
270.1017063
0
ARC
8
DEFAULT_255_2_778
10
9.6827211
20
78.5224123
40
2.5318579
50
238.5796086
51
255.3792638
0
ARC
8
DEFAULT_255_2_778
10
9.459913
20
78.1686079
40
2.1137882
50
218.0924313
51
238.7339427
0
ARC
8
DEFAULT_255_2_778
10
9.0901108
20
77.8914151
40
1.6517688
50
180.373852
51
218.438874
0
LINE
8
DEFAULT_255_2_778
10
8.5381771
20
77.8806374
11
8.5381771
21
77.8806374
0
LINE
8
DEFAULT_255_2_778
10
7.4383771
20
77.8806374
11
7.4380771
21
77.8806374
0
ARC
8
DEFAULT_255_2_778
10
14.5464393
20
78.7948466
40
0.6660051
50
358.8546238
51
21.3011543
0
ARC
8
DEFAULT_255_2_778
10
14.7089682
20
78.8436565
40
0.4970336
50
22.8652343
51
70.4528758
0
ARC
8
DEFAULT_255_2_778
10
14.5279835
20
78.4068075
40
0.9695666
50
69.0112944
51
83.9732879
0
ARC
8
DEFAULT_255_2_778
10
14.4436209
20
77.7463451
40
1.6353006
50
83.4633887
51
90.221066
0
ARC
8
DEFAULT_255_2_778
10
14.4255507
20
77.8469262
40
1.5347525
50
89.5609447
51
99.1159812
0
ARC
8
DEFAULT_255_2_778
10
14.3061967
20
78.5542026
40
0.8175201
50
98.7101632
51
115.7185229
0
ARC
8
DEFAULT_255_2_778
10
14.1489753
20
78.8750976
40
0.4601939
50
115.4204657
51
179.2197079
0
ARC
8
DEFAULT_255_2_778
10
14.4404726
20
78.8320957
40
0.7532615
50
176.2497449
51
180.0427465
0
ARC
8
DEFAULT_255_2_778
10
14.1340401
20
78.8791699
40
0.4493608
50
186.0852991
51
240.4144868
0
ARC
8
DEFAULT_255_2_778
10
14.396162
20
79.2792561
40
0.9271979
50
238.5346679
51
253.453952
0
ARC
8
DEFAULT_255_2_778
10
14.633283
20
80.0419516
40
1.7258693
50
253.1187405
51
261.8384432
0
ARC
8
DEFAULT_255_2_778
10
14.8086108
20
81.2027634
40
2.8998276
50
261.6654061
51
267.1061599
0
ARC
8
DEFAULT_255_2_778
10
13.9670157
20
73.7945759
40
4.5652998
50
76.071306
51
81.2410248
0
ARC
8
DEFAULT_255_2_778
10
14.3344586
20
75.2627227
40
3.0518753
50
69.1628942
51
76.1320385
0
ARC
8
DEFAULT_255_2_778
10
14.7227416
20
76.2718241
40
1.9706606
50
59.186249
51
69.2773828
0
ARC
8
DEFAULT_255_2_778
10
15.0986319
20
76.8928058
40
1.2447982
50
43.0576857
51
59.4040181
0
ARC
8
DEFAULT_255_2_778
10
15.3478275
20
77.1302101
40
0.9006413
50
21.2361355
51
42.8459047
0
ARC
8
DEFAULT_255_2_778
10
14.7893002
20
76.9945212
40
1.4723445
50
11.6980729
51
18.2839077
0
ARC
8
DEFAULT_255_2_778
10
15.1007061
20
77.0581057
40
1.1545148
50
2.8962248
51
11.7415052
0
ARC
8
DEFAULT_255_2_778
10
15.253585
20
77.0686727
40
1.0013013
50
0.0125819
51
2.7343432
0
ARC
8
DEFAULT_255_2_778
10
15.4086991
20
77.0620702
40
0.8462147
50
313.3554542
51
0.4619382
0
ARC
8
DEFAULT_255_2_778
10
15.0671874
20
77.3920696
40
1.3207947
50
301.8648012
51
314.2996208
0
ARC
8
DEFAULT_255_2_778
10
14.9663263
20
77.5336816
40
1.4943513
50
302.1900646
51
302.2827884
0
ARC
8
DEFAULT_255_2_778
10
14.6046047
20
78.1709919
40
2.226648
50
269.9659707
51
301.3307359
0
ARC
8
DEFAULT_255_2_778
10
14.6048423
20
78.3591642
40
2.4148203
50
264.2405858
51
269.9629847
0
ARC
8
DEFAULT_255_2_778
10
14.4884174
20
79.3625787
40
3.4083713
50
259.4074011
51
267.8829989
0
ARC
8
DEFAULT_255_2_778
10
14.3164319
20
78.4616262
40
2.4911592
50
247.3937745
51
259.486466
0
ARC
8
DEFAULT_255_2_778
10
14.0750468
20
77.9037695
40
1.8833949
50
216.5738161
51
247.6493599
0
ARC
8
DEFAULT_255_2_778
10
21.6409949
20
31.4948708
40
46.1876683
50
100.7743444
51
101.3356607
0
ARC
8
DEFAULT_255_2_778
10
19.2332405
20
44.1417586
40
33.3136227
50
100.1908741
51
100.7724857
0
ARC
8
DEFAULT_255_2_778
10
17.5732515
20
53.3865372
40
23.9209931
50
99.4699788
51
100.1953276
0
ARC
8
DEFAULT_255_2_778
10
14.2773441
20
77.3244031
40
0.72591
50
208.1856781
51
250.6683631
0
ARC
8
DEFAULT_255_2_778
10
14.4687699
20
77.8056184
40
1.2435454
50
249.6853803
51
263.8344253
0
ARC
8
DEFAULT_255_2_778
10
14.5560037
20
78.4908496
40
1.9342267
50
263.4453664
51
270.1927712
0
ARC
8
DEFAULT_255_2_778
10
14.5210997
20
78.5069045
40
1.9507104
50
271.2164245
51
279.4334987
0
ARC
8
DEFAULT_255_2_778
10
14.667876
20
77.6520245
40
1.0833442
50
279.1862886
51
292.4273321
0
ARC
8
DEFAULT_255_2_778
10
14.8670566
20
77.1857523
40
0.576383
50
291.8082983
51
318.5902565
0
ARC
8
DEFAULT_255_2_778
10
14.9130192
20
77.121664
40
0.4998328
50
320.6155805
51
359.5479985
0
ARC
8
DEFAULT_255_2_778
10
14.686333
20
77.1463538
40
0.7270676
50
357.7430311
51
0.0137304
0
ARC
8
DEFAULT_255_2_778
10
14.6250605
20
77.1462712
40
0.78834
50
0.0186609
51
2.5636956
0
ARC
8
DEFAULT_255_2_778
10
14.9439251
20
76.9833326
40
0.5088718
50
22.9228385
51
57.4593158
0
ARC
8
DEFAULT_255_2_778
10
14.6792077
20
76.5972443
40
0.9768616
50
56.5511525
51
71.1017477
0
ARC
8
DEFAULT_255_2_778
10
14.4121812
20
75.8489584
40
1.771328
50
70.7695074
51
79.1918424
0
ARC
8
DEFAULT_255_2_778
10
14.1789567
20
74.6553583
40
2.9874935
50
79.0909266
51
85.0331609
0
ARC
8
DEFAULT_255_2_778
10
14.8495811
20
81.2817948
40
3.6733357
50
242.2233607
51
263.5606509
0
ARC
8
DEFAULT_255_2_778
10
13.7510276
20
79.2351943
40
1.350731
50
230.7138112
51
242.9953758
0
ARC
8
DEFAULT_255_2_778
10
13.4296008
20
78.8500287
40
0.849104
50
208.4107121
51
231.0442761
0
ARC
8
DEFAULT_255_2_778
10
13.339965
20
78.7883136
40
0.740992
50
179.3802266
51
207.5110634
0
ARC
8
DEFAULT_255_2_778
10
13.5452142
20
78.7946326
40
0.9461993
50
172.6563635
51
179.8972929
0
ARC
8
DEFAULT_255_2_778
10
13.6676386
20
78.7806048
40
1.069414
50
170.5258223
51
172.7493474
0
ARC
8
DEFAULT_255_2_778
10
13.4988131
20
78.8574305
40
0.8915382
50
122.1895171
51
173.6113583
0
ARC
8
DEFAULT_255_2_778
10
13.8574481
20
78.3524807
40
1.5103193
50
110.6434111
51
123.4988809
0
ARC
8
DEFAULT_255_2_778
10
14.1730003
20
77.5341505
40
2.3873645
50
102.3677263
51
110.8063321
0
ARC
8
DEFAULT_255_2_778
10
14.4479625
20
76.3073539
40
3.6445883
50
96.4940417
51
102.4592132
0
ARC
8
DEFAULT_255_2_778
10
14.5590674
20
75.4641965
40
4.4949266
50
96.3398635
51
96.6856388
0
ARC
8
DEFAULT_255_2_778
10
14.4485829
20
77.0170909
40
2.9399756
50
92.9788726
51
97.5418255
0
ARC
8
DEFAULT_255_2_778
10
14.4323533
20
77.3000295
40
2.6565764
50
90.01761
51
92.946436
0
ARC
8
DEFAULT_255_2_778
10
14.4426867
20
77.7022067
40
2.2544265
50
76.0995297
51
90.2833721
0
ARC
8
DEFAULT_255_2_778
10
14.4996692
20
77.9613001
40
1.9892435
50
53.3244186
51
75.8999326
0
ARC
8
DEFAULT_255_2_778
10
14.910474
20
78.5424953
40
1.2778626
50
35.096362
51
52.5325526
0
ARC
8
DEFAULT_255_2_778
10
15.1528562
20
78.7191512
40
0.9779937
50
11.0520761
51
34.7929497
0
ARC
8
DEFAULT_255_2_778
10
16.7594367
20
72.6087531
40
6.3309994
50
95.8631159
51
97.2299619
0
ARC
8
DEFAULT_255_2_778
10
17.6810189
20
65.2098725
40
13.7870451
50
97.1596903
51
97.7688426
0
ARC
8
DEFAULT_255_2_778
10
19.2453793
20
53.7519508
40
25.3512654
50
97.7714572
51
98.3042542
0
ARC
8
DEFAULT_255_2_778
10
21.9897827
20
34.8953435
40
44.4065364
50
98.2941578
51
98.6476261
0
ARC
8
DEFAULT_255_2_778
10
24.5009415
20
18.2939199
40
61.196803
50
98.6349568
51
98.72998
0
LINE
8
DEFAULT_255_2_778
10
15.2126114
20
78.7817337
11
15.2123114
21
78.7815337
0
ARC
8
DEFAULT_255_2_778
10
26.1866326
20
77.1521916
40
2.7939493
50
39.0590005
51
51.2297548
0
ARC
8
DEFAULT_255_2_778
10
26.4824271
20
77.5143001
40
2.3264035
50
51.3250204
51
87.4417182
0
ARC
8
DEFAULT_255_2_778
10
26.4255909
20
77.0040997
40
2.8388358
50
86.7553541
51
90.0190619
0
ARC
8
DEFAULT_255_2_778
10
26.425565
20
76.796249
40
3.0466865
50
90.017275
51
92.9349626
0
ARC
8
DEFAULT_255_2_778
10
26.4311472
20
76.668231
40
3.1748225
50
92.9172773
51
93.3228556
0
ARC
8
DEFAULT_255_2_778
10
26.3993526
20
76.8234575
40
3.0180997
50
92.8910808
51
103.308822
0
ARC
8
DEFAULT_255_2_778
10
26.2276224
20
77.5283122
40
2.292648
50
103.1873439
51
120.6698856
0
ARC
8
DEFAULT_255_2_778
10
26.1761733
20
77.6513072
40
2.1606928
50
121.1600949
51
145.8020505
0
ARC
8
DEFAULT_255_2_778
10
26.540799
20
77.3802997
40
2.6146663
50
145.381067
51
150.6285035
0
ARC
8
DEFAULT_255_2_778
10
25.6441476
20
77.9393886
40
1.5597775
50
152.3714582
51
180.1237909
0
ARC
8
DEFAULT_255_2_778
10
25.8655499
20
77.9404159
40
1.7811817
50
180.1414496
51
190.4939575
0
ARC
8
DEFAULT_255_2_778
10
26.1135016
20
77.9814199
40
2.03246
50
190.3574666
51
193.5155309
0
ARC
8
DEFAULT_255_2_778
10
26.2685503
20
78.1874994
40
2.2374062
50
197.7225315
51
213.1952203
0
ARC
8
DEFAULT_255_2_778
10
26.039973
20
78.0552529
40
1.9737796
50
213.6155366
51
244.3342591
0
ARC
8
DEFAULT_255_2_778
10
26.3485203
20
78.6602154
40
2.652741
50
243.9868775
51
255.5360564
0
ARC
8
DEFAULT_255_2_778
10
26.5415127
20
79.356546
40
3.3752301
50
255.3161821
51
260.1157643
0
ARC
8
DEFAULT_255_2_778
10
26.4467664
20
79.179306
40
3.1849784
50
261.2476446
51
266.0105849
0
ARC
8
DEFAULT_255_2_778
10
26.4257973
20
78.8928495
40
2.8977574
50
266.0301378
51
269.9753106
0
ARC
8
DEFAULT_255_2_778
10
26.4375722
20
78.4992635
40
2.5042049
50
269.7020204
51
288.4183967
0
ARC
8
DEFAULT_255_2_778
10
26.4192908
20
78.5027434
40
2.5133351
50
288.7887427
51
306.8850692
0
ARC
8
DEFAULT_255_2_778
10
26.1894071
20
78.8311639
40
2.9140283
50
306.6245179
51
310.7956922
0
ARC
8
DEFAULT_255_2_778
10
25.6332177
20
79.0679469
40
3.4669241
50
315.2019167
51
319.0457489
0
ARC
8
DEFAULT_255_2_778
10
24.19509
20
80.3321706
40
5.381703
50
318.9163525
51
320.6354855
0
ARC
8
DEFAULT_255_2_778
10
13.9848156
20
33.2086116
40
46.0120412
50
71.8002037
51
72.9841227
0
ARC
8
DEFAULT_255_2_778
10
26.2624482
20
77.8077651
40
1.3307949
50
315.6584542
51
333.1361322
0
ARC
8
DEFAULT_255_2_778
10
26.4496468
20
77.641561
40
1.0808136
50
276.097235
51
315.0237531
0
ARC
8
DEFAULT_255_2_778
10
26.3787899
20
78.0537749
40
1.4984593
50
269.9593708
51
277.1171458
0
ARC
8
DEFAULT_255_2_778
10
26.5576949
20
78.3992584
40
1.8527042
50
252.6089137
51
264.425624
0
ARC
8
DEFAULT_255_2_778
10
26.3682156
20
77.8130243
40
1.2366474
50
231.5770463
51
252.8682187
0
ARC
8
DEFAULT_255_2_778
10
26.3169867
20
77.7187123
40
1.1310733
50
200.1282261
51
230.6410704
0
ARC
8
DEFAULT_255_2_778
10
26.6814904
20
77.8742568
40
1.5269803
50
193.9470674
51
200.901612
0
ARC
8
DEFAULT_255_2_778
10
26.879406
20
77.9591705
40
1.7398736
50
186.4000989
51
195.0901011
0
ARC
8
DEFAULT_255_2_778
10
26.6091425
20
77.9261663
40
1.4676181
50
180.0580991
51
186.2957793
0
ARC
8
DEFAULT_255_2_778
10
26.3951431
20
77.9322716
40
1.2536409
50
152.1088853
51
180.3470529
0
ARC
8
DEFAULT_255_2_778
10
26.6324558
20
77.8259974
40
1.5131978
50
136.9390108
51
152.7557651
0
ARC
8
DEFAULT_255_2_778
10
26.3826878
20
78.0484557
40
1.1788483
50
94.3189236
51
136.5501036
0
ARC
8
DEFAULT_255_2_778
10
26.4477663
20
77.6196062
40
1.6117107
50
89.930286
51
95.477846
0
ARC
8
DEFAULT_255_2_778
10
26.4206211
20
78.2307307
40
1.0010084
50
53.9252936
51
88.3337822
0
ARC
8
DEFAULT_255_2_778
10
26.1109225
20
77.7793907
40
1.548244
50
41.002225
51
54.4971723
0
ARC
8
DEFAULT_255_2_778
10
25.584532
20
77.3051133
40
2.2567054
50
34.8176332
51
41.3213927
0
ARC
8
DEFAULT_255_2_778
10
193.5697218
20
-398.3417057
40
505.0418861
50
109.1729844
51
109.204933
0
ARC
8
DEFAULT_255_2_778
10
145.0940637
20
-258.9055144
40
357.4195949
50
109.1175828
51
109.1741131
0
ARC
8
DEFAULT_255_2_778
10
101.5262024
20
-133.2044259
40
224.3822987
50
109.0418547
51
109.1183666
0
ARC
8
DEFAULT_255_2_778
10
85.0766004
20
-85.5768054
40
173.9940114
50
109.0256222
51
109.0383776
0
LINE
8
DEFAULT_255_2_778
10
19.7663396
20
76.1498937
11
20.8844396
21
76.1498937
0
LINE
8
DEFAULT_255_2_778
10
20.8844396
20
76.1498937
11
21.0614396
21
76.6165937
0
LINE
8
DEFAULT_255_2_778
10
21.0614396
20
76.6165937
11
22.9347396
21
76.6165937
0
LINE
8
DEFAULT_255_2_778
10
22.9347396
20
76.6165937
11
23.1117396
21
76.1498937
0
LINE
8
DEFAULT_255_2_778
10
23.1117396
20
76.1498937
11
24.2298396
21
76.1498937
0
LINE
8
DEFAULT_255_2_778
10
24.2298396
20
76.1498937
11
22.6632396
21
79.6312937
0
LINE
8
DEFAULT_255_2_778
10
22.6632396
20
79.6312937
11
21.3329396
21
79.6312937
0
LINE
8
DEFAULT_255_2_778
10
21.3329396
20
79.6312937
11
19.7663396
21
76.1498937
0
LINE
8
DEFAULT_255_2_778
10
21.3199396
20
77.2978937
11
21.9981396
21
79.0859937
0
LINE
8
DEFAULT_255_2_778
10
21.9981396
20
79.0859937
11
22.6762396
21
77.2978937
0
LINE
8
DEFAULT_255_2_778
10
22.6762396
20
77.2978937
11
21.3199396
21
77.2978937
0
LINE
8
DEFAULT_255_2_778
10
21.4176886
20
72.6573583
11
21.4176886
21
73.7662583
0
LINE
8
DEFAULT_255_2_778
10
21.4176886
20
73.7662583
11
22.0322886
21
72.6573583
0
LINE
8
DEFAULT_255_2_778
10
22.0322886
20
72.6573583
11
22.8013886
21
72.6573583
0
LINE
8
DEFAULT_255_2_778
10
22.8013886
20
72.6573583
11
21.9732886
21
74.1515583
0
LINE
8
DEFAULT_255_2_778
10
21.9732886
20
74.1515583
11
22.6637886
21
75.3008583
0
LINE
8
DEFAULT_255_2_778
10
22.6637886
20
75.3008583
11
22.0330886
21
75.3008583
0
LINE
8
DEFAULT_255_2_778
10
22.0330886
20
75.3008583
11
21.4173886
21
74.2763583
0
LINE
8
DEFAULT_255_2_778
10
21.4173886
20
74.2763583
11
21.4173886
21
75.3008583
0
LINE
8
DEFAULT_255_2_778
10
21.4173886
20
75.3008583
11
20.7045886
21
75.3008583
0
LINE
8
DEFAULT_255_2_778
10
20.7045886
20
75.3008583
11
20.7045886
21
72.6571583
0
LINE
8
DEFAULT_255_2_778
10
20.7045886
20
72.6571583
11
21.4176886
21
72.6573583
0
ARC
8
DEFAULT_255_2_778
10
27.0504793
20
73.4483987
40
0.8703357
50
269.9379346
51
318.8422796
0
ARC
8
DEFAULT_255_2_778
10
27.0528771
20
73.4492
40
0.8690604
50
318.6984629
51
0.0832986
0
ARC
8
DEFAULT_255_2_778
10
27.0515365
20
73.451457
40
0.8704006
50
359.9346041
51
48.4961918
0
ARC
8
DEFAULT_255_2_778
10
27.0507937
20
73.4538942
40
0.8690701
50
48.3530374
51
90.0828846
0
ARC
8
DEFAULT_255_2_778
10
27.0485383
20
73.4526051
40
0.870359
50
89.9342916
51
138.4988077
0
ARC
8
DEFAULT_255_2_778
10
27.0462609
20
73.4517461
40
0.8692253
50
138.3569276
51
180.0845401
0
ARC
8
DEFAULT_255_2_778
10
27.0473304
20
73.449516
40
0.8702944
50
179.9376197
51
228.8449123
0
ARC
8
DEFAULT_255_2_778
10
27.0482479
20
73.4472789
40
0.8692164
50
228.7023284
51
270.0849361
0
ARC
8
DEFAULT_255_2_778
10
26.4409723
20
73.4504043
40
0.8474642
50
332.2309633
51
359.997241
0
ARC
8
DEFAULT_255_2_778
10
27.0495709
20
73.1302637
40
0.1598002
50
270.0593845
51
332.1304489
0
ARC
8
DEFAULT_255_2_778
10
27.0498393
20
73.1299936
40
0.1595301
50
207.8111141
51
269.963071
0
ARC
8
DEFAULT_255_2_778
10
27.6575899
20
73.4504226
40
0.8465785
50
180.0231765
51
207.8020011
0
LINE
8
DEFAULT_255_2_778
10
26.8110116
20
73.4500801
11
26.8110115
21
73.450501
0
ARC
8
DEFAULT_255_2_778
10
27.6571424
20
73.4506153
40
0.8461309
50
152.1905026
51
180.0077379
0
ARC
8
DEFAULT_255_2_778
10
27.049833
20
73.771131
40
0.1594324
50
90.0346923
51
152.2506374
0
ARC
8
DEFAULT_255_2_778
10
27.0495774
20
73.770862
40
0.1597016
50
27.8076408
51
89.9429271
0
ARC
8
DEFAULT_255_2_778
10
26.4404779
20
73.4504005
40
0.8479586
50
359.9974992
51
27.760777
0
LINE
8
DEFAULT_255_2_778
10
27.0495365
20
72.5780635
11
27.0495365
21
72.5780635
0
LINE
8
DEFAULT_255_2_778
10
27.2884365
20
73.4503635
11
27.2884365
21
73.4503635
0
ARC
8
DEFAULT_255_2_778
10
23.6294793
20
73.4483987
40
0.8703357
50
269.9379346
51
318.8422796
0
ARC
8
DEFAULT_255_2_778
10
23.6318771
20
73.4492
40
0.8690604
50
318.6984629
51
0.0832986
0
ARC
8
DEFAULT_255_2_778
10
23.6305365
20
73.451457
40
0.8704006
50
359.9346041
51
48.4961918
0
ARC
8
DEFAULT_255_2_778
10
23.6297937
20
73.4538942
40
0.8690701
50
48.3530374
51
90.0828846
0
ARC
8
DEFAULT_255_2_778
10
23.6275383
20
73.4526051
40
0.870359
50
89.9342916
51
138.4988077
0
ARC
8
DEFAULT_255_2_778
10
23.6252609
20
73.4517461
40
0.8692253
50
138.3569276
51
180.0845401
0
ARC
8
DEFAULT_255_2_778
10
23.6263304
20
73.449516
40
0.8702944
50
179.9376197
51
228.8449123
0
ARC
8
DEFAULT_255_2_778
10
23.6272479
20
73.4472789
40
0.8692164
50
228.7023284
51
270.0849361
0
ARC
8
DEFAULT_255_2_778
10
23.0199723
20
73.4504043
40
0.8474642
50
332.2309633
51
359.997241
0
ARC
8
DEFAULT_255_2_778
10
23.6285709
20
73.1302637
40
0.1598002
50
270.0593845
51
332.1304489
0
ARC
8
DEFAULT_255_2_778
10
23.6288393
20
73.1299936
40
0.1595301
50
207.8111141
51
269.963071
0
ARC
8
DEFAULT_255_2_778
10
24.2365899
20
73.4504226
40
0.8465785
50
180.0231765
51
207.8020011
0
LINE
8
DEFAULT_255_2_778
10
23.3900116
20
73.4500801
11
23.3900115
21
73.450501
0
ARC
8
DEFAULT_255_2_778
10
24.2361424
20
73.4506153
40
0.8461309
50
152.1905026
51
180.0077379
0
ARC
8
DEFAULT_255_2_778
10
23.628833
20
73.771131
40
0.1594324
50
90.0346923
51
152.2506374
0
ARC
8
DEFAULT_255_2_778
10
23.6285774
20
73.770862
40
0.1597016
50
27.8076408
51
89.9429271
0
ARC
8
DEFAULT_255_2_778
10
23.0194779
20
73.4504005
40
0.8479586
50
359.9974992
51
27.760777
0
LINE
8
DEFAULT_255_2_778
10
23.6285365
20
72.5780635
11
23.6285365
21
72.5780635
0
LINE
8
DEFAULT_255_2_778
10
23.8674365
20
73.4503635
11
23.8674365
21
73.4503635
0
ARC
8
DEFAULT_255_2_778
10
24.4710273
20
72.65838
40
1.1891676
50
301.2485805
51
344.8767798
0
ARC
8
DEFAULT_255_2_778
10
24.4742429
20
72.6558612
40
1.185347
50
301.1788563
51
345.058059
0
ARC
8
DEFAULT_255_2_778
10
24.4738771
20
72.6039095
40
0.7376055
50
280.0985658
51
345.0183403
0
LINE
8
DEFAULT_255_2_778
10
25.6195104
20
72.3502312
11
26.1119104
21
74.1878312
0
LINE
8
DEFAULT_255_2_778
10
26.1119104
20
74.1878312
11
25.6917104
21
74.3002312
0
LINE
8
DEFAULT_255_2_778
10
25.6917104
20
74.3002312
11
25.4507104
21
73.4006312
0
LINE
8
DEFAULT_255_2_778
10
25.4507104
20
73.4006312
11
25.2118104
21
74.2960312
0
LINE
8
DEFAULT_255_2_778
10
25.2118104
20
74.2960312
11
24.5429104
21
74.2960312
0
LINE
8
DEFAULT_255_2_778
10
24.5429104
20
74.2960312
11
24.9694104
21
72.6971312
0
LINE
8
DEFAULT_255_2_778
10
24.9694104
20
72.6971312
11
25.2623104
21
72.6971312
0
LINE
8
DEFAULT_255_2_778
10
25.2623104
20
72.6971312
11
25.1864104
21
72.4132312
0
LINE
8
DEFAULT_255_2_778
10
24.6032104
20
71.8777312
11
25.0879104
21
71.6411312
0
ARC
8
DEFAULT_255_2_778
10
48.739858
20
83.0762638
40
3.9975114
50
359.9086068
51
7.6205972
0
ARC
8
DEFAULT_255_2_778
10
49.5842453
20
83.1925252
40
3.1451658
50
7.5612451
51
15.1960392
0
ARC
8
DEFAULT_255_2_778
10
50.5542687
20
83.4594005
40
2.139108
50
15.1082107
51
23.9103745
0
ARC
8
DEFAULT_255_2_778
10
51.3687943
20
83.8258996
40
1.2459495
50
23.6844339
51
36.0778622
0
ARC
8
DEFAULT_255_2_778
10
51.8764952
20
84.2034681
40
0.6133037
50
35.5004613
51
56.9350842
0
ARC
8
DEFAULT_255_2_778
10
52.0330918
20
84.4410561
40
0.328759
50
57.2158323
51
89.255383
0
ARC
8
DEFAULT_255_2_778
10
52.0372537
20
83.0696726
40
1.7001147
50
45.0024812
51
89.9962728
0
ARC
8
DEFAULT_255_2_778
10
52.03715
20
83.0697769
40
1.7001143
50
0.0037224
51
44.9975253
0
ARC
8
DEFAULT_255_2_778
10
52.0374974
20
1.4699538
40
1.6997669
50
314.9976266
51
0.0011314
0
ARC
8
DEFAULT_255_2_778
10
52.0372883
20
1.4697779
40
1.6997904
50
270.0025624
51
315.0068038
0
ARC
8
DEFAULT_255_2_778
10
52.0245144
20
0.1347551
40
0.364994
50
272.0175635
51
314.5434429
0
ARC
8
DEFAULT_255_2_778
10
51.7208883
20
0.4770314
40
0.8222605
50
312.892496
51
329.6028805
0
ARC
8
DEFAULT_255_2_778
10
51.0831698
20
0.8631003
40
1.5676989
50
329.2257031
51
339.919885
0
ARC
8
DEFAULT_255_2_778
10
50.1809918
20
1.2006425
40
2.5309367
50
339.7551693
51
347.8735715
0
ARC
8
DEFAULT_255_2_778
10
49.2426225
20
1.4074406
40
3.4918133
50
347.7905299
51
354.9613505
0
ARC
8
DEFAULT_255_2_778
10
48.635318
20
1.4674564
40
4.1020471
50
354.8713194
51
0.0353513
0
ARC
8
DEFAULT_255_2_778
10
5.2351197
20
1.4636098
40
3.9975605
50
179.908592
51
187.6206362
0
ARC
8
DEFAULT_255_2_778
10
4.3908271
20
1.3473586
40
3.1453101
50
187.5612532
51
195.1960882
0
ARC
8
DEFAULT_255_2_778
10
3.4207032
20
1.0804538
40
2.1391476
50
195.1082289
51
203.9109007
0
ARC
8
DEFAULT_255_2_778
10
2.6061755
20
0.7139407
40
1.2459817
50
203.6847898
51
216.0791631
0
ARC
8
DEFAULT_255_2_778
10
2.098503
20
0.3363732
40
0.6133593
50
215.5016748
51
236.9374305
0
ARC
8
DEFAULT_255_2_778
10
1.9419335
20
0.0988091
40
0.3288494
50
237.2184354
51
269.2561522
0
ARC
8
DEFAULT_255_2_778
10
1.9376682
20
1.4696037
40
1.6996164
50
224.9907632
51
269.9998695
0
ARC
8
DEFAULT_255_2_778
10
1.936997
20
1.4701568
40
1.6995328
50
180.0158259
51
225.0199467
0
LINE
8
DEFAULT_255_2_778
10
53.7375643
20
83.0698874
11
52.7373643
21
83.0698874
0
LINE
8
DEFAULT_255_2_778
10
52.0373643
20
84.7697874
11
52.0373643
21
84.7697874
0
LINE
8
DEFAULT_255_2_778
10
53.7372643
20
83.0698874
11
53.7372643
21
1.4699874
0
LINE
8
DEFAULT_255_2_778
10
52.7373643
20
1.4699874
11
1.2375643
21
1.4699874
0
LINE
8
DEFAULT_255_2_778
10
1.9376643
20
-0.2300126
11
1.9376643
21
-0.2300126
0
LINE
8
DEFAULT_255_2_778
10
0.2374643
20
1.4696874
11
0.2374643
21
83.0698874
0
LINE
8
DEFAULT_255_2_778
10
0.2374643
20
83.0698874
11
0.2374643
21
84.7697874
0
LINE
8
DEFAULT_255_2_778
10
0.2374643
20
84.7697874
11
52.0375643
21
84.7697874
0
ARC
8
DEFAULT_255_2_778
10
5.2359367
20
83.0763039
40
3.9983775
50
172.3824607
51
180.0911107
0
ARC
8
DEFAULT_255_2_778
10
4.3921028
20
83.1924535
40
3.1465953
50
164.8110687
51
172.4419331
0
ARC
8
DEFAULT_255_2_778
10
3.421611
20
83.4593339
40
2.140085
50
156.1006491
51
164.8990437
0
ARC
8
DEFAULT_255_2_778
10
2.6064535
20
83.8259326
40
1.2463094
50
143.9362591
51
156.3268434
0
ARC
8
DEFAULT_255_2_778
10
2.0983455
20
84.2036132
40
0.61327
50
123.0780339
51
144.5143344
0
ARC
8
DEFAULT_255_2_778
10
1.9416372
20
84.4412531
40
0.3286204
50
90.7450121
51
122.7971576
0
ARC
8
DEFAULT_255_2_778
10
1.9374749
20
83.0697306
40
1.7001151
50
90.0037291
51
134.997511
0
ARC
8
DEFAULT_255_2_778
10
1.9375786
20
83.0698353
40
1.7001143
50
135.0024747
51
179.9962776
0
LINE
8
DEFAULT_255_2_778
10
53.7375643
20
1.4697457
11
52.7373643
21
1.4697457
0
LINE
8
DEFAULT_255_2_778
10
52.7373643
20
1.4697457
11
52.7373643
21
83.0699457
0
LINE
8
DEFAULT_255_2_778
10
52.7373643
20
83.0699457
11
1.2375643
21
83.0699457
0
LINE
8
DEFAULT_255_2_778
10
1.2375643
20
83.0699457
11
1.2375643
21
83.0699457
0
LINE
8
DEFAULT_255_2_778
10
0.2374643
20
83.0699457
11
1.2375643
21
83.0699457
0
LINE
8
DEFAULT_255_2_778
10
1.2375643
20
83.0699457
11
1.2375643
21
1.4700457
0
LINE
8
DEFAULT_255_2_778
10
1.2375643
20
1.4700457
11
0.2374643
21
1.4700457
0
ARC
8
DEFAULT_255_2_778
10
38.8034038
20
82.9763148
40
1.5965884
50
248.0398861
51
255.9667928
0
ARC
8
DEFAULT_255_2_778
10
38.4709662
20
82.1672887
40
0.7219661
50
234.0131889
51
248.4980473
0
ARC
8
DEFAULT_255_2_778
10
38.3133663
20
81.9356112
40
0.4419821
50
230.4370202
51
232.8968252
0
ARC
8
DEFAULT_255_2_778
10
38.2178781
20
81.8383778
40
0.3064266
50
179.6824621
51
232.6221751
0
ARC
8
DEFAULT_255_2_778
10
38.2387761
20
81.8402379
40
0.3273198
50
123.407659
51
180.0283276
0
ARC
8
DEFAULT_255_2_778
10
38.3881504
20
81.6454297
40
0.5724505
50
95.2826132
51
125.1528702
0
ARC
8
DEFAULT_255_2_778
10
38.4386356
20
81.3205831
40
0.9007958
50
89.8587554
51
96.5779102
0
ARC
8
DEFAULT_255_2_778
10
38.453114
20
81.5233633
40
0.6981203
50
66.91394
51
91.0060624
0
ARC
8
DEFAULT_255_2_778
10
38.5492854
20
81.7402268
40
0.4609266
50
36.1112177
51
67.3408873
0
ARC
8
DEFAULT_255_2_778
10
38.6268683
20
81.7987033
40
0.3637892
50
359.8539549
51
35.8721595
0
ARC
8
DEFAULT_255_2_778
10
38.5425266
20
81.8085683
40
0.2419705
50
357.4436591
51
51.136151
0
ARC
8
DEFAULT_255_2_778
10
38.4850488
20
81.7182821
40
0.3485397
50
53.0923568
51
86.0809574
0
ARC
8
DEFAULT_255_2_778
10
38.4424851
20
81.4329982
40
0.63648
50
84.0131225
51
90.1466295
0
ARC
8
DEFAULT_255_2_778
10
38.4283292
20
81.5797757
40
0.4898605
50
88.5346296
51
109.5912248
0
ARC
8
DEFAULT_255_2_778
10
38.3629494
20
81.7821347
40
0.2773646
50
110.8839677
51
124.9504186
0
ARC
8
DEFAULT_255_2_778
10
38.3119729
20
81.8495446
40
0.1929354
50
124.0102243
51
182.0104566
0
ARC
8
DEFAULT_255_2_778
10
38.2934809
20
81.8453478
40
0.1743436
50
180.8452192
51
237.5195331
0
ARC
8
DEFAULT_255_2_778
10
38.484872
20
82.1139215
40
0.5039793
50
235.560851
51
250.3547656
0
ARC
8
DEFAULT_255_2_778
10
38.8102391
20
82.967348
40
1.417251
50
249.5659884
51
256.3073346
0
ARC
8
DEFAULT_255_2_778
10
38.033621
20
79.7954756
40
1.8483149
50
69.9785675
51
76.1920106
0
ARC
8
DEFAULT_255_2_778
10
38.3581661
20
80.6863251
40
0.9001893
50
62.1673375
51
69.974077
0
ARC
8
DEFAULT_255_2_778
10
38.5732702
20
81.0739016
40
0.4571134
50
38.2533322
51
63.3285744
0
ARC
8
DEFAULT_255_2_778
10
38.6784777
20
81.1683064
40
0.3161741
50
33.8836613
51
36.622868
0
ARC
8
DEFAULT_255_2_778
10
38.6687416
20
81.1666543
40
0.325203
50
358.6647079
51
33.1689636
0
ARC
8
DEFAULT_255_2_778
10
38.6775664
20
81.1544294
40
0.316324
50
302.2060616
51
0.8416733
0
ARC
8
DEFAULT_255_2_778
10
38.5257257
20
81.3698438
40
0.5796812
50
277.3162717
51
303.5572747
0
ARC
8
DEFAULT_255_2_778
10
38.456051
20
81.7685591
40
0.9841937
50
269.7325098
51
278.3835789
0
ARC
8
DEFAULT_255_2_778
10
38.445004
20
81.5881142
40
0.8037641
50
248.6173862
51
270.4599495
0
ARC
8
DEFAULT_255_2_778
10
38.3261461
20
81.3154803
40
0.5066871
50
221.2465721
51
249.8925431
0
ARC
8
DEFAULT_255_2_778
10
38.2505188
20
81.236795
40
0.3980559
50
218.1190524
51
219.9077193
0
ARC
8
DEFAULT_255_2_778
10
38.2054819
20
81.2058524
40
0.3435407
50
179.462355
51
218.69574
0
ARC
8
DEFAULT_255_2_778
10
38.3008428
20
81.2027666
40
0.2325721
50
178.4454447
51
236.5232313
0
ARC
8
DEFAULT_255_2_778
10
38.4078582
20
81.3630972
40
0.4253358
50
236.4121666
51
266.0082791
0
ARC
8
DEFAULT_255_2_778
10
38.4495956
20
81.6603527
40
0.7250783
50
264.3530967
51
270.1233263
0
ARC
8
DEFAULT_255_2_778
10
38.4633293
20
81.5039843
40
0.5688385
50
268.7737866
51
286.4813824
0
ARC
8
DEFAULT_255_2_778
10
38.5380289
20
81.2368502
40
0.2915176
50
287.2983573
51
303.8608824
0
ARC
8
DEFAULT_255_2_778
10
38.600131
20
81.1524436
40
0.1868803
50
302.4689626
51
1.3897305
0
ARC
8
DEFAULT_255_2_778
10
38.6040039
20
81.1644209
40
0.1831038
50
357.6697484
51
55.8632358
0
ARC
8
DEFAULT_255_2_778
10
38.4271923
20
80.8900721
40
0.5094606
50
56.7190411
51
69.8282392
0
ARC
8
DEFAULT_255_2_778
10
38.0434656
20
79.9012186
40
1.570101
50
69.1276467
51
75.2356541
0
ARC
8
DEFAULT_255_2_778
10
37.7568377
20
78.8910778
40
2.6200089
50
74.8040594
51
75.4340161
0
LINE
8
DEFAULT_255_2_778
10
38.9906563
20
81.797776
11
38.7842563
21
81.797776
0
LINE
8
DEFAULT_255_2_778
10
37.8619563
20
81.209076
11
38.0683563
21
81.209076
0
LINE
8
DEFAULT_255_2_778
10
38.4157563
20
81.426876
11
38.4162563
21
81.427376
0
ARC
8
DEFAULT_255_2_778
10
39.7110677
20
81.1966975
40
0.4052971
50
322.4771945
51
2.1901566
0
ARC
8
DEFAULT_255_2_778
10
39.7406494
20
81.1853453
40
0.3750294
50
310.0309494
51
321.0999407
0
ARC
8
DEFAULT_255_2_778
10
39.6709837
20
81.2812631
40
0.4933531
50
274.6889561
51
309.0609848
0
ARC
8
DEFAULT_255_2_778
10
39.6258704
20
81.5677867
40
0.782902
50
269.8754699
51
276.2655381
0
ARC
8
DEFAULT_255_2_778
10
39.6114076
20
81.4901009
40
0.7053299
50
252.4191298
51
271.0366769
0
ARC
8
DEFAULT_255_2_778
10
39.5301699
20
81.2210337
40
0.4243098
50
230.9349319
51
251.9020879
0
ARC
8
DEFAULT_255_2_778
10
39.497936
20
81.1707453
40
0.3650113
50
177.1668441
51
229.8887519
0
ARC
8
DEFAULT_255_2_778
10
39.6950445
20
81.190211
40
0.5616756
50
179.9923012
51
180.145261
0
ARC
8
DEFAULT_255_2_778
10
39.5797533
20
81.1765494
40
0.2414756
50
176.7387962
51
225.9863083
0
ARC
8
DEFAULT_255_2_778
10
39.5913388
20
81.2148699
40
0.277688
50
229.7637268
51
268.1479006
0
ARC
8
DEFAULT_255_2_778
10
39.6234158
20
81.44994
40
0.5142541
50
265.421343
51
270.0838971
0
ARC
8
DEFAULT_255_2_778
10
39.6374256
20
81.2279164
40
0.2925305
50
267.4025847
51
311.1626257
0
ARC
8
DEFAULT_255_2_778
10
39.647105
20
81.1965335
40
0.2628733
50
314.0778068
51
2.780722
0
LINE
8
DEFAULT_255_2_778
10
39.9096688
20
81.2092864
11
39.9096688
21
82.2022864
0
LINE
8
DEFAULT_255_2_778
10
39.9096688
20
82.2022864
11
40.1160688
21
82.2022864
0
LINE
8
DEFAULT_255_2_778
10
40.1160688
20
82.2022864
11
40.1160688
21
81.2121864
0
LINE
8
DEFAULT_255_2_778
10
39.1333688
20
81.1902864
11
39.3386688
21
81.1902864
0
LINE
8
DEFAULT_255_2_778
10
39.9096688
20
81.2092864
11
39.9096688
21
81.2092864
0
LINE
8
DEFAULT_255_2_778
10
40.8464885
20
81.4704958
11
40.8464885
21
81.3254958
0
LINE
8
DEFAULT_255_2_778
10
40.8464885
20
81.3254958
11
40.3244885
21
81.3254958
0
LINE
8
DEFAULT_255_2_778
10
40.3244885
20
81.3254958
11
40.3244885
21
81.4704958
0
LINE
8
DEFAULT_255_2_778
10
40.3244885
20
81.4704958
11
40.8464885
21
81.4704958
0
LINE
8
DEFAULT_255_2_778
10
40.8464885
20
81.4704958
11
40.8464885
21
81.4704958
0
LINE
8
DEFAULT_255_2_778
10
41.6690341
20
82.209101
11
41.6690341
21
80.804201
0
LINE
8
DEFAULT_255_2_778
10
41.6690341
20
80.804201
11
41.4701341
21
80.804201
0
LINE
8
DEFAULT_255_2_778
10
41.4701341
20
80.804201
11
41.4701341
21
81.988501
0
LINE
8
DEFAULT_255_2_778
10
41.4701341
20
81.988501
11
41.0711341
21
81.857001
0
LINE
8
DEFAULT_255_2_778
10
41.0711341
20
81.857001
11
41.0711341
21
82.018401
0
LINE
8
DEFAULT_255_2_778
10
41.0711341
20
82.018401
11
41.6381341
21
82.209401
0
LINE
8
DEFAULT_255_2_778
10
41.6381341
20
82.209401
11
41.6690341
21
82.209401
0
LINE
8
DEFAULT_255_2_778
10
41.6690341
20
82.209401
11
41.6690341
21
82.209101
0
LINE
8
DEFAULT_255_2_778
10
42.8991341
20
82.209101
11
42.8991341
21
80.804201
0
LINE
8
DEFAULT_255_2_778
10
42.8991341
20
80.804201
11
42.7002341
21
80.804201
0
LINE
8
DEFAULT_255_2_778
10
42.7002341
20
80.804201
11
42.7002341
21
81.988501
0
LINE
8
DEFAULT_255_2_778
10
42.7002341
20
81.988501
11
42.3012341
21
81.857001
0
LINE
8
DEFAULT_255_2_778
10
42.3012341
20
81.857001
11
42.3012341
21
82.018401
0
LINE
8
DEFAULT_255_2_778
10
42.3012341
20
82.018401
11
42.8682341
21
82.209401
0
LINE
8
DEFAULT_255_2_778
10
42.8682341
20
82.209401
11
42.8991341
21
82.209401
0
LINE
8
DEFAULT_255_2_778
10
42.8991341
20
82.209401
11
42.8991341
21
82.209101
0
ARC
8
DEFAULT_255_2_778
10
43.9839708
20
81.4214475
40
0.7809742
50
65.3697962
51
91.0371638
0
ARC
8
DEFAULT_255_2_778
10
44.0247046
20
81.5330848
40
0.662586
50
62.6479267
51
64.5484276
0
ARC
8
DEFAULT_255_2_778
10
44.0692535
20
81.6069958
40
0.5764973
50
29.6162103
51
63.2054318
0
ARC
8
DEFAULT_255_2_778
10
43.9719375
20
81.5595873
40
0.6845627
50
359.2053949
51
29.0405721
0
ARC
8
DEFAULT_255_2_778
10
43.9654301
20
81.4459014
40
0.6911626
50
332.1890488
51
1.2263476
0
ARC
8
DEFAULT_255_2_778
10
44.0528104
20
81.4102657
40
0.597321
50
330.2752473
51
331.3018983
0
ARC
8
DEFAULT_255_2_778
10
44.0798943
20
81.3931409
40
0.5653117
50
296.1042119
51
330.4214358
0
ARC
8
DEFAULT_255_2_778
10
43.9773263
20
81.6063802
40
0.8019318
50
271.621188
51
295.9812665
0
ARC
8
DEFAULT_255_2_778
10
43.9504488
20
81.8929712
40
1.0893299
50
270.5620441
51
272.6078958
0
ARC
8
DEFAULT_255_2_778
10
43.9648141
20
81.5514627
40
0.5971144
50
268.7352435
51
292.2508191
0
ARC
8
DEFAULT_255_2_778
10
44.0267497
20
81.3814725
40
0.4163894
50
293.2202976
51
315.0103046
0
ARC
8
DEFAULT_255_2_778
10
43.9900987
20
81.403911
40
0.4582837
50
316.2659117
51
353.5614946
0
ARC
8
DEFAULT_255_2_778
10
43.6812424
20
81.4616215
40
0.7719977
50
351.8755937
51
0.2205919
0
ARC
8
DEFAULT_255_2_778
10
43.8145361
20
81.5594129
40
0.638831
50
358.8322462
51
20.2685409
0
ARC
8
DEFAULT_255_2_778
10
44.0229335
20
81.6303266
40
0.4188101
50
21.0443245
51
43.1197053
0
ARC
8
DEFAULT_255_2_778
10
44.0182411
20
81.6124611
40
0.434558
50
44.4162997
51
85.2762372
0
ARC
8
DEFAULT_255_2_778
10
43.9710885
20
81.3406052
40
0.7098001
50
83.2897311
51
89.6734088
0
LINE
8
DEFAULT_255_2_778
10
43.9611344
20
80.8039937
11
43.5301344
21
80.8039937
0
LINE
8
DEFAULT_255_2_778
10
43.5301344
20
80.8039937
11
43.5301344
21
82.2022937
0
LINE
8
DEFAULT_255_2_778
10
43.5301344
20
82.2022937
11
43.9698344
21
82.2022937
0
LINE
8
DEFAULT_255_2_778
10
44.6564344
20
81.5500937
11
44.6564344
21
81.4606937
0
LINE
8
DEFAULT_255_2_778
10
43.9611344
20
80.8036937
11
43.9611344
21
80.8039937
0
LINE
8
DEFAULT_255_2_778
10
43.9751344
20
82.0503937
11
43.7354344
21
82.0503937
0
LINE
8
DEFAULT_255_2_778
10
43.7354344
20
82.0503937
11
43.7354344
21
80.9544937
0
LINE
8
DEFAULT_255_2_778
10
43.7354344
20
80.9544937
11
43.9516344
21
80.9544937
0
LINE
8
DEFAULT_255_2_778
10
44.4532344
20
81.4645937
11
44.4532344
21
81.5463937
0
LINE
8
DEFAULT_255_2_778
10
43.9751344
20
82.0503937
11
43.9751344
21
82.0503937
0
ARC
8
DEFAULT_255_2_778
10
45.4939723
20
81.2885866
40
0.9137601
50
76.2528857
51
90.7829929
0
ARC
8
DEFAULT_255_2_778
10
45.5958553
20
81.6999728
40
0.4899489
50
53.6457208
51
76.3936759
0
ARC
8
DEFAULT_255_2_778
10
45.6629931
20
81.805665
40
0.365131
50
358.2159178
51
52.2990275
0
ARC
8
DEFAULT_255_2_778
10
45.4463202
20
81.7816082
40
0.5817652
50
359.9953919
51
1.2498038
0
ARC
8
DEFAULT_255_2_778
10
45.678183
20
81.7751229
40
0.3499617
50
320.8263176
51
1.0541826
0
ARC
8
DEFAULT_255_2_778
10
45.5922052
20
81.8556041
40
0.4675223
50
287.2295198
51
319.8358041
0
ARC
8
DEFAULT_255_2_778
10
45.5007453
20
81.9485737
40
0.4286082
50
268.2672781
51
295.0280302
0
ARC
8
DEFAULT_255_2_778
10
45.5522719
20
81.8191536
40
0.2896539
50
296.6234297
51
308.1469588
0
ARC
8
DEFAULT_255_2_778
10
45.5921098
20
81.7741663
40
0.2296947
50
307.2634104
51
1.8449843
0
ARC
8
DEFAULT_255_2_778
10
45.5822533
20
81.795893
40
0.2398607
50
356.5745649
51
50.2326393
0
ARC
8
DEFAULT_255_2_778
10
45.5349198
20
81.7107228
40
0.3360921
50
53.3194511
51
85.0667781
0
ARC
8
DEFAULT_255_2_778
10
45.4852207
20
81.403605
40
0.646759
50
83.0195308
51
89.843661
0
LINE
8
DEFAULT_255_2_778
10
45.8759854
20
80.8039614
11
45.5380854
21
81.3696614
0
LINE
8
DEFAULT_255_2_778
10
45.5380854
20
81.3696614
11
45.1721854
21
81.3696614
0
LINE
8
DEFAULT_255_2_778
10
45.1721854
20
81.3696614
11
45.1721854
21
80.8039614
0
LINE
8
DEFAULT_255_2_778
10
45.1721854
20
80.8039614
11
44.9657854
21
80.8039614
0
LINE
8
DEFAULT_255_2_778
10
44.9657854
20
80.8039614
11
44.9657854
21
82.2022614
0
LINE
8
DEFAULT_255_2_778
10
44.9657854
20
82.2022614
11
45.4814854
21
82.2022614
0
LINE
8
DEFAULT_255_2_778
10
45.7306854
20
81.4090614
11
46.0965854
21
80.8155614
0
LINE
8
DEFAULT_255_2_778
10
46.0965854
20
80.8155614
11
46.0965854
21
80.8039614
0
LINE
8
DEFAULT_255_2_778
10
46.0965854
20
80.8039614
11
45.8761854
21
80.8039614
0
LINE
8
DEFAULT_255_2_778
10
45.8761854
20
80.8039614
11
45.8759854
21
80.8039614
0
LINE
8
DEFAULT_255_2_778
10
45.1721854
20
82.0503614
11
45.1721854
21
81.5201614
0
LINE
8
DEFAULT_255_2_778
10
45.1721854
20
81.5201614
11
45.4877854
21
81.5201614
0
LINE
8
DEFAULT_255_2_778
10
45.4869854
20
82.0503614
11
45.1723854
21
82.0503614
0
LINE
8
DEFAULT_255_2_778
10
45.1723854
20
82.0503614
11
45.1721854
21
82.0503614
0
LINE
8
DEFAULT_255_2_778
10
47.1957615
20
81.6011614
11
47.1957615
21
81.4503614
0
LINE
8
DEFAULT_255_2_778
10
47.1957615
20
81.4503614
11
46.5207615
21
81.4503614
0
LINE
8
DEFAULT_255_2_778
10
46.5207615
20
81.4503614
11
46.5207615
21
80.9547614
0
LINE
8
DEFAULT_255_2_778
10
46.5207615
20
80.9547614
11
47.3047615
21
80.9547614
0
LINE
8
DEFAULT_255_2_778
10
47.3047615
20
80.9547614
11
47.3047615
21
80.8039614
0
LINE
8
DEFAULT_255_2_778
10
47.3047615
20
80.8039614
11
46.3154615
21
80.8039614
0
LINE
8
DEFAULT_255_2_778
10
46.3154615
20
80.8039614
11
46.3154615
21
82.2022614
0
LINE
8
DEFAULT_255_2_778
10
46.3154615
20
82.2022614
11
47.2941615
21
82.2022614
0
LINE
8
DEFAULT_255_2_778
10
47.2941615
20
82.2022614
11
47.2941615
21
82.0503614
0
LINE
8
DEFAULT_255_2_778
10
47.2941615
20
82.0503614
11
46.5207615
21
82.0503614
0
LINE
8
DEFAULT_255_2_778
10
46.5207615
20
82.0503614
11
46.5207615
21
81.6008614
0
LINE
8
DEFAULT_255_2_778
10
46.5207615
20
81.6008614
11
47.1957615
21
81.6008614
0
LINE
8
DEFAULT_255_2_778
10
47.1957615
20
81.6008614
11
47.1957615
21
81.6011614
0
LINE
8
DEFAULT_255_2_778
10
47.9412885
20
81.4704958
11
47.9412885
21
81.3254958
0
LINE
8
DEFAULT_255_2_778
10
47.9412885
20
81.3254958
11
47.4192885
21
81.3254958
0
LINE
8
DEFAULT_255_2_778
10
47.4192885
20
81.3254958
11
47.4192885
21
81.4704958
0
LINE
8
DEFAULT_255_2_778
10
47.4192885
20
81.4704958
11
47.9412885
21
81.4704958
0
LINE
8
DEFAULT_255_2_778
10
47.9412885
20
81.4704958
11
47.9412885
21
81.4704958
0
ARC
8
DEFAULT_255_2_778
10
48.6189522
20
81.4236873
40
0.7787399
50
64.9159799
51
91.0608482
0
ARC
8
DEFAULT_255_2_778
10
48.659162
20
81.5322343
40
0.663453
50
62.6630647
51
64.0868411
0
ARC
8
DEFAULT_255_2_778
10
48.7039535
20
81.6069958
40
0.5764973
50
29.6162103
51
63.2054318
0
ARC
8
DEFAULT_255_2_778
10
48.6066375
20
81.5595873
40
0.6845627
50
359.2053949
51
29.0405721
0
ARC
8
DEFAULT_255_2_778
10
48.6001301
20
81.4459014
40
0.6911626
50
332.1890488
51
1.2263476
0
ARC
8
DEFAULT_255_2_778
10
48.6875104
20
81.4102657
40
0.597321
50
330.2752473
51
331.3018983
0
ARC
8
DEFAULT_255_2_778
10
48.7145943
20
81.3931409
40
0.5653117
50
296.1042119
51
330.4214358
0
ARC
8
DEFAULT_255_2_778
10
48.6120263
20
81.6063802
40
0.8019318
50
271.621188
51
295.9812665
0
ARC
8
DEFAULT_255_2_778
10
48.5851488
20
81.8929712
40
1.0893299
50
270.5620441
51
272.6078958
0
ARC
8
DEFAULT_255_2_778
10
48.5995141
20
81.5514627
40
0.5971144
50
268.7352435
51
292.2508191
0
ARC
8
DEFAULT_255_2_778
10
48.6614497
20
81.3814725
40
0.4163894
50
293.2202976
51
315.0103046
0
ARC
8
DEFAULT_255_2_778
10
48.6247987
20
81.403911
40
0.4582837
50
316.2659117
51
353.5614946
0
ARC
8
DEFAULT_255_2_778
10
48.3159424
20
81.4616215
40
0.7719977
50
351.8755937
51
0.2205919
0
ARC
8
DEFAULT_255_2_778
10
48.4492361
20
81.5594129
40
0.638831
50
358.8322462
51
20.2685409
0
ARC
8
DEFAULT_255_2_778
10
48.6576335
20
81.6303266
40
0.4188101
50
21.0443245
51
43.1197053
0
ARC
8
DEFAULT_255_2_778
10
48.6529411
20
81.6124611
40
0.434558
50
44.4162997
51
85.2762372
0
ARC
8
DEFAULT_255_2_778
10
48.6057885
20
81.3406052
40
0.7098001
50
83.2897311
51
89.6734088
0
LINE
8
DEFAULT_255_2_778
10
48.5958344
20
80.8039937
11
48.1648344
21
80.8039937
0
LINE
8
DEFAULT_255_2_778
10
48.1648344
20
80.8039937
11
48.1648344
21
82.2022937
0
LINE
8
DEFAULT_255_2_778
10
48.1648344
20
82.2022937
11
48.6045344
21
82.2022937
0
LINE
8
DEFAULT_255_2_778
10
49.2911344
20
81.5500937
11
49.2911344
21
81.4606937
0
LINE
8
DEFAULT_255_2_778
10
48.5958344
20
80.8036937
11
48.5958344
21
80.8039937
0
LINE
8
DEFAULT_255_2_778
10
48.6098344
20
82.0503937
11
48.3701344
21
82.0503937
0
LINE
8
DEFAULT_255_2_778
10
48.3701344
20
82.0503937
11
48.3701344
21
80.9544937
0
LINE
8
DEFAULT_255_2_778
10
48.3701344
20
80.9544937
11
48.5863344
21
80.9544937
0
LINE
8
DEFAULT_255_2_778
10
49.0879344
20
81.4645937
11
49.0879344
21
81.5463937
0
LINE
8
DEFAULT_255_2_778
10
48.6098344
20
82.0503937
11
48.6098344
21
82.0503937
0
ARC
8
DEFAULT_255_2_778
10
3.8368987
20
9.2641792
40
0.5194442
50
69.7561446
51
91.4027862
0
ARC
8
DEFAULT_255_2_778
10
3.9055728
20
9.4667938
40
0.3056357
50
50.1587364
51
68.6920496
0
ARC
8
DEFAULT_255_2_778
10
3.9100974
20
9.4859501
40
0.2881627
50
358.7538712
51
48.4090087
0
ARC
8
DEFAULT_255_2_778
10
3.7120041
20
9.4628764
40
0.4864782
50
359.9871987
51
1.9798623
0
ARC
8
DEFAULT_255_2_778
10
3.9110287
20
9.4566771
40
0.2875181
50
324.3905515
51
1.2138012
0
ARC
8
DEFAULT_255_2_778
10
3.8883637
20
9.4797255
40
0.319413
50
289.5183293
51
323.3964604
0
ARC
8
DEFAULT_255_2_778
10
3.8417644
20
9.5067529
40
0.2438258
50
266.971476
51
309.112994
0
ARC
8
DEFAULT_255_2_778
10
3.8745555
20
9.454946
40
0.1830855
50
311.3792121
51
2.3858502
0
ARC
8
DEFAULT_255_2_778
10
3.8652151
20
9.4750216
40
0.1926701
50
356.2938915
51
46.2362981
0
ARC
8
DEFAULT_255_2_778
10
3.8491647
20
9.4294138
40
0.2375495
50
51.0549636
51
90.1580998
0
ARC
8
DEFAULT_255_2_778
10
3.8251035
20
9.2219933
40
0.4455843
50
86.9889719
51
89.6169693
0
LINE
8
DEFAULT_255_2_778
10
4.0945823
20
8.7169677
11
3.8629823
21
9.1481677
0
LINE
8
DEFAULT_255_2_778
10
3.8629823
20
9.1481677
11
3.6124823
21
9.1481677
0
LINE
8
DEFAULT_255_2_778
10
3.6124823
20
9.1481677
11
3.6124823
21
8.7169677
0
LINE
8
DEFAULT_255_2_778
10
3.6124823
20
8.7169677
11
3.4711823
21
8.7169677
0
LINE
8
DEFAULT_255_2_778
10
3.4711823
20
8.7169677
11
3.4711823
21
9.7834677
0
LINE
8
DEFAULT_255_2_778
10
3.4711823
20
9.7834677
11
3.8241823
21
9.7834677
0
LINE
8
DEFAULT_255_2_778
10
3.9950823
20
9.1786677
11
4.2455823
21
8.7259677
0
LINE
8
DEFAULT_255_2_778
10
4.2455823
20
8.7259677
11
4.2455823
21
8.7171677
0
LINE
8
DEFAULT_255_2_778
10
4.2455823
20
8.7171677
11
4.0947823
21
8.7171677
0
LINE
8
DEFAULT_255_2_778
10
4.0947823
20
8.7171677
11
4.0945823
21
8.7169677
0
LINE
8
DEFAULT_255_2_778
10
3.6127823
20
9.6675677
11
3.6127823
21
9.2632677
0
LINE
8
DEFAULT_255_2_778
10
3.6127823
20
9.2632677
11
3.8288823
21
9.2632677
0
LINE
8
DEFAULT_255_2_778
10
3.8280823
20
9.6675677
11
3.6127823
21
9.6675677
0
LINE
8
DEFAULT_255_2_778
10
3.6127823
20
9.6675677
11
3.6127823
21
9.6675677
0
LINE
8
DEFAULT_255_2_778
10
4.486149
20
9.7834677
11
4.743349
21
9.3746677
0
LINE
8
DEFAULT_255_2_778
10
4.743349
20
9.3746677
11
4.998949
21
9.7834677
0
LINE
8
DEFAULT_255_2_778
10
4.998949
20
9.7834677
11
5.164549
21
9.7834677
0
LINE
8
DEFAULT_255_2_778
10
5.164549
20
9.7834677
11
4.827749
21
9.2545677
0
LINE
8
DEFAULT_255_2_778
10
4.827749
20
9.2545677
11
5.172749
21
8.7169677
0
LINE
8
DEFAULT_255_2_778
10
5.172749
20
8.7169677
11
5.005749
21
8.7169677
0
LINE
8
DEFAULT_255_2_778
10
5.005749
20
8.7169677
11
4.743549
21
9.1328677
0
LINE
8
DEFAULT_255_2_778
10
4.743549
20
9.1328677
11
4.479849
21
8.7169677
0
LINE
8
DEFAULT_255_2_778
10
4.479849
20
8.7169677
11
4.313649
21
8.7169677
0
LINE
8
DEFAULT_255_2_778
10
4.313649
20
8.7169677
11
4.659449
21
9.2545677
0
LINE
8
DEFAULT_255_2_778
10
4.659449
20
9.2545677
11
4.321849
21
9.7834677
0
LINE
8
DEFAULT_255_2_778
10
4.321849
20
9.7834677
11
4.486649
21
9.7834677
0
LINE
8
DEFAULT_255_2_778
10
4.486649
20
9.7834677
11
4.486149
21
9.7834677
0
ARC
8
DEFAULT_255_2_778
10
4.7781959
20
10.0253119
40
1.1984021
50
318.0655437
51
324.7577583
0
ARC
8
DEFAULT_255_2_778
10
5.3849601
20
9.5928478
40
0.4533096
50
325.1468138
51
331.3843848
0
ARC
8
DEFAULT_255_2_778
10
5.5623967
20
9.4971264
40
0.2517041
50
331.1679819
51
359.7763204
0
ARC
8
DEFAULT_255_2_778
10
5.6225595
20
9.503442
40
0.1916785
50
357.817917
51
42.624055
0
ARC
8
DEFAULT_255_2_778
10
5.63687
20
9.5101619
40
0.1766617
50
44.1635531
51
92.5860806
0
ARC
8
DEFAULT_255_2_778
10
5.6162317
20
9.4776271
40
0.2094002
50
86.5318831
51
133.6099311
0
ARC
8
DEFAULT_255_2_778
10
5.6346486
20
9.4823013
40
0.2193447
50
137.9394577
51
183.4390085
0
ARC
8
DEFAULT_255_2_778
10
5.5951731
20
9.4817511
40
0.3152263
50
134.3292709
51
182.2921269
0
ARC
8
DEFAULT_255_2_778
10
5.608839
20
9.4512717
40
0.3467703
50
88.553645
51
132.4250713
0
ARC
8
DEFAULT_255_2_778
10
5.6286501
20
9.2530662
40
0.5449775
50
89.9948581
51
91.1626765
0
ARC
8
DEFAULT_255_2_778
10
5.6422878
20
9.4345545
40
0.3637431
50
59.3470716
51
92.140965
0
ARC
8
DEFAULT_255_2_778
10
5.6818116
20
9.5182662
40
0.2717162
50
47.9222691
51
57.5168713
0
ARC
8
DEFAULT_255_2_778
10
5.6847239
20
9.5234666
40
0.2659078
50
357.6026223
51
47.6371075
0
ARC
8
DEFAULT_255_2_778
10
5.5858767
20
9.525314
40
0.364753
50
330.4977337
51
357.962195
0
ARC
8
DEFAULT_255_2_778
10
5.1193107
20
9.7702496
40
0.891597
50
319.0286053
51
331.5637606
0
ARC
8
DEFAULT_255_2_778
10
4.6646156
20
10.1397111
40
1.4772824
50
317.2718089
51
319.7724473
0
LINE
8
DEFAULT_255_2_778
10
5.999299
20
8.8275437
11
5.999299
21
8.7169437
0
LINE
8
DEFAULT_255_2_778
10
5.999299
20
8.7169437
11
5.300599
21
8.7169437
0
LINE
8
DEFAULT_255_2_778
10
5.300599
20
8.7169437
11
5.300599
21
8.8143437
0
LINE
8
DEFAULT_255_2_778
10
5.300599
20
8.8143437
11
5.669699
21
9.2244437
0
LINE
8
DEFAULT_255_2_778
10
5.415699
20
9.4691437
11
5.280199
21
9.4691437
0
LINE
8
DEFAULT_255_2_778
10
5.749799
20
9.1373437
11
5.464099
21
8.8275437
0
LINE
8
DEFAULT_255_2_778
10
5.464099
20
8.8275437
11
5.999599
21
8.8275437
0
LINE
8
DEFAULT_255_2_778
10
5.999599
20
8.8275437
11
5.999299
21
8.8275437
0
LINE
8
DEFAULT_255_2_778
10
4.2203146
20
13.2836354
11
4.2203146
21
13.1680354
0
LINE
8
DEFAULT_255_2_778
10
4.2203146
20
13.1680354
11
3.8774146
21
13.1680354
0
LINE
8
DEFAULT_255_2_778
10
3.8774146
20
13.1680354
11
3.8774146
21
12.2173354
0
LINE
8
DEFAULT_255_2_778
10
3.8774146
20
12.2173354
11
3.7374146
21
12.2173354
0
LINE
8
DEFAULT_255_2_778
10
3.7374146
20
12.2173354
11
3.7374146
21
13.1680354
0
LINE
8
DEFAULT_255_2_778
10
3.7374146
20
13.1680354
11
3.3953146
21
13.1680354
0
LINE
8
DEFAULT_255_2_778
10
3.3953146
20
13.1680354
11
3.3953146
21
13.2836354
0
LINE
8
DEFAULT_255_2_778
10
3.3953146
20
13.2836354
11
4.2200146
21
13.2836354
0
LINE
8
DEFAULT_255_2_778
10
4.2200146
20
13.2836354
11
4.2203146
21
13.2836354
0
LINE
8
DEFAULT_255_2_778
10
4.469249
20
13.2836677
11
4.726449
21
12.8748677
0
LINE
8
DEFAULT_255_2_778
10
4.726449
20
12.8748677
11
4.982049
21
13.2836677
0
LINE
8
DEFAULT_255_2_778
10
4.982049
20
13.2836677
11
5.147649
21
13.2836677
0
LINE
8
DEFAULT_255_2_778
10
5.147649
20
13.2836677
11
4.810849
21
12.7547677
0
LINE
8
DEFAULT_255_2_778
10
4.810849
20
12.7547677
11
5.155849
21
12.2171677
0
LINE
8
DEFAULT_255_2_778
10
5.155849
20
12.2171677
11
4.988849
21
12.2171677
0
LINE
8
DEFAULT_255_2_778
10
4.988849
20
12.2171677
11
4.726649
21
12.6330677
0
LINE
8
DEFAULT_255_2_778
10
4.726649
20
12.6330677
11
4.462949
21
12.2171677
0
LINE
8
DEFAULT_255_2_778
10
4.462949
20
12.2171677
11
4.296749
21
12.2171677
0
LINE
8
DEFAULT_255_2_778
10
4.296749
20
12.2171677
11
4.642549
21
12.7547677
0
LINE
8
DEFAULT_255_2_778
10
4.642549
20
12.7547677
11
4.304949
21
13.2836677
0
LINE
8
DEFAULT_255_2_778
10
4.304949
20
13.2836677
11
4.469749
21
13.2836677
0
LINE
8
DEFAULT_255_2_778
10
4.469749
20
13.2836677
11
4.469249
21
13.2836677
0
ARC
8
DEFAULT_255_2_778
10
4.7611959
20
13.5254119
40
1.1984021
50
318.0655437
51
324.7577583
0
ARC
8
DEFAULT_255_2_778
10
5.3679601
20
13.0929478
40
0.4533096
50
325.1468138
51
331.3843848
0
ARC
8
DEFAULT_255_2_778
10
5.5453967
20
12.9972264
40
0.2517041
50
331.1679819
51
359.7763204
0
ARC
8
DEFAULT_255_2_778
10
5.6055595
20
13.003542
40
0.1916785
50
357.817917
51
42.624055
0
ARC
8
DEFAULT_255_2_778
10
5.61987
20
13.0102619
40
0.1766617
50
44.1635531
51
92.5860806
0
ARC
8
DEFAULT_255_2_778
10
5.5992317
20
12.9777271
40
0.2094002
50
86.5318831
51
133.6099311
0
ARC
8
DEFAULT_255_2_778
10
5.6176486
20
12.9824013
40
0.2193447
50
137.9394577
51
183.4390085
0
ARC
8
DEFAULT_255_2_778
10
5.5781731
20
12.9818511
40
0.3152263
50
134.3292709
51
182.2921269
0
ARC
8
DEFAULT_255_2_778
10
5.591839
20
12.9513717
40
0.3467703
50
88.553645
51
132.4250713
0
ARC
8
DEFAULT_255_2_778
10
5.6116501
20
12.7531662
40
0.5449775
50
89.9948581
51
91.1626765
0
ARC
8
DEFAULT_255_2_778
10
5.6252878
20
12.9346545
40
0.3637431
50
59.3470716
51
92.140965
0
ARC
8
DEFAULT_255_2_778
10
5.6648116
20
13.0183662
40
0.2717162
50
47.9222691
51
57.5168713
0
ARC
8
DEFAULT_255_2_778
10
5.6677239
20
13.0235666
40
0.2659078
50
357.6026223
51
47.6371075
0
ARC
8
DEFAULT_255_2_778
10
5.5688767
20
13.025414
40
0.364753
50
330.4977337
51
357.962195
0
ARC
8
DEFAULT_255_2_778
10
5.1023107
20
13.2703496
40
0.891597
50
319.0286053
51
331.5637606
0
ARC
8
DEFAULT_255_2_778
10
4.6476156
20
13.6398111
40
1.4772824
50
317.2718089
51
319.7724473
0
LINE
8
DEFAULT_255_2_778
10
5.982299
20
12.3276437
11
5.982299
21
12.2170437
0
LINE
8
DEFAULT_255_2_778
10
5.982299
20
12.2170437
11
5.283599
21
12.2170437
0
LINE
8
DEFAULT_255_2_778
10
5.283599
20
12.2170437
11
5.283599
21
12.3144437
0
LINE
8
DEFAULT_255_2_778
10
5.283599
20
12.3144437
11
5.652699
21
12.7245437
0
LINE
8
DEFAULT_255_2_778
10
5.398699
20
12.9692437
11
5.263199
21
12.9692437
0
LINE
8
DEFAULT_255_2_778
10
5.732799
20
12.6374437
11
5.447099
21
12.3276437
0
LINE
8
DEFAULT_255_2_778
10
5.447099
20
12.3276437
11
5.982599
21
12.3276437
0
LINE
8
DEFAULT_255_2_778
10
5.982599
20
12.3276437
11
5.982299
21
12.3276437
0
ARC
8
DEFAULT_255_2_778
10
4.8942597
20
17.6290745
40
0.4545841
50
65.0431829
51
91.6605822
0
ARC
8
DEFAULT_255_2_778
10
4.9479472
20
17.7631441
40
0.3104808
50
48.0528315
51
63.5862458
0
ARC
8
DEFAULT_255_2_778
10
4.9516185
20
17.7694954
40
0.3033065
50
357.7273178
51
47.7666625
0
ARC
8
DEFAULT_255_2_778
10
4.9422932
20
17.7427411
40
0.3127402
50
321.4375408
51
2.6989918
0
ARC
8
DEFAULT_255_2_778
10
4.9824003
20
17.7217643
40
0.2684407
50
310.738417
51
319.6018336
0
ARC
8
DEFAULT_255_2_778
10
4.9307321
20
17.7983959
40
0.3603869
50
275.0152141
51
309.0113636
0
ARC
8
DEFAULT_255_2_778
10
4.8817414
20
18.0947701
40
0.6603061
50
269.8043362
51
277.002163
0
ARC
8
DEFAULT_255_2_778
10
4.8936588
20
17.8253049
40
0.2763326
50
267.3508016
51
299.8994107
0
ARC
8
DEFAULT_255_2_778
10
4.9367618
20
17.7344193
40
0.1762365
50
302.4811362
51
311.5203952
0
ARC
8
DEFAULT_255_2_778
10
4.9200457
20
17.7432603
40
0.1940508
50
313.4857761
51
3.7251049
0
ARC
8
DEFAULT_255_2_778
10
4.913543
20
17.7649902
40
0.2003512
50
357.3902866
51
45.6539971
0
ARC
8
DEFAULT_255_2_778
10
4.8968797
20
17.7314124
40
0.2362939
50
48.4566876
51
91.9627964
0
LINE
8
DEFAULT_255_2_778
10
4.8792865
20
17.4344677
11
4.6281865
21
17.4344677
0
LINE
8
DEFAULT_255_2_778
10
4.6281865
20
17.4344677
11
4.6281865
21
17.0169677
0
LINE
8
DEFAULT_255_2_778
10
4.6281865
20
17.0169677
11
4.4876865
21
17.0169677
0
LINE
8
DEFAULT_255_2_778
10
4.4876865
20
17.0169677
11
4.4876865
21
18.0834677
0
LINE
8
DEFAULT_255_2_778
10
4.4876865
20
18.0834677
11
4.8810865
21
18.0834677
0
LINE
8
DEFAULT_255_2_778
10
4.8794865
20
17.4344677
11
4.8792865
21
17.4344677
0
LINE
8
DEFAULT_255_2_778
10
4.6281865
20
17.9675677
11
4.6281865
21
17.5492677
0
LINE
8
DEFAULT_255_2_778
10
4.6281865
20
17.5492677
11
4.8808865
21
17.5492677
0
LINE
8
DEFAULT_255_2_778
10
4.8887865
20
17.9675677
11
4.6281865
21
17.9675677
0
LINE
8
DEFAULT_255_2_778
10
4.6281865
20
17.9675677
11
4.6281865
21
17.9675677
0
ARC
8
DEFAULT_255_2_778
10
5.5811129
20
17.5025044
40
0.6731253
50
338.5911146
51
1.1164347
0
ARC
8
DEFAULT_255_2_778
10
5.728992
20
17.4547675
40
0.5181128
50
335.7561769
51
337.5365194
0
ARC
8
DEFAULT_255_2_778
10
5.8355818
20
17.3969318
40
0.3972762
50
302.9925299
51
337.0495213
0
ARC
8
DEFAULT_255_2_778
10
5.8355018
20
17.4123545
40
0.4103399
50
268.7025313
51
301.8291853
0
ARC
8
DEFAULT_255_2_778
10
5.8188764
20
17.4093826
40
0.4073288
50
237.9809887
51
271.0316733
0
ARC
8
DEFAULT_255_2_778
10
5.8261046
20
17.4084461
40
0.4104207
50
204.1518664
51
237.0560694
0
ARC
8
DEFAULT_255_2_778
10
6.0309523
20
17.4996932
40
0.6346715
50
179.446903
51
204.1017485
0
ARC
8
DEFAULT_255_2_778
10
6.0490062
20
17.5956364
40
0.6528216
50
156.6366533
51
181.1249382
0
ARC
8
DEFAULT_255_2_778
10
5.8230053
20
17.6951528
40
0.4058902
50
123.1400121
51
156.8814067
0
ARC
8
DEFAULT_255_2_778
10
5.8179328
20
17.6918622
40
0.4059176
50
89.0150508
51
122.2865343
0
ARC
8
DEFAULT_255_2_778
10
5.8330671
20
17.6839817
40
0.4138185
50
58.2359568
51
91.1294223
0
ARC
8
DEFAULT_255_2_778
10
5.834955
20
17.7018254
40
0.3977298
50
22.8731368
51
57.11394
0
ARC
8
DEFAULT_255_2_778
10
5.59736
20
17.5987096
40
0.6567278
50
359.4615837
51
23.1048821
0
ARC
8
DEFAULT_255_2_778
10
5.3423995
20
17.5828573
40
0.9117109
50
359.9976437
51
0.6084104
0
ARC
8
DEFAULT_255_2_778
10
5.4882777
20
17.597187
40
0.6259569
50
358.8587625
51
16.6629729
0
ARC
8
DEFAULT_255_2_778
10
5.7682112
20
17.6773019
40
0.3348244
50
17.2649563
51
36.3419365
0
ARC
8
DEFAULT_255_2_778
10
5.8359791
20
17.7259796
40
0.2513928
50
36.5584185
51
92.5691487
0
ARC
8
DEFAULT_255_2_778
10
5.8152628
20
17.7287279
40
0.2485714
50
87.8217999
51
143.7473859
0
ARC
8
DEFAULT_255_2_778
10
5.9462215
20
17.6409848
40
0.4061204
50
144.6904544
51
174.2190947
0
ARC
8
DEFAULT_255_2_778
10
6.2684021
20
17.5868454
40
0.7324287
50
172.5438206
51
179.4231153
0
ARC
8
DEFAULT_255_2_778
10
6.1228853
20
17.5032746
40
0.587011
50
178.7656616
51
198.731354
0
ARC
8
DEFAULT_255_2_778
10
5.8953667
20
17.4321045
40
0.3487342
50
199.6617702
51
216.0211178
0
ARC
8
DEFAULT_255_2_778
10
5.8168488
20
17.3711582
40
0.2494068
50
215.3047427
51
272.1051677
0
ARC
8
DEFAULT_255_2_778
10
5.8380065
20
17.3702037
40
0.2485735
50
267.233863
51
323.1474491
0
ARC
8
DEFAULT_255_2_778
10
5.7165257
20
17.4466123
40
0.3917822
50
324.8614357
51
352.9104659
0
ARC
8
DEFAULT_255_2_778
10
5.3607654
20
17.5112088
40
0.7530657
50
351.3738014
51
359.5747607
0
LINE
8
DEFAULT_255_2_778
10
6.2541104
20
17.5831198
11
6.2541104
21
17.5156198
0
LINE
8
DEFAULT_255_2_778
10
5.3963104
20
17.5058198
11
5.3963104
21
17.5828198
0
LINE
8
DEFAULT_255_2_778
10
6.2541104
20
17.5828198
11
6.2541104
21
17.5831198
0
LINE
8
DEFAULT_255_2_778
10
6.1141104
20
17.5056198
11
6.1141104
21
17.5847198
0
LINE
8
DEFAULT_255_2_778
10
5.5360104
20
17.5942198
11
5.5360104
21
17.5159198
0
LINE
8
DEFAULT_255_2_778
10
6.1138104
20
17.5056198
11
6.1141104
21
17.5056198
0
ARC
8
DEFAULT_255_2_778
10
6.8298987
20
17.5641792
40
0.5194442
50
69.7561446
51
91.4027862
0
ARC
8
DEFAULT_255_2_778
10
6.8985728
20
17.7667938
40
0.3056357
50
50.1587364
51
68.6920496
0
ARC
8
DEFAULT_255_2_778
10
6.9030974
20
17.7859501
40
0.2881627
50
358.7538712
51
48.4090087
0
ARC
8
DEFAULT_255_2_778
10
6.7050041
20
17.7628764
40
0.4864782
50
359.9871987
51
1.9798623
0
ARC
8
DEFAULT_255_2_778
10
6.9040287
20
17.7566771
40
0.2875181
50
324.3905515
51
1.2138012
0
ARC
8
DEFAULT_255_2_778
10
6.8813637
20
17.7797255
40
0.319413
50
289.5183293
51
323.3964604
0
ARC
8
DEFAULT_255_2_778
10
6.8347644
20
17.8067529
40
0.2438258
50
266.971476
51
309.112994
0
ARC
8
DEFAULT_255_2_778
10
6.8675555
20
17.754946
40
0.1830855
50
311.3792121
51
2.3858502
0
ARC
8
DEFAULT_255_2_778
10
6.8582151
20
17.7750216
40
0.1926701
50
356.2938915
51
46.2362981
0
ARC
8
DEFAULT_255_2_778
10
6.8421647
20
17.7294138
40
0.2375495
50
51.0549636
51
90.1580998
0
ARC
8
DEFAULT_255_2_778
10
6.8181035
20
17.5219933
40
0.4455843
50
86.9889719
51
89.6169693
0
LINE
8
DEFAULT_255_2_778
10
7.0875823
20
17.0169677
11
6.8559823
21
17.4481677
0
LINE
8
DEFAULT_255_2_778
10
6.8559823
20
17.4481677
11
6.6054823
21
17.4481677
0
LINE
8
DEFAULT_255_2_778
10
6.6054823
20
17.4481677
11
6.6054823
21
17.0169677
0
LINE
8
DEFAULT_255_2_778
10
6.6054823
20
17.0169677
11
6.4641823
21
17.0169677
0
LINE
8
DEFAULT_255_2_778
10
6.4641823
20
17.0169677
11
6.4641823
21
18.0834677
0
LINE
8
DEFAULT_255_2_778
10
6.4641823
20
18.0834677
11
6.8171823
21
18.0834677
0
LINE
8
DEFAULT_255_2_778
10
6.9880823
20
17.4786677
11
7.2385823
21
17.0259677
0
LINE
8
DEFAULT_255_2_778
10
7.2385823
20
17.0259677
11
7.2385823
21
17.0171677
0
LINE
8
DEFAULT_255_2_778
10
7.2385823
20
17.0171677
11
7.0877823
21
17.0171677
0
LINE
8
DEFAULT_255_2_778
10
7.0877823
20
17.0171677
11
7.0875823
21
17.0169677
0
LINE
8
DEFAULT_255_2_778
10
6.6057823
20
17.9675677
11
6.6057823
21
17.5632677
0
LINE
8
DEFAULT_255_2_778
10
6.6057823
20
17.5632677
11
6.8218823
21
17.5632677
0
LINE
8
DEFAULT_255_2_778
10
6.8210823
20
17.9675677
11
6.6057823
21
17.9675677
0
LINE
8
DEFAULT_255_2_778
10
6.6057823
20
17.9675677
11
6.6057823
21
17.9675677
0
LINE
8
DEFAULT_255_2_778
10
8.0668146
20
18.0834354
11
8.0668146
21
17.9678354
0
LINE
8
DEFAULT_255_2_778
10
8.0668146
20
17.9678354
11
7.7239146
21
17.9678354
0
LINE
8
DEFAULT_255_2_778
10
7.7239146
20
17.9678354
11
7.7239146
21
17.0171354
0
LINE
8
DEFAULT_255_2_778
10
7.7239146
20
17.0171354
11
7.5839146
21
17.0171354
0
LINE
8
DEFAULT_255_2_778
10
7.5839146
20
17.0171354
11
7.5839146
21
17.9678354
0
LINE
8
DEFAULT_255_2_778
10
7.5839146
20
17.9678354
11
7.2418146
21
17.9678354
0
LINE
8
DEFAULT_255_2_778
10
7.2418146
20
17.9678354
11
7.2418146
21
18.0834354
0
LINE
8
DEFAULT_255_2_778
10
7.2418146
20
18.0834354
11
8.0665146
21
18.0834354
0
LINE
8
DEFAULT_255_2_778
10
8.0665146
20
18.0834354
11
8.0668146
21
18.0834354
0
ARC
8
DEFAULT_255_2_778
10
7.6673959
20
18.3252119
40
1.1984021
50
318.0655437
51
324.7577583
0
ARC
8
DEFAULT_255_2_778
10
8.2741601
20
17.8927478
40
0.4533096
50
325.1468138
51
331.3843848
0
ARC
8
DEFAULT_255_2_778
10
8.4515967
20
17.7970264
40
0.2517041
50
331.1679819
51
359.7763204
0
ARC
8
DEFAULT_255_2_778
10
8.5117595
20
17.803342
40
0.1916785
50
357.817917
51
42.624055
0
ARC
8
DEFAULT_255_2_778
10
8.52607
20
17.8100619
40
0.1766617
50
44.1635531
51
92.5860806
0
ARC
8
DEFAULT_255_2_778
10
8.5054317
20
17.7775271
40
0.2094002
50
86.5318831
51
133.6099311
0
ARC
8
DEFAULT_255_2_778
10
8.5238486
20
17.7822013
40
0.2193447
50
137.9394577
51
183.4390085
0
ARC
8
DEFAULT_255_2_778
10
8.4843731
20
17.7816511
40
0.3152263
50
134.3292709
51
182.2921269
0
ARC
8
DEFAULT_255_2_778
10
8.498039
20
17.7511717
40
0.3467703
50
88.553645
51
132.4250713
0
ARC
8
DEFAULT_255_2_778
10
8.5178501
20
17.5529662
40
0.5449775
50
89.9948581
51
91.1626765
0
ARC
8
DEFAULT_255_2_778
10
8.5314878
20
17.7344545
40
0.3637431
50
59.3470716
51
92.140965
0
ARC
8
DEFAULT_255_2_778
10
8.5710116
20
17.8181662
40
0.2717162
50
47.9222691
51
57.5168713
0
ARC
8
DEFAULT_255_2_778
10
8.5739239
20
17.8233666
40
0.2659078
50
357.6026223
51
47.6371075
0
ARC
8
DEFAULT_255_2_778
10
8.4750767
20
17.825214
40
0.364753
50
330.4977337
51
357.962195
0
ARC
8
DEFAULT_255_2_778
10
8.0085107
20
18.0701496
40
0.891597
50
319.0286053
51
331.5637606
0
ARC
8
DEFAULT_255_2_778
10
7.5538156
20
18.4396111
40
1.4772824
50
317.2718089
51
319.7724473
0
LINE
8
DEFAULT_255_2_778
10
8.888499
20
17.1274437
11
8.888499
21
17.0168437
0
LINE
8
DEFAULT_255_2_778
10
8.888499
20
17.0168437
11
8.189799
21
17.0168437
0
LINE
8
DEFAULT_255_2_778
10
8.189799
20
17.0168437
11
8.189799
21
17.1142437
0
LINE
8
DEFAULT_255_2_778
10
8.189799
20
17.1142437
11
8.558899
21
17.5243437
0
LINE
8
DEFAULT_255_2_778
10
8.304899
20
17.7690437
11
8.169399
21
17.7690437
0
LINE
8
DEFAULT_255_2_778
10
8.638999
20
17.4372437
11
8.353299
21
17.1274437
0
LINE
8
DEFAULT_255_2_778
10
8.353299
20
17.1274437
11
8.888799
21
17.1274437
0
LINE
8
DEFAULT_255_2_778
10
8.888799
20
17.1274437
11
8.888499
21
17.1274437
0
LINE
8
DEFAULT_255_2_778
10
23.9729792
20
8.0334677
11
23.9729792
21
7.0820677
0
LINE
8
DEFAULT_255_2_778
10
23.9729792
20
7.0820677
11
24.4782792
21
7.0820677
0
LINE
8
DEFAULT_255_2_778
10
24.4782792
20
7.0820677
11
24.4782792
21
6.9669677
0
LINE
8
DEFAULT_255_2_778
10
24.4782792
20
6.9669677
11
23.8316792
21
6.9669677
0
LINE
8
DEFAULT_255_2_778
10
23.8316792
20
6.9669677
11
23.8316792
21
8.0334677
0
LINE
8
DEFAULT_255_2_778
10
23.8316792
20
8.0334677
11
23.9729792
21
8.0334677
0
LINE
8
DEFAULT_255_2_778
10
23.9729792
20
8.0334677
11
23.9729792
21
8.0334677
0
ARC
8
DEFAULT_255_2_778
10
25.1124499
20
7.2971834
40
0.3273019
50
290.5553962
51
324.4573194
0
ARC
8
DEFAULT_255_2_778
10
25.0137215
20
7.5655056
40
0.6132082
50
268.8551712
51
290.3901347
0
ARC
8
DEFAULT_255_2_778
10
24.993334
20
7.3907059
40
0.4383617
50
239.3665989
51
271.0634499
0
ARC
8
DEFAULT_255_2_778
10
24.98167
20
7.3612966
40
0.4071434
50
205.2970307
51
238.6701085
0
ARC
8
DEFAULT_255_2_778
10
25.1581368
20
7.4427507
40
0.6014966
50
179.4314045
51
205.1290807
0
ARC
8
DEFAULT_255_2_778
10
25.2814788
20
7.5547092
40
0.7249218
50
162.7052762
51
181.0108956
0
ARC
8
DEFAULT_255_2_778
10
25.0009277
20
7.6386828
40
0.4321028
50
140.1752043
51
162.2773537
0
ARC
8
DEFAULT_255_2_778
10
24.9598385
20
7.6622219
40
0.3855588
50
89.055848
51
138.9510446
0
ARC
8
DEFAULT_255_2_778
10
24.9849659
20
7.4431043
40
0.6049155
50
89.9901608
51
91.7785302
0
ARC
8
DEFAULT_255_2_778
10
24.9987013
20
7.6097911
40
0.4384406
50
61.8240848
51
91.7816617
0
ARC
8
DEFAULT_255_2_778
10
25.0420828
20
7.7094299
40
0.3302424
50
50.1106256
51
60.2959982
0
ARC
8
DEFAULT_255_2_778
10
25.0102903
20
7.6846801
40
0.3697197
50
6.3552576
51
48.7899049
0
ARC
8
DEFAULT_255_2_778
10
24.8293483
20
7.6409661
40
0.5548829
50
8.2637847
51
8.7738906
0
ARC
8
DEFAULT_255_2_778
10
24.9771925
20
7.6860292
40
0.2630746
50
7.577441
51
46.8081525
0
ARC
8
DEFAULT_255_2_778
10
24.9997479
20
7.6796274
40
0.2531621
50
51.5268476
51
93.0971453
0
ARC
8
DEFAULT_255_2_778
10
24.9711681
20
7.6835374
40
0.2493281
50
86.57354
51
143.1055299
0
ARC
8
DEFAULT_255_2_778
10
25.0930758
20
7.6133303
40
0.3893443
50
145.6137597
51
173.1734407
0
ARC
8
DEFAULT_255_2_778
10
25.4726215
20
7.5470562
40
0.7743531
50
171.6423832
51
180.1062856
0
ARC
8
DEFAULT_255_2_778
10
25.228633
20
7.4457562
40
0.5305167
50
178.6213973
51
201.5749962
0
ARC
8
DEFAULT_255_2_778
10
25.0544385
20
7.384512
40
0.346079
50
202.7507559
51
217.6070678
0
ARC
8
DEFAULT_255_2_778
10
24.9927666
20
7.3333905
40
0.2660405
50
216.9901668
51
272.0470828
0
ARC
8
DEFAULT_255_2_778
10
25.0105634
20
7.559923
40
0.4924731
50
269.0350497
51
285.3067542
0
ARC
8
DEFAULT_255_2_778
10
25.0832387
20
7.2908183
40
0.2137313
50
285.5595221
51
316.6934857
0
LINE
8
DEFAULT_255_2_778
10
25.3787698
20
7.4979198
11
25.3787698
21
7.1069198
0
LINE
8
DEFAULT_255_2_778
10
24.5566698
20
7.4487198
11
24.5566698
21
7.5419198
0
LINE
8
DEFAULT_255_2_778
10
25.3784698
20
7.7207198
11
25.2379698
21
7.7207198
0
LINE
8
DEFAULT_255_2_778
10
24.6982698
20
7.5456198
11
24.6982698
21
7.4585198
0
LINE
8
DEFAULT_255_2_778
10
25.2387698
20
7.1442198
11
25.2387698
21
7.3836198
0
LINE
8
DEFAULT_255_2_778
10
25.2387698
20
7.3836198
11
24.9918698
21
7.3836198
0
LINE
8
DEFAULT_255_2_778
10
24.9918698
20
7.3836198
11
24.9918698
21
7.4979198
0
LINE
8
DEFAULT_255_2_778
10
24.9918698
20
7.4979198
11
25.3787698
21
7.4979198
0
LINE
8
DEFAULT_255_2_778
10
25.3787698
20
7.4979198
11
25.3787698
21
7.4979198
0
ARC
8
DEFAULT_255_2_778
10
15.3282987
20
19.5527792
40
0.5194442
50
69.7561446
51
91.4027862
0
ARC
8
DEFAULT_255_2_778
10
15.3969728
20
19.7553938
40
0.3056357
50
50.1587364
51
68.6920496
0
ARC
8
DEFAULT_255_2_778
10
15.4014974
20
19.7745501
40
0.2881627
50
358.7538712
51
48.4090087
0
ARC
8
DEFAULT_255_2_778
10
15.2034041
20
19.7514764
40
0.4864782
50
359.9871987
51
1.9798623
0
ARC
8
DEFAULT_255_2_778
10
15.4024287
20
19.7452771
40
0.2875181
50
324.3905515
51
1.2138012
0
ARC
8
DEFAULT_255_2_778
10
15.3797637
20
19.7683255
40
0.319413
50
289.5183293
51
323.3964604
0
ARC
8
DEFAULT_255_2_778
10
15.3331644
20
19.7953529
40
0.2438258
50
266.971476
51
309.112994
0
ARC
8
DEFAULT_255_2_778
10
15.3659555
20
19.743546
40
0.1830855
50
311.3792121
51
2.3858502
0
ARC
8
DEFAULT_255_2_778
10
15.3566151
20
19.7636216
40
0.1926701
50
356.2938915
51
46.2362981
0
ARC
8
DEFAULT_255_2_778
10
15.3405647
20
19.7180138
40
0.2375495
50
51.0549636
51
90.1580998
0
ARC
8
DEFAULT_255_2_778
10
15.3165035
20
19.5105933
40
0.4455843
50
86.9889719
51
89.6169693
0
LINE
8
DEFAULT_255_2_778
10
15.5859823
20
19.0055677
11
15.3543823
21
19.4367677
0
LINE
8
DEFAULT_255_2_778
10
15.3543823
20
19.4367677
11
15.1038823
21
19.4367677
0
LINE
8
DEFAULT_255_2_778
10
15.1038823
20
19.4367677
11
15.1038823
21
19.0055677
0
LINE
8
DEFAULT_255_2_778
10
15.1038823
20
19.0055677
11
14.9625823
21
19.0055677
0
LINE
8
DEFAULT_255_2_778
10
14.9625823
20
19.0055677
11
14.9625823
21
20.0720677
0
LINE
8
DEFAULT_255_2_778
10
14.9625823
20
20.0720677
11
15.3155823
21
20.0720677
0
LINE
8
DEFAULT_255_2_778
10
15.4864823
20
19.4672677
11
15.7369823
21
19.0145677
0
LINE
8
DEFAULT_255_2_778
10
15.7369823
20
19.0145677
11
15.7369823
21
19.0057677
0
LINE
8
DEFAULT_255_2_778
10
15.7369823
20
19.0057677
11
15.5861823
21
19.0057677
0
LINE
8
DEFAULT_255_2_778
10
15.5861823
20
19.0057677
11
15.5859823
21
19.0055677
0
LINE
8
DEFAULT_255_2_778
10
15.1041823
20
19.9561677
11
15.1041823
21
19.5518677
0
LINE
8
DEFAULT_255_2_778
10
15.1041823
20
19.5518677
11
15.3202823
21
19.5518677
0
LINE
8
DEFAULT_255_2_778
10
15.3194823
20
19.9561677
11
15.1041823
21
19.9561677
0
LINE
8
DEFAULT_255_2_778
10
15.1041823
20
19.9561677
11
15.1041823
21
19.9561677
0
ARC
8
DEFAULT_255_2_778
10
16.4485032
20
20.3842648
40
0.9365015
50
243.371128
51
254.6850486
0
ARC
8
DEFAULT_255_2_778
10
16.2177663
20
19.9232887
40
0.4210034
50
228.3269548
51
243.3232777
0
ARC
8
DEFAULT_255_2_778
10
16.0998828
20
19.7917419
40
0.2443668
50
179.0438394
51
228.4654171
0
ARC
8
DEFAULT_255_2_778
10
16.1136968
20
19.7996339
40
0.2581749
50
127.5503186
51
180.8464909
0
ARC
8
DEFAULT_255_2_778
10
16.1955858
20
19.6958255
40
0.3903877
50
89.9421683
51
127.7934014
0
ARC
8
DEFAULT_255_2_778
10
16.2182102
20
19.4793296
40
0.6072904
50
89.9868101
51
92.0978256
0
ARC
8
DEFAULT_255_2_778
10
16.2261838
20
19.6513533
40
0.435337
50
64.4199414
51
91.031074
0
ARC
8
DEFAULT_255_2_778
10
16.2752342
20
19.7516149
40
0.3237255
50
32.7663336
51
64.5885168
0
ARC
8
DEFAULT_255_2_778
10
16.2963319
20
19.7654002
40
0.298524
50
359.6390939
51
32.7330556
0
ARC
8
DEFAULT_255_2_778
10
16.2602141
20
19.7734699
40
0.1935918
50
357.0538476
51
47.1589785
0
ARC
8
DEFAULT_255_2_778
10
16.2378251
20
19.7279142
40
0.2426561
50
50.5988804
51
91.3422407
0
ARC
8
DEFAULT_255_2_778
10
16.2184459
20
19.5364767
40
0.4342431
50
88.1927152
51
90.0126568
0
ARC
8
DEFAULT_255_2_778
10
16.2055402
20
19.699811
40
0.2712115
50
87.2928151
51
120.1082573
0
ARC
8
DEFAULT_255_2_778
10
16.1638131
20
19.7880127
40
0.174169
50
122.7896073
51
128.1813503
0
ARC
8
DEFAULT_255_2_778
10
16.1501981
20
19.804985
40
0.1524119
50
128.1021233
51
182.6569611
0
ARC
8
DEFAULT_255_2_778
10
16.1357821
20
19.7980107
40
0.1378322
50
180.037788
51
233.2169155
0
ARC
8
DEFAULT_255_2_778
10
16.2768683
20
19.9856898
40
0.372627
50
233.1220184
51
250.5270118
0
ARC
8
DEFAULT_255_2_778
10
16.5026348
20
20.5528292
40
0.9828753
50
249.1400953
51
254.5832983
0
ARC
8
DEFAULT_255_2_778
10
15.966494
20
18.5820907
40
1.0595016
50
65.7026676
51
74.9643449
0
ARC
8
DEFAULT_255_2_778
10
16.1807288
20
19.0703067
40
0.5264089
50
59.3168604
51
65.0900044
0
ARC
8
DEFAULT_255_2_778
10
16.2956716
20
19.2483792
40
0.3147134
50
32.6177639
51
60.770278
0
ARC
8
DEFAULT_255_2_778
10
16.3284368
20
19.2832158
40
0.2685918
50
358.6141425
51
30.1252316
0
ARC
8
DEFAULT_255_2_778
10
16.3476884
20
19.2695946
40
0.2493634
50
306.4527229
51
1.6373679
0
ARC
8
DEFAULT_255_2_778
10
16.2618904
20
19.3900957
40
0.3972743
50
272.882198
51
306.0798429
0
ARC
8
DEFAULT_255_2_778
10
16.2266979
20
19.6524148
40
0.6613957
50
269.917887
51
274.7847299
0
ARC
8
DEFAULT_255_2_778
10
16.2218713
20
19.4938648
40
0.5028599
50
246.4122051
51
270.4419396
0
ARC
8
DEFAULT_255_2_778
10
16.1522508
20
19.3515007
40
0.3445996
50
216.1090765
51
247.5488961
0
ARC
8
DEFAULT_255_2_778
10
16.1037922
20
19.3109177
40
0.2815653
50
179.2669917
51
215.2484735
0
ARC
8
DEFAULT_255_2_778
10
16.1470982
20
19.3073964
40
0.1836863
50
177.7775166
51
232.371322
0
ARC
8
DEFAULT_255_2_778
10
16.2076699
20
19.3999627
40
0.2941031
50
234.0359984
51
271.3639759
0
ARC
8
DEFAULT_255_2_778
10
16.2256983
20
19.5994141
40
0.4935943
50
268.7198186
51
270.0060011
0
ARC
8
DEFAULT_255_2_778
10
16.2381374
20
19.4194738
40
0.3138986
50
267.7383416
51
294.7592425
0
ARC
8
DEFAULT_255_2_778
10
16.2892308
20
19.2913475
40
0.1763017
50
297.1204447
51
307.4154774
0
ARC
8
DEFAULT_255_2_778
10
16.3080519
20
19.2697167
40
0.147697
50
306.7148506
51
2.0964582
0
ARC
8
DEFAULT_255_2_778
10
16.3110386
20
19.2825751
40
0.1448035
50
357.0487604
51
51.7678946
0
ARC
8
DEFAULT_255_2_778
10
16.1782564
20
19.0865751
40
0.3813144
50
54.3220274
51
69.7123757
0
ARC
8
DEFAULT_255_2_778
10
15.8829214
20
18.3561927
40
1.1690307
50
68.547501
51
74.1936518
0
LINE
8
DEFAULT_255_2_778
10
16.59485
20
19.7635198
11
16.45355
21
19.7635198
0
LINE
8
DEFAULT_255_2_778
10
15.82225
20
19.3145198
11
15.96355
21
19.3145198
0
LINE
8
DEFAULT_255_2_778
10
16.20135
20
19.4810198
11
16.20115
21
19.4810198
0
LINE
8
DEFAULT_255_2_778
10
17.037474
20
19.5137979
11
17.037474
21
19.4031979
0
LINE
8
DEFAULT_255_2_778
10
17.037474
20
19.4031979
11
16.679974
21
19.4031979
0
LINE
8
DEFAULT_255_2_778
10
16.679974
20
19.4031979
11
16.679974
21
19.5137979
0
LINE
8
DEFAULT_255_2_778
10
16.679974
20
19.5137979
11
17.037474
21
19.5137979
0
LINE
8
DEFAULT_255_2_778
10
17.037474
20
19.5137979
11
17.037474
21
19.5137979
0
LINE
8
DEFAULT_255_2_778
10
17.7274636
20
20.0720677
11
17.7274636
21
19.3637677
0
LINE
8
DEFAULT_255_2_778
10
17.7274636
20
19.3637677
11
17.8753636
21
19.3637677
0
LINE
8
DEFAULT_255_2_778
10
17.8753636
20
19.3637677
11
17.8753636
21
19.2531677
0
LINE
8
DEFAULT_255_2_778
10
17.8753636
20
19.2531677
11
17.7274636
21
19.2531677
0
LINE
8
DEFAULT_255_2_778
10
17.7274636
20
19.2531677
11
17.7274636
21
19.0055677
0
LINE
8
DEFAULT_255_2_778
10
17.7274636
20
19.0055677
11
17.5911636
21
19.0055677
0
LINE
8
DEFAULT_255_2_778
10
17.5911636
20
19.0055677
11
17.5911636
21
19.2531677
0
LINE
8
DEFAULT_255_2_778
10
17.5911636
20
19.2531677
11
17.1056636
21
19.2531677
0
LINE
8
DEFAULT_255_2_778
10
17.1056636
20
19.2531677
11
17.1056636
21
19.3330677
0
LINE
8
DEFAULT_255_2_778
10
17.1056636
20
19.3330677
11
17.5832636
21
20.0720677
0
LINE
8
DEFAULT_255_2_778
10
17.5832636
20
20.0720677
11
17.7274636
21
20.0720677
0
LINE
8
DEFAULT_255_2_778
10
17.7274636
20
20.0720677
11
17.7274636
21
20.0720677
0
LINE
8
DEFAULT_255_2_778
10
17.5750636
20
19.8574677
11
17.2593636
21
19.3637677
0
LINE
8
DEFAULT_255_2_778
10
17.2593636
20
19.3637677
11
17.5911636
21
19.3637677
0
LINE
8
DEFAULT_255_2_778
10
17.5911636
20
19.3637677
11
17.5911636
21
19.8868677
0
LINE
8
DEFAULT_255_2_778
10
17.5911636
20
19.8868677
11
17.5750636
21
19.8574677
0
LINE
8
DEFAULT_255_2_778
10
17.5750636
20
19.8574677
11
17.5750636
21
19.8574677
0
ARC
8
DEFAULT_255_2_778
10
18.3970904
20
19.7897643
40
0.2475454
50
326.0784559
51
0.915567
0
ARC
8
DEFAULT_255_2_778
10
18.3660228
20
19.8130043
40
0.2863012
50
295.3726877
51
325.688779
0
ARC
8
DEFAULT_255_2_778
10
18.3719554
20
19.2710275
40
0.3064062
50
35.6290169
51
67.6027421
0
ARC
8
DEFAULT_255_2_778
10
18.4061432
20
19.2968409
40
0.2635831
50
359.2563273
51
35.3973755
0
ARC
8
DEFAULT_255_2_778
10
18.3914476
20
19.2813476
40
0.2785183
50
311.5837587
51
2.4842127
0
ARC
8
DEFAULT_255_2_778
10
18.3498939
20
19.3447803
40
0.3537166
50
268.7731416
51
309.7985041
0
ARC
8
DEFAULT_255_2_778
10
18.3305577
20
19.5445118
40
0.5534919
50
269.9944564
51
271.2177272
0
ARC
8
DEFAULT_255_2_778
10
18.3165217
20
19.3675971
40
0.3768368
50
237.5671134
51
272.1264371
0
ARC
8
DEFAULT_255_2_778
10
18.2822406
20
19.2973022
40
0.2992497
50
228.4877938
51
235.888482
0
ARC
8
DEFAULT_255_2_778
10
18.2710309
20
19.281482
40
0.2799814
50
177.5562912
51
228.0598249
0
ARC
8
DEFAULT_255_2_778
10
18.2622917
20
19.2963805
40
0.2710037
50
145.5920382
51
180.6259779
0
ARC
8
DEFAULT_255_2_778
10
18.2818576
20
19.2822543
40
0.2951293
50
112.3975646
51
145.4758873
0
ARC
8
DEFAULT_255_2_778
10
18.2894192
20
19.8068541
40
0.2788795
50
213.6258461
51
244.5104024
0
ARC
8
DEFAULT_255_2_778
10
18.2671324
20
19.7899315
40
0.2509568
50
179.1350597
51
213.2264631
0
ARC
8
DEFAULT_255_2_778
10
18.2913426
20
19.8068015
40
0.2754492
50
133.2229575
51
182.7221335
0
ARC
8
DEFAULT_255_2_778
10
18.3153917
20
19.7625718
40
0.3244002
50
87.3298512
51
130.9676707
0
ARC
8
DEFAULT_255_2_778
10
18.3450846
20
19.7618476
40
0.3250993
50
49.0851294
51
92.5705306
0
ARC
8
DEFAULT_255_2_778
10
18.370139
20
19.8067291
40
0.2749731
50
357.2882461
51
46.9047704
0
ARC
8
DEFAULT_255_2_778
10
18.3377836
20
19.3037455
40
0.1963611
50
357.8327441
51
44.8047441
0
ARC
8
DEFAULT_255_2_778
10
18.3370013
20
19.2965726
40
0.2020218
50
46.0918921
51
92.3822094
0
ARC
8
DEFAULT_255_2_778
10
18.3195015
20
19.3006005
40
0.1980286
50
87.3653846
51
134.0543564
0
ARC
8
DEFAULT_255_2_778
10
18.3250984
20
19.3051367
40
0.1987899
50
136.123278
51
182.5420741
0
ARC
8
DEFAULT_255_2_778
10
18.3160724
20
19.2860172
40
0.189848
50
176.8891824
51
224.3019791
0
ARC
8
DEFAULT_255_2_778
10
18.3176078
20
19.3070828
40
0.2061361
50
228.1972934
51
273.4476575
0
ARC
8
DEFAULT_255_2_778
10
18.3417516
20
19.3072694
40
0.2062844
50
266.7353604
51
311.8959378
0
ARC
8
DEFAULT_255_2_778
10
18.3452438
20
19.2863296
40
0.1887094
50
315.3543681
51
2.9434134
0
ARC
8
DEFAULT_255_2_778
10
18.3229228
20
19.8003692
40
0.1750021
50
87.6154006
51
134.2517809
0
ARC
8
DEFAULT_255_2_778
10
18.3327558
20
19.800941
40
0.1816067
50
136.6003778
51
183.0368528
0
ARC
8
DEFAULT_255_2_778
10
18.3323155
20
19.783551
40
0.181078
50
177.5411025
51
223.102333
0
ARC
8
DEFAULT_255_2_778
10
18.3219322
20
19.7819
40
0.1724693
50
225.0592631
51
272.6825765
0
ARC
8
DEFAULT_255_2_778
10
18.3379961
20
19.7821073
40
0.1726725
50
267.3471858
51
314.9109746
0
ARC
8
DEFAULT_255_2_778
10
18.3276929
20
19.783551
40
0.181078
50
316.897667
51
2.4588975
0
ARC
8
DEFAULT_255_2_778
10
18.3279564
20
19.7983392
40
0.1807841
50
357.7747669
51
43.9988212
0
ARC
8
DEFAULT_255_2_778
10
18.3353735
20
19.8032787
40
0.1720248
50
44.5313994
51
91.788626
0
LINE
8
DEFAULT_255_2_778
10
18.6448042
20
19.7937198
11
18.6446042
21
19.7937198
0
LINE
8
DEFAULT_255_2_778
10
18.5337042
20
19.2960198
11
18.5340042
21
19.2963198
0
LINE
8
DEFAULT_255_2_778
10
18.3300042
20
19.9752198
11
18.3302042
21
19.9752198
0
ARC
8
DEFAULT_255_2_778
10
19.2114991
20
19.3571999
40
0.3449621
50
89.0189914
51
119.9449467
0
ARC
8
DEFAULT_255_2_778
10
19.2308036
20
19.4079137
40
0.2945027
50
42.2194959
51
92.6075709
0
ARC
8
DEFAULT_255_2_778
10
19.1735233
20
19.3737507
40
0.3601213
50
1.0860672
51
40.1204052
0
ARC
8
DEFAULT_255_2_778
10
18.9476696
20
19.3458953
40
0.586936
50
359.9625273
51
3.3875025
0
ARC
8
DEFAULT_255_2_778
10
19.1338967
20
19.3319501
40
0.400938
50
331.0484612
51
1.9383429
0
ARC
8
DEFAULT_255_2_778
10
19.229266
20
19.2891084
40
0.2968753
50
316.8074522
51
329.3734699
0
ARC
8
DEFAULT_255_2_778
10
19.2203059
20
19.3079702
40
0.3164094
50
269.3476073
51
315.4277404
0
ARC
8
DEFAULT_255_2_778
10
19.1971448
20
19.5085861
40
0.5173746
50
269.9845411
51
272.1664844
0
ARC
8
DEFAULT_255_2_778
10
19.182765
20
19.3282673
40
0.3373565
50
230.0861488
51
272.4192394
0
ARC
8
DEFAULT_255_2_778
10
19.1761411
20
19.3004922
40
0.3120628
50
182.6229067
51
227.7462297
0
ARC
8
DEFAULT_255_2_778
10
19.2072049
20
19.302918
40
0.2153487
50
184.4494252
51
225.960814
0
ARC
8
DEFAULT_255_2_778
10
19.1869887
20
19.303691
40
0.2024129
50
230.2305473
51
272.7514403
0
ARC
8
DEFAULT_255_2_778
10
19.2054546
20
19.2841655
40
0.1828635
50
267.257555
51
319.7903905
0
ARC
8
DEFAULT_255_2_778
10
19.137646
20
19.3246581
40
0.261106
50
322.6118423
51
1.1976058
0
ARC
8
DEFAULT_255_2_778
10
18.9386322
20
19.3440244
40
0.4602731
50
358.2683031
51
0.0108305
0
ARC
8
DEFAULT_255_2_778
10
19.1521988
20
19.3560911
40
0.2469971
50
357.2199925
51
40.2894049
0
ARC
8
DEFAULT_255_2_778
10
19.1940211
20
19.3832303
40
0.1976478
50
42.1284352
51
92.3533563
0
ARC
8
DEFAULT_255_2_778
10
19.1730886
20
19.3580675
40
0.2230125
50
86.705369
51
124.5210997
0
LINE
8
DEFAULT_255_2_778
10
19.0107052
20
19.5124114
11
18.9022052
21
19.5402114
0
LINE
8
DEFAULT_255_2_778
10
18.9022052
20
19.5402114
11
18.9565052
21
20.0720114
0
LINE
8
DEFAULT_255_2_778
10
18.9565052
20
20.0720114
11
19.5028052
21
20.0720114
0
LINE
8
DEFAULT_255_2_778
10
19.5028052
20
20.0720114
11
19.5028052
21
19.9469114
0
LINE
8
DEFAULT_255_2_778
10
19.5028052
20
19.9469114
11
19.0716052
21
19.9469114
0
LINE
8
DEFAULT_255_2_778
10
19.0716052
20
19.9469114
11
19.0393052
21
19.6561114
0
LINE
8
DEFAULT_255_2_778
10
18.8644052
20
19.2862114
11
18.9925052
21
19.2862114
0
LINE
8
DEFAULT_255_2_778
10
19.0467052
20
19.5418114
11
19.0107052
21
19.5124114
0
LINE
8
DEFAULT_255_2_778
10
19.0107052
20
19.5124114
11
19.0107052
21
19.5124114
0
ARC
8
DEFAULT_255_2_778
10
4.6261987
20
23.8141792
40
0.5194442
50
69.7561446
51
91.4027862
0
ARC
8
DEFAULT_255_2_778
10
4.6948728
20
24.0167938
40
0.3056357
50
50.1587364
51
68.6920496
0
ARC
8
DEFAULT_255_2_778
10
4.6993974
20
24.0359501
40
0.2881627
50
358.7538712
51
48.4090087
0
ARC
8
DEFAULT_255_2_778
10
4.5013041
20
24.0128764
40
0.4864782
50
359.9871987
51
1.9798623
0
ARC
8
DEFAULT_255_2_778
10
4.7003287
20
24.0066771
40
0.2875181
50
324.3905515
51
1.2138012
0
ARC
8
DEFAULT_255_2_778
10
4.6776637
20
24.0297255
40
0.319413
50
289.5183293
51
323.3964604
0
ARC
8
DEFAULT_255_2_778
10
4.6310644
20
24.0567529
40
0.2438258
50
266.971476
51
309.112994
0
ARC
8
DEFAULT_255_2_778
10
4.6638555
20
24.004946
40
0.1830855
50
311.3792121
51
2.3858502
0
ARC
8
DEFAULT_255_2_778
10
4.6545151
20
24.0250216
40
0.1926701
50
356.2938915
51
46.2362981
0
ARC
8
DEFAULT_255_2_778
10
4.6384647
20
23.9794138
40
0.2375495
50
51.0549636
51
90.1580998
0
ARC
8
DEFAULT_255_2_778
10
4.6144035
20
23.7719933
40
0.4455843
50
86.9889719
51
89.6169693
0
LINE
8
DEFAULT_255_2_778
10
4.8838823
20
23.2669677
11
4.6522823
21
23.6981677
0
LINE
8
DEFAULT_255_2_778
10
4.6522823
20
23.6981677
11
4.4017823
21
23.6981677
0
LINE
8
DEFAULT_255_2_778
10
4.4017823
20
23.6981677
11
4.4017823
21
23.2669677
0
LINE
8
DEFAULT_255_2_778
10
4.4017823
20
23.2669677
11
4.2604823
21
23.2669677
0
LINE
8
DEFAULT_255_2_778
10
4.2604823
20
23.2669677
11
4.2604823
21
24.3334677
0
LINE
8
DEFAULT_255_2_778
10
4.2604823
20
24.3334677
11
4.6134823
21
24.3334677
0
LINE
8
DEFAULT_255_2_778
10
4.7843823
20
23.7286677
11
5.0348823
21
23.2759677
0
LINE
8
DEFAULT_255_2_778
10
5.0348823
20
23.2759677
11
5.0348823
21
23.2671677
0
LINE
8
DEFAULT_255_2_778
10
5.0348823
20
23.2671677
11
4.8840823
21
23.2671677
0
LINE
8
DEFAULT_255_2_778
10
4.8840823
20
23.2671677
11
4.8838823
21
23.2669677
0
LINE
8
DEFAULT_255_2_778
10
4.4020823
20
24.2175677
11
4.4020823
21
23.8132677
0
LINE
8
DEFAULT_255_2_778
10
4.4020823
20
23.8132677
11
4.6181823
21
23.8132677
0
LINE
8
DEFAULT_255_2_778
10
4.6173823
20
24.2175677
11
4.4020823
21
24.2175677
0
LINE
8
DEFAULT_255_2_778
10
4.4020823
20
24.2175677
11
4.4020823
21
24.2175677
0
ARC
8
DEFAULT_255_2_778
10
5.7463032
20
24.6456648
40
0.9365015
50
243.371128
51
254.6850486
0
ARC
8
DEFAULT_255_2_778
10
5.5155663
20
24.1846887
40
0.4210034
50
228.3269548
51
243.3232777
0
ARC
8
DEFAULT_255_2_778
10
5.3976828
20
24.0531419
40
0.2443668
50
179.0438394
51
228.4654171
0
ARC
8
DEFAULT_255_2_778
10
5.4114968
20
24.0610339
40
0.2581749
50
127.5503186
51
180.8464909
0
ARC
8
DEFAULT_255_2_778
10
5.4933858
20
23.9572255
40
0.3903877
50
89.9421683
51
127.7934014
0
ARC
8
DEFAULT_255_2_778
10
5.5160102
20
23.7407296
40
0.6072904
50
89.9868101
51
92.0978256
0
ARC
8
DEFAULT_255_2_778
10
5.5239838
20
23.9127533
40
0.435337
50
64.4199414
51
91.031074
0
ARC
8
DEFAULT_255_2_778
10
5.5730342
20
24.0130149
40
0.3237255
50
32.7663336
51
64.5885168
0
ARC
8
DEFAULT_255_2_778
10
5.5941319
20
24.0268002
40
0.298524
50
359.6390939
51
32.7330556
0
ARC
8
DEFAULT_255_2_778
10
5.5580141
20
24.0348699
40
0.1935918
50
357.0538476
51
47.1589785
0
ARC
8
DEFAULT_255_2_778
10
5.5356251
20
23.9893142
40
0.2426561
50
50.5988804
51
91.3422407
0
ARC
8
DEFAULT_255_2_778
10
5.5162459
20
23.7978767
40
0.4342431
50
88.1927152
51
90.0126568
0
ARC
8
DEFAULT_255_2_778
10
5.5033402
20
23.961211
40
0.2712115
50
87.2928151
51
120.1082573
0
ARC
8
DEFAULT_255_2_778
10
5.4616131
20
24.0494127
40
0.174169
50
122.7896073
51
128.1813503
0
ARC
8
DEFAULT_255_2_778
10
5.4479981
20
24.066385
40
0.1524119
50
128.1021233
51
182.6569611
0
ARC
8
DEFAULT_255_2_778
10
5.4335821
20
24.0594107
40
0.1378322
50
180.037788
51
233.2169155
0
ARC
8
DEFAULT_255_2_778
10
5.5746683
20
24.2470898
40
0.372627
50
233.1220184
51
250.5270118
0
ARC
8
DEFAULT_255_2_778
10
5.8004348
20
24.8142292
40
0.9828753
50
249.1400953
51
254.5832983
0
ARC
8
DEFAULT_255_2_778
10
5.264294
20
22.8434907
40
1.0595016
50
65.7026676
51
74.9643449
0
ARC
8
DEFAULT_255_2_778
10
5.4785288
20
23.3317067
40
0.5264089
50
59.3168604
51
65.0900044
0
ARC
8
DEFAULT_255_2_778
10
5.5934716
20
23.5097792
40
0.3147134
50
32.6177639
51
60.770278
0
ARC
8
DEFAULT_255_2_778
10
5.6262368
20
23.5446158
40
0.2685918
50
358.6141425
51
30.1252316
0
ARC
8
DEFAULT_255_2_778
10
5.6454884
20
23.5309946
40
0.2493634
50
306.4527229
51
1.6373679
0
ARC
8
DEFAULT_255_2_778
10
5.5596904
20
23.6514957
40
0.3972743
50
272.882198
51
306.0798429
0
ARC
8
DEFAULT_255_2_778
10
5.5244979
20
23.9138148
40
0.6613957
50
269.917887
51
274.7847299
0
ARC
8
DEFAULT_255_2_778
10
5.5196713
20
23.7552648
40
0.5028599
50
246.4122051
51
270.4419396
0
ARC
8
DEFAULT_255_2_778
10
5.4500508
20
23.6129007
40
0.3445996
50
216.1090765
51
247.5488961
0
ARC
8
DEFAULT_255_2_778
10
5.4015922
20
23.5723177
40
0.2815653
50
179.2669917
51
215.2484735
0
ARC
8
DEFAULT_255_2_778
10
5.4448982
20
23.5687964
40
0.1836863
50
177.7775166
51
232.371322
0
ARC
8
DEFAULT_255_2_778
10
5.5054699
20
23.6613627
40
0.2941031
50
234.0359984
51
271.3639759
0
ARC
8
DEFAULT_255_2_778
10
5.5234983
20
23.8608141
40
0.4935943
50
268.7198186
51
270.0060011
0
ARC
8
DEFAULT_255_2_778
10
5.5359374
20
23.6808738
40
0.3138986
50
267.7383416
51
294.7592425
0
ARC
8
DEFAULT_255_2_778
10
5.5870308
20
23.5527475
40
0.1763017
50
297.1204447
51
307.4154774
0
ARC
8
DEFAULT_255_2_778
10
5.6058519
20
23.5311167
40
0.147697
50
306.7148506
51
2.0964582
0
ARC
8
DEFAULT_255_2_778
10
5.6088386
20
23.5439751
40
0.1448035
50
357.0487604
51
51.7678946
0
ARC
8
DEFAULT_255_2_778
10
5.4760564
20
23.3479751
40
0.3813144
50
54.3220274
51
69.7123757
0
ARC
8
DEFAULT_255_2_778
10
5.1807214
20
22.6175927
40
1.1690307
50
68.547501
51
74.1936518
0
LINE
8
DEFAULT_255_2_778
10
5.89265
20
24.0249198
11
5.75135
21
24.0249198
0
LINE
8
DEFAULT_255_2_778
10
5.12005
20
23.5759198
11
5.26135
21
23.5759198
0
LINE
8
DEFAULT_255_2_778
10
5.49915
20
23.7424198
11
5.49895
21
23.7424198
0
LINE
8
DEFAULT_255_2_778
10
6.335374
20
23.7751979
11
6.335374
21
23.6645979
0
LINE
8
DEFAULT_255_2_778
10
6.335374
20
23.6645979
11
5.977874
21
23.6645979
0
LINE
8
DEFAULT_255_2_778
10
5.977874
20
23.6645979
11
5.977874
21
23.7751979
0
LINE
8
DEFAULT_255_2_778
10
5.977874
20
23.7751979
11
6.335374
21
23.7751979
0
LINE
8
DEFAULT_255_2_778
10
6.335374
20
23.7751979
11
6.335374
21
23.7751979
0
ARC
8
DEFAULT_255_2_778
10
5.9308959
20
24.5752119
40
1.1984021
50
318.0655437
51
324.7577583
0
ARC
8
DEFAULT_255_2_778
10
6.5376601
20
24.1427478
40
0.4533096
50
325.1468138
51
331.3843848
0
ARC
8
DEFAULT_255_2_778
10
6.7150967
20
24.0470264
40
0.2517041
50
331.1679819
51
359.7763204
0
ARC
8
DEFAULT_255_2_778
10
6.7752595
20
24.053342
40
0.1916785
50
357.817917
51
42.624055
0
ARC
8
DEFAULT_255_2_778
10
6.78957
20
24.0600619
40
0.1766617
50
44.1635531
51
92.5860806
0
ARC
8
DEFAULT_255_2_778
10
6.7689317
20
24.0275271
40
0.2094002
50
86.5318831
51
133.6099311
0
ARC
8
DEFAULT_255_2_778
10
6.7873486
20
24.0322013
40
0.2193447
50
137.9394577
51
183.4390085
0
ARC
8
DEFAULT_255_2_778
10
6.7478731
20
24.0316511
40
0.3152263
50
134.3292709
51
182.2921269
0
ARC
8
DEFAULT_255_2_778
10
6.761539
20
24.0011717
40
0.3467703
50
88.553645
51
132.4250713
0
ARC
8
DEFAULT_255_2_778
10
6.7813501
20
23.8029662
40
0.5449775
50
89.9948581
51
91.1626765
0
ARC
8
DEFAULT_255_2_778
10
6.7949878
20
23.9844545
40
0.3637431
50
59.3470716
51
92.140965
0
ARC
8
DEFAULT_255_2_778
10
6.8345116
20
24.0681662
40
0.2717162
50
47.9222691
51
57.5168713
0
ARC
8
DEFAULT_255_2_778
10
6.8374239
20
24.0733666
40
0.2659078
50
357.6026223
51
47.6371075
0
ARC
8
DEFAULT_255_2_778
10
6.7385767
20
24.075214
40
0.364753
50
330.4977337
51
357.962195
0
ARC
8
DEFAULT_255_2_778
10
6.2720107
20
24.3201496
40
0.891597
50
319.0286053
51
331.5637606
0
ARC
8
DEFAULT_255_2_778
10
5.8173156
20
24.6896111
40
1.4772824
50
317.2718089
51
319.7724473
0
LINE
8
DEFAULT_255_2_778
10
7.151999
20
23.3774437
11
7.151999
21
23.2668437
0
LINE
8
DEFAULT_255_2_778
10
7.151999
20
23.2668437
11
6.453299
21
23.2668437
0
LINE
8
DEFAULT_255_2_778
10
6.453299
20
23.2668437
11
6.453299
21
23.3642437
0
LINE
8
DEFAULT_255_2_778
10
6.453299
20
23.3642437
11
6.822399
21
23.7743437
0
LINE
8
DEFAULT_255_2_778
10
6.568399
20
24.0190437
11
6.432899
21
24.0190437
0
LINE
8
DEFAULT_255_2_778
10
6.902499
20
23.6872437
11
6.616799
21
23.3774437
0
LINE
8
DEFAULT_255_2_778
10
6.616799
20
23.3774437
11
7.152299
21
23.3774437
0
LINE
8
DEFAULT_255_2_778
10
7.152299
20
23.3774437
11
7.151999
21
23.3774437
0
ARC
8
DEFAULT_255_2_778
10
7.6032651
20
24.0899921
40
0.2240441
50
267.7565651
51
309.3411485
0
ARC
8
DEFAULT_255_2_778
10
7.6321398
20
24.0413549
40
0.1683388
50
312.2360072
51
2.6778708
0
ARC
8
DEFAULT_255_2_778
10
7.6002712
20
24.0621252
40
0.2004395
50
356.3084103
51
36.5573574
0
ARC
8
DEFAULT_255_2_778
10
7.6335171
20
24.061437
40
0.1753299
50
43.2241694
51
92.4710064
0
ARC
8
DEFAULT_255_2_778
10
7.6135996
20
23.8831983
40
0.3536214
50
87.9972198
51
90.0169868
0
ARC
8
DEFAULT_255_2_778
10
7.6038741
20
24.0430974
40
0.1939612
50
87.1568853
51
132.3163649
0
ARC
8
DEFAULT_255_2_778
10
7.5961545
20
24.061304
40
0.1754238
50
134.4558711
51
182.477895
0
ARC
8
DEFAULT_255_2_778
10
7.5573363
20
24.0598061
40
0.2720096
50
131.2480679
51
181.2821217
0
ARC
8
DEFAULT_255_2_778
10
7.6009007
20
24.0111062
40
0.3373487
50
87.8605101
51
131.3577218
0
ARC
8
DEFAULT_255_2_778
10
7.6269597
20
23.9842599
40
0.3642089
50
60.0835171
51
92.1187166
0
ARC
8
DEFAULT_255_2_778
10
7.6684489
20
24.073572
40
0.2662434
50
47.00934
51
58.2362767
0
ARC
8
DEFAULT_255_2_778
10
7.648609
20
24.0630696
40
0.2875481
50
357.102918
51
45.5444852
0
ARC
8
DEFAULT_255_2_778
10
7.4641695
20
24.0462791
40
0.4716254
50
0.0049405
51
0.2742167
0
ARC
8
DEFAULT_255_2_778
10
7.701936
20
24.0495796
40
0.2338815
50
323.8521676
51
359.2013873
0
ARC
8
DEFAULT_255_2_778
10
7.6673124
20
24.0675301
40
0.2724929
50
291.6839349
51
325.0988232
0
ARC
8
DEFAULT_255_2_778
10
7.6960526
20
23.5621443
40
0.2622368
50
37.5374133
51
74.0772883
0
ARC
8
DEFAULT_255_2_778
10
7.6954309
20
23.5724611
40
0.2565868
50
358.2264232
51
35.6257059
0
ARC
8
DEFAULT_255_2_778
10
7.661465
20
23.5508104
40
0.2907531
50
312.5801764
51
2.7025711
0
ARC
8
DEFAULT_255_2_778
10
7.6298108
20
23.6033409
40
0.3510642
50
267.4668636
51
310.5829005
0
ARC
8
DEFAULT_255_2_778
10
7.5991425
20
23.6158126
40
0.3635087
50
232.1384017
51
272.3889815
0
ARC
8
DEFAULT_255_2_778
10
7.5758244
20
23.5724924
40
0.3151021
50
229.2395254
51
230.6511281
0
ARC
8
DEFAULT_255_2_778
10
7.5451177
20
23.538622
40
0.2694011
50
177.9157629
51
229.4829773
0
ARC
8
DEFAULT_255_2_778
10
7.5860652
20
23.540835
40
0.1740358
50
177.502151
51
226.9196875
0
ARC
8
DEFAULT_255_2_778
10
7.6037388
20
23.5719632
40
0.2090102
50
229.2099758
51
272.8949346
0
ARC
8
DEFAULT_255_2_778
10
7.627912
20
23.569104
40
0.2063341
50
266.2159679
51
310.4729844
0
ARC
8
DEFAULT_255_2_778
10
7.6560469
20
23.5238293
40
0.1538383
50
313.4481892
51
314.7204192
0
ARC
8
DEFAULT_255_2_778
10
7.6195609
20
23.5485582
40
0.1972668
50
317.1971667
51
3.7964943
0
ARC
8
DEFAULT_255_2_778
10
7.637331
20
23.5729275
40
0.1794204
50
356.3866281
51
47.1747072
0
ARC
8
DEFAULT_255_2_778
10
7.6131206
20
23.51859
40
0.2365096
50
51.8263037
51
89.732018
0
ARC
8
DEFAULT_255_2_778
10
7.5881044
20
23.3115472
40
0.4443184
50
86.6295197
51
89.1759218
0
LINE
8
DEFAULT_255_2_778
10
7.4925948
20
23.7555198
11
7.4925948
21
23.8661198
0
LINE
8
DEFAULT_255_2_778
10
7.4925948
20
23.8661198
11
7.5944948
21
23.8661198
0
LINE
8
DEFAULT_255_2_778
10
7.4208948
20
24.0537198
11
7.2853948
21
24.0537198
0
LINE
8
DEFAULT_255_2_778
10
7.2758948
20
23.5484198
11
7.4121948
21
23.5484198
0
LINE
8
DEFAULT_255_2_778
10
7.5944948
20
23.7558198
11
7.4925948
21
23.7558198
0
LINE
8
DEFAULT_255_2_778
10
7.4925948
20
23.7558198
11
7.4925948
21
23.7555198
0
ARC
8
DEFAULT_255_2_778
10
7.6155605
20
24.5752119
40
1.1984021
50
318.0655437
51
324.7577583
0
ARC
8
DEFAULT_255_2_778
10
8.2223246
20
24.1427478
40
0.4533096
50
325.1468138
51
331.3843848
0
ARC
8
DEFAULT_255_2_778
10
8.3997613
20
24.0470264
40
0.2517041
50
331.1679819
51
359.7763204
0
ARC
8
DEFAULT_255_2_778
10
8.4599241
20
24.053342
40
0.1916785
50
357.817917
51
42.624055
0
ARC
8
DEFAULT_255_2_778
10
8.4742346
20
24.0600619
40
0.1766617
50
44.1635531
51
92.5860806
0
ARC
8
DEFAULT_255_2_778
10
8.4535963
20
24.0275271
40
0.2094002
50
86.5318831
51
133.6099311
0
ARC
8
DEFAULT_255_2_778
10
8.4720132
20
24.0322013
40
0.2193447
50
137.9394577
51
183.4390085
0
ARC
8
DEFAULT_255_2_778
10
8.4325377
20
24.0316511
40
0.3152263
50
134.3292709
51
182.2921269
0
ARC
8
DEFAULT_255_2_778
10
8.4462036
20
24.0011717
40
0.3467703
50
88.553645
51
132.4250713
0
ARC
8
DEFAULT_255_2_778
10
8.4660146
20
23.8029662
40
0.5449775
50
89.9948581
51
91.1626765
0
ARC
8
DEFAULT_255_2_778
10
8.4796523
20
23.9844545
40
0.3637431
50
59.3470716
51
92.140965
0
ARC
8
DEFAULT_255_2_778
10
8.5191762
20
24.0681662
40
0.2717162
50
47.9222691
51
57.5168713
0
ARC
8
DEFAULT_255_2_778
10
8.5220885
20
24.0733666
40
0.2659078
50
357.6026223
51
47.6371075
0
ARC
8
DEFAULT_255_2_778
10
8.4232413
20
24.075214
40
0.364753
50
330.4977337
51
357.962195
0
ARC
8
DEFAULT_255_2_778
10
7.9566753
20
24.3201496
40
0.891597
50
319.0286053
51
331.5637606
0
ARC
8
DEFAULT_255_2_778
10
7.5019802
20
24.6896111
40
1.4772824
50
317.2718089
51
319.7724473
0
LINE
8
DEFAULT_255_2_778
10
8.8364636
20
23.3774437
11
8.8364636
21
23.2668437
0
LINE
8
DEFAULT_255_2_778
10
8.8364636
20
23.2668437
11
8.1379636
21
23.2668437
0
LINE
8
DEFAULT_255_2_778
10
8.1379636
20
23.2668437
11
8.1379636
21
23.3642437
0
LINE
8
DEFAULT_255_2_778
10
8.1379636
20
23.3642437
11
8.5070636
21
23.7743437
0
LINE
8
DEFAULT_255_2_778
10
8.2530636
20
24.0190437
11
8.1175636
21
24.0190437
0
LINE
8
DEFAULT_255_2_778
10
8.5871636
20
23.6872437
11
8.3014636
21
23.3774437
0
LINE
8
DEFAULT_255_2_778
10
8.3014636
20
23.3774437
11
8.8364636
21
23.3774437
0
LINE
8
DEFAULT_255_2_778
10
8.8364636
20
23.3774437
11
8.8364636
21
23.3774437
0
ARC
8
DEFAULT_255_2_778
10
9.385787
20
23.6395037
40
0.4153886
50
321.5902139
51
355.2795747
0
ARC
8
DEFAULT_255_2_778
10
9.4536259
20
23.5971453
40
0.3360339
50
311.1770585
51
320.0630521
0
ARC
8
DEFAULT_255_2_778
10
9.42402
20
23.6453184
40
0.3918985
50
271.2817675
51
309.7978393
0
ARC
8
DEFAULT_255_2_778
10
9.3958598
20
23.873723
40
0.6213034
50
269.9637446
51
273.4073333
0
ARC
8
DEFAULT_255_2_778
10
9.3817824
20
23.6283121
40
0.3761413
50
219.7446265
51
272.0849202
0
ARC
8
DEFAULT_255_2_778
10
9.4814596
20
23.7012053
40
0.4994479
50
184.8906267
51
218.8632611
0
ARC
8
DEFAULT_255_2_778
10
9.7776568
20
23.7484478
40
0.7988923
50
179.8657437
51
186.4556253
0
ARC
8
DEFAULT_255_2_778
10
9.5846865
20
23.8658169
40
0.606055
50
155.7826898
51
181.2099147
0
ARC
8
DEFAULT_255_2_778
10
9.3955262
20
23.9506913
40
0.3987261
50
122.2998778
51
155.7556576
0
ARC
8
DEFAULT_255_2_778
10
9.3994259
20
23.9281939
40
0.4199168
50
88.8072742
51
121.1092744
0
ARC
8
DEFAULT_255_2_778
10
9.4223913
20
23.9402594
40
0.4080084
50
57.797273
51
91.9979334
0
ARC
8
DEFAULT_255_2_778
10
9.4554634
20
24.0095388
40
0.331882
50
47.2684611
51
56.254476
0
ARC
8
DEFAULT_255_2_778
10
9.4106699
20
23.9731945
40
0.3890609
50
4.894602
51
46.0547715
0
ARC
8
DEFAULT_255_2_778
10
9.2069633
20
23.9318691
40
0.5960259
50
5.6761905
51
7.1825069
0
ARC
8
DEFAULT_255_2_778
10
9.285741
20
23.9496754
40
0.3752879
50
6.2942251
51
29.6554142
0
ARC
8
DEFAULT_255_2_778
10
9.4444826
20
24.0331034
40
0.1961533
50
31.4205974
51
46.5559212
0
ARC
8
DEFAULT_255_2_778
10
9.4249229
20
23.9957831
40
0.2369771
50
49.3282662
51
92.3316936
0
ARC
8
DEFAULT_255_2_778
10
9.4084781
20
23.8178231
40
0.4147967
50
89.0601879
51
90.0015764
0
ARC
8
DEFAULT_255_2_778
10
9.3979026
20
23.9805885
40
0.2522526
50
87.5998082
51
142.7658868
0
ARC
8
DEFAULT_255_2_778
10
9.5091606
20
23.9088455
40
0.384378
50
144.2864397
51
174.2714094
0
ARC
8
DEFAULT_255_2_778
10
9.8476573
20
23.8529025
40
0.7270973
50
172.5472932
51
180.2429201
0
ARC
8
DEFAULT_255_2_778
10
9.67775
20
23.7339682
40
0.5573269
50
178.6992471
51
199.7765182
0
ARC
8
DEFAULT_255_2_778
10
9.4755781
20
23.6683212
40
0.3449313
50
200.8779194
51
215.0115429
0
ARC
8
DEFAULT_255_2_778
10
9.3870028
20
23.6017907
40
0.2342425
50
214.1134259
51
272.193096
0
ARC
8
DEFAULT_255_2_778
10
9.4086019
20
23.6708508
40
0.3033943
50
267.6131663
51
297.4038818
0
ARC
8
DEFAULT_255_2_778
10
9.455987
20
23.5627288
40
0.1857551
50
299.7785073
51
310.2333926
0
ARC
8
DEFAULT_255_2_778
10
9.4098398
20
23.596857
40
0.2419753
50
313.3572163
51
347.5917622
0
ARC
8
DEFAULT_255_2_778
10
9.1268522
20
23.6857644
40
0.5380864
50
344.8196873
51
351.4558186
0
LINE
8
DEFAULT_255_2_778
10
9.6584667
20
23.6053198
11
9.7997667
21
23.6053198
0
LINE
8
DEFAULT_255_2_778
10
8.9787667
20
23.7503198
11
8.9787667
21
23.8530198
0
LINE
8
DEFAULT_255_2_778
10
9.8000667
20
23.9908198
11
9.6587667
21
23.9908198
0
LINE
8
DEFAULT_255_2_778
10
9.1205667
20
23.8498198
11
9.1205667
21
23.7466198
0
LINE
8
DEFAULT_255_2_778
10
9.6589667
20
23.6058198
11
9.6584667
21
23.6053198
0
ARC
8
DEFAULT_255_2_778
10
3.0261987
20
27.3822792
40
0.5194442
50
69.7561446
51
91.4027862
0
ARC
8
DEFAULT_255_2_778
10
3.0948728
20
27.5848938
40
0.3056357
50
50.1587364
51
68.6920496
0
ARC
8
DEFAULT_255_2_778
10
3.0993974
20
27.6040501
40
0.2881627
50
358.7538712
51
48.4090087
0
ARC
8
DEFAULT_255_2_778
10
2.9013041
20
27.5809764
40
0.4864782
50
359.9871987
51
1.9798623
0
ARC
8
DEFAULT_255_2_778
10
3.1003287
20
27.5747771
40
0.2875181
50
324.3905515
51
1.2138012
0
ARC
8
DEFAULT_255_2_778
10
3.0776637
20
27.5978255
40
0.319413
50
289.5183293
51
323.3964604
0
ARC
8
DEFAULT_255_2_778
10
3.0310644
20
27.6248529
40
0.2438258
50
266.971476
51
309.112994
0
ARC
8
DEFAULT_255_2_778
10
3.0638555
20
27.573046
40
0.1830855
50
311.3792121
51
2.3858502
0
ARC
8
DEFAULT_255_2_778
10
3.0545151
20
27.5931216
40
0.1926701
50
356.2938915
51
46.2362981
0
ARC
8
DEFAULT_255_2_778
10
3.0384647
20
27.5475138
40
0.2375495
50
51.0549636
51
90.1580998
0
ARC
8
DEFAULT_255_2_778
10
3.0144035
20
27.3400933
40
0.4455843
50
86.9889719
51
89.6169693
0
LINE
8
DEFAULT_255_2_778
10
3.2838823
20
26.8350677
11
3.0522823
21
27.2662677
0
LINE
8
DEFAULT_255_2_778
10
3.0522823
20
27.2662677
11
2.8017823
21
27.2662677
0
LINE
8
DEFAULT_255_2_778
10
2.8017823
20
27.2662677
11
2.8017823
21
26.8350677
0
LINE
8
DEFAULT_255_2_778
10
2.8017823
20
26.8350677
11
2.6604823
21
26.8350677
0
LINE
8
DEFAULT_255_2_778
10
2.6604823
20
26.8350677
11
2.6604823
21
27.9015677
0
LINE
8
DEFAULT_255_2_778
10
2.6604823
20
27.9015677
11
3.0134823
21
27.9015677
0
LINE
8
DEFAULT_255_2_778
10
3.1843823
20
27.2967677
11
3.4348823
21
26.8440677
0
LINE
8
DEFAULT_255_2_778
10
3.4348823
20
26.8440677
11
3.4348823
21
26.8352677
0
LINE
8
DEFAULT_255_2_778
10
3.4348823
20
26.8352677
11
3.2840823
21
26.8352677
0
LINE
8
DEFAULT_255_2_778
10
3.2840823
20
26.8352677
11
3.2838823
21
26.8350677
0
LINE
8
DEFAULT_255_2_778
10
2.8020823
20
27.7856677
11
2.8020823
21
27.3813677
0
LINE
8
DEFAULT_255_2_778
10
2.8020823
20
27.3813677
11
3.0181823
21
27.3813677
0
LINE
8
DEFAULT_255_2_778
10
3.0173823
20
27.7856677
11
2.8020823
21
27.7856677
0
LINE
8
DEFAULT_255_2_778
10
2.8020823
20
27.7856677
11
2.8020823
21
27.7856677
0
LINE
8
DEFAULT_255_2_778
10
3.675449
20
27.9015677
11
3.932649
21
27.4927677
0
LINE
8
DEFAULT_255_2_778
10
3.932649
20
27.4927677
11
4.188249
21
27.9015677
0
LINE
8
DEFAULT_255_2_778
10
4.188249
20
27.9015677
11
4.353849
21
27.9015677
0
LINE
8
DEFAULT_255_2_778
10
4.353849
20
27.9015677
11
4.017049
21
27.3726677
0
LINE
8
DEFAULT_255_2_778
10
4.017049
20
27.3726677
11
4.362049
21
26.8350677
0
LINE
8
DEFAULT_255_2_778
10
4.362049
20
26.8350677
11
4.195049
21
26.8350677
0
LINE
8
DEFAULT_255_2_778
10
4.195049
20
26.8350677
11
3.932849
21
27.2509677
0
LINE
8
DEFAULT_255_2_778
10
3.932849
20
27.2509677
11
3.669149
21
26.8350677
0
LINE
8
DEFAULT_255_2_778
10
3.669149
20
26.8350677
11
3.502949
21
26.8350677
0
LINE
8
DEFAULT_255_2_778
10
3.502949
20
26.8350677
11
3.848749
21
27.3726677
0
LINE
8
DEFAULT_255_2_778
10
3.848749
20
27.3726677
11
3.511149
21
27.9015677
0
LINE
8
DEFAULT_255_2_778
10
3.511149
20
27.9015677
11
3.675949
21
27.9015677
0
LINE
8
DEFAULT_255_2_778
10
3.675949
20
27.9015677
11
3.675449
21
27.9015677
0
LINE
8
DEFAULT_255_2_778
10
4.9354125
20
27.9065812
11
4.9354125
21
26.8349812
0
LINE
8
DEFAULT_255_2_778
10
4.9354125
20
26.8349812
11
4.7991125
21
26.8349812
0
LINE
8
DEFAULT_255_2_778
10
4.7991125
20
26.8349812
11
4.7991125
21
27.7380812
0
LINE
8
DEFAULT_255_2_778
10
4.7991125
20
27.7380812
11
4.5258125
21
27.6377812
0
LINE
8
DEFAULT_255_2_778
10
4.5258125
20
27.6377812
11
4.5258125
21
27.7607812
0
LINE
8
DEFAULT_255_2_778
10
4.5258125
20
27.7607812
11
4.9139125
21
27.9065812
0
LINE
8
DEFAULT_255_2_778
10
4.9139125
20
27.9065812
11
4.9351125
21
27.9065812
0
LINE
8
DEFAULT_255_2_778
10
4.9351125
20
27.9065812
11
4.9354125
21
27.9065812
0
LINE
8
DEFAULT_255_2_778
10
3.3979469
20
31.3335354
11
3.3979469
21
31.2179354
0
LINE
8
DEFAULT_255_2_778
10
3.3979469
20
31.2179354
11
3.0550469
21
31.2179354
0
LINE
8
DEFAULT_255_2_778
10
3.0550469
20
31.2179354
11
3.0550469
21
30.2672354
0
LINE
8
DEFAULT_255_2_778
10
3.0550469
20
30.2672354
11
2.9150469
21
30.2672354
0
LINE
8
DEFAULT_255_2_778
10
2.9150469
20
30.2672354
11
2.9150469
21
31.2179354
0
LINE
8
DEFAULT_255_2_778
10
2.9150469
20
31.2179354
11
2.5732469
21
31.2179354
0
LINE
8
DEFAULT_255_2_778
10
2.5732469
20
31.2179354
11
2.5732469
21
31.3335354
0
LINE
8
DEFAULT_255_2_778
10
2.5732469
20
31.3335354
11
3.3979469
21
31.3335354
0
LINE
8
DEFAULT_255_2_778
10
3.3979469
20
31.3335354
11
3.3979469
21
31.3335354
0
LINE
8
DEFAULT_255_2_778
10
3.646849
20
31.3334677
11
3.904049
21
30.9246677
0
LINE
8
DEFAULT_255_2_778
10
3.904049
20
30.9246677
11
4.159649
21
31.3334677
0
LINE
8
DEFAULT_255_2_778
10
4.159649
20
31.3334677
11
4.325249
21
31.3334677
0
LINE
8
DEFAULT_255_2_778
10
4.325249
20
31.3334677
11
3.988449
21
30.8045677
0
LINE
8
DEFAULT_255_2_778
10
3.988449
20
30.8045677
11
4.333449
21
30.2669677
0
LINE
8
DEFAULT_255_2_778
10
4.333449
20
30.2669677
11
4.166449
21
30.2669677
0
LINE
8
DEFAULT_255_2_778
10
4.166449
20
30.2669677
11
3.904249
21
30.6828677
0
LINE
8
DEFAULT_255_2_778
10
3.904249
20
30.6828677
11
3.640549
21
30.2669677
0
LINE
8
DEFAULT_255_2_778
10
3.640549
20
30.2669677
11
3.474349
21
30.2669677
0
LINE
8
DEFAULT_255_2_778
10
3.474349
20
30.2669677
11
3.820149
21
30.8045677
0
LINE
8
DEFAULT_255_2_778
10
3.820149
20
30.8045677
11
3.482549
21
31.3334677
0
LINE
8
DEFAULT_255_2_778
10
3.482549
20
31.3334677
11
3.647349
21
31.3334677
0
LINE
8
DEFAULT_255_2_778
10
3.647349
20
31.3334677
11
3.646849
21
31.3334677
0
LINE
8
DEFAULT_255_2_778
10
4.9066125
20
31.3385812
11
4.9066125
21
30.2669812
0
LINE
8
DEFAULT_255_2_778
10
4.9066125
20
30.2669812
11
4.7703125
21
30.2669812
0
LINE
8
DEFAULT_255_2_778
10
4.7703125
20
30.2669812
11
4.7703125
21
31.1700812
0
LINE
8
DEFAULT_255_2_778
10
4.7703125
20
31.1700812
11
4.4970125
21
31.0697812
0
LINE
8
DEFAULT_255_2_778
10
4.4970125
20
31.0697812
11
4.4970125
21
31.1927812
0
LINE
8
DEFAULT_255_2_778
10
4.4970125
20
31.1927812
11
4.8851125
21
31.3385812
0
LINE
8
DEFAULT_255_2_778
10
4.8851125
20
31.3385812
11
4.9063125
21
31.3385812
0
LINE
8
DEFAULT_255_2_778
10
4.9063125
20
31.3385812
11
4.9066125
21
31.3385812
0
ARC
8
DEFAULT_255_2_778
10
4.8942597
20
34.1792745
40
0.4545841
50
65.0431829
51
91.6605822
0
ARC
8
DEFAULT_255_2_778
10
4.9479472
20
34.3133441
40
0.3104808
50
48.0528315
51
63.5862458
0
ARC
8
DEFAULT_255_2_778
10
4.9516185
20
34.3196954
40
0.3033065
50
357.7273178
51
47.7666625
0
ARC
8
DEFAULT_255_2_778
10
4.9422932
20
34.2929411
40
0.3127402
50
321.4375408
51
2.6989918
0
ARC
8
DEFAULT_255_2_778
10
4.9824003
20
34.2719643
40
0.2684407
50
310.738417
51
319.6018336
0
ARC
8
DEFAULT_255_2_778
10
4.9307321
20
34.3485959
40
0.3603869
50
275.0152141
51
309.0113636
0
ARC
8
DEFAULT_255_2_778
10
4.8817414
20
34.6449701
40
0.6603061
50
269.8043362
51
277.002163
0
ARC
8
DEFAULT_255_2_778
10
4.8936588
20
34.3755049
40
0.2763326
50
267.3508016
51
299.8994107
0
ARC
8
DEFAULT_255_2_778
10
4.9367618
20
34.2846193
40
0.1762365
50
302.4811362
51
311.5203952
0
ARC
8
DEFAULT_255_2_778
10
4.9200457
20
34.2934603
40
0.1940508
50
313.4857761
51
3.7251049
0
ARC
8
DEFAULT_255_2_778
10
4.913543
20
34.3151902
40
0.2003512
50
357.3902866
51
45.6539971
0
ARC
8
DEFAULT_255_2_778
10
4.8968797
20
34.2816124
40
0.2362939
50
48.4566876
51
91.9627964
0
LINE
8
DEFAULT_255_2_778
10
4.8792865
20
33.9846677
11
4.6281865
21
33.9846677
0
LINE
8
DEFAULT_255_2_778
10
4.6281865
20
33.9846677
11
4.6281865
21
33.5671677
0
LINE
8
DEFAULT_255_2_778
10
4.6281865
20
33.5671677
11
4.4876865
21
33.5671677
0
LINE
8
DEFAULT_255_2_778
10
4.4876865
20
33.5671677
11
4.4876865
21
34.6336677
0
LINE
8
DEFAULT_255_2_778
10
4.4876865
20
34.6336677
11
4.8810865
21
34.6336677
0
LINE
8
DEFAULT_255_2_778
10
4.8794865
20
33.9846677
11
4.8792865
21
33.9846677
0
LINE
8
DEFAULT_255_2_778
10
4.6281865
20
34.5177677
11
4.6281865
21
34.0994677
0
LINE
8
DEFAULT_255_2_778
10
4.6281865
20
34.0994677
11
4.8808865
21
34.0994677
0
LINE
8
DEFAULT_255_2_778
10
4.8887865
20
34.5177677
11
4.6281865
21
34.5177677
0
LINE
8
DEFAULT_255_2_778
10
4.6281865
20
34.5177677
11
4.6281865
21
34.5177677
0
ARC
8
DEFAULT_255_2_778
10
5.5811129
20
34.0527044
40
0.6731253
50
338.5911146
51
1.1164347
0
ARC
8
DEFAULT_255_2_778
10
5.728992
20
34.0049675
40
0.5181128
50
335.7561769
51
337.5365194
0
ARC
8
DEFAULT_255_2_778
10
5.8355818
20
33.9471318
40
0.3972762
50
302.9925299
51
337.0495213
0
ARC
8
DEFAULT_255_2_778
10
5.8355018
20
33.9625545
40
0.4103399
50
268.7025313
51
301.8291853
0
ARC
8
DEFAULT_255_2_778
10
5.8188764
20
33.9595826
40
0.4073288
50
237.9809887
51
271.0316733
0
ARC
8
DEFAULT_255_2_778
10
5.8261046
20
33.9586461
40
0.4104207
50
204.1518664
51
237.0560694
0
ARC
8
DEFAULT_255_2_778
10
6.0309523
20
34.0498932
40
0.6346715
50
179.446903
51
204.1017485
0
ARC
8
DEFAULT_255_2_778
10
6.0490062
20
34.1458364
40
0.6528216
50
156.6366533
51
181.1249382
0
ARC
8
DEFAULT_255_2_778
10
5.8230053
20
34.2453528
40
0.4058902
50
123.1400121
51
156.8814067
0
ARC
8
DEFAULT_255_2_778
10
5.8179328
20
34.2420622
40
0.4059176
50
89.0150508
51
122.2865343
0
ARC
8
DEFAULT_255_2_778
10
5.8330671
20
34.2341817
40
0.4138185
50
58.2359568
51
91.1294223
0
ARC
8
DEFAULT_255_2_778
10
5.834955
20
34.2520254
40
0.3977298
50
22.8731368
51
57.11394
0
ARC
8
DEFAULT_255_2_778
10
5.59736
20
34.1489096
40
0.6567278
50
359.4615837
51
23.1048821
0
ARC
8
DEFAULT_255_2_778
10
5.3423995
20
34.1330573
40
0.9117109
50
359.9976437
51
0.6084104
0
ARC
8
DEFAULT_255_2_778
10
5.4882777
20
34.147387
40
0.6259569
50
358.8587625
51
16.6629729
0
ARC
8
DEFAULT_255_2_778
10
5.7682112
20
34.2275019
40
0.3348244
50
17.2649563
51
36.3419365
0
ARC
8
DEFAULT_255_2_778
10
5.8359791
20
34.2761796
40
0.2513928
50
36.5584185
51
92.5691487
0
ARC
8
DEFAULT_255_2_778
10
5.8152628
20
34.2789279
40
0.2485714
50
87.8217999
51
143.7473859
0
ARC
8
DEFAULT_255_2_778
10
5.9462215
20
34.1911848
40
0.4061204
50
144.6904544
51
174.2190947
0
ARC
8
DEFAULT_255_2_778
10
6.2684021
20
34.1370454
40
0.7324287
50
172.5438206
51
179.4231153
0
ARC
8
DEFAULT_255_2_778
10
6.1228853
20
34.0534746
40
0.587011
50
178.7656616
51
198.731354
0
ARC
8
DEFAULT_255_2_778
10
5.8953667
20
33.9823045
40
0.3487342
50
199.6617702
51
216.0211178
0
ARC
8
DEFAULT_255_2_778
10
5.8168488
20
33.9213582
40
0.2494068
50
215.3047427
51
272.1051677
0
ARC
8
DEFAULT_255_2_778
10
5.8380065
20
33.9204037
40
0.2485735
50
267.233863
51
323.1474491
0
ARC
8
DEFAULT_255_2_778
10
5.7165257
20
33.9968123
40
0.3917822
50
324.8614357
51
352.9104659
0
ARC
8
DEFAULT_255_2_778
10
5.3607654
20
34.0614088
40
0.7530657
50
351.3738014
51
359.5747607
0
LINE
8
DEFAULT_255_2_778
10
6.2541104
20
34.1333198
11
6.2541104
21
34.0658198
0
LINE
8
DEFAULT_255_2_778
10
5.3963104
20
34.0560198
11
5.3963104
21
34.1330198
0
LINE
8
DEFAULT_255_2_778
10
6.2541104
20
34.1330198
11
6.2541104
21
34.1333198
0
LINE
8
DEFAULT_255_2_778
10
6.1141104
20
34.0558198
11
6.1141104
21
34.1349198
0
LINE
8
DEFAULT_255_2_778
10
5.5360104
20
34.1444198
11
5.5360104
21
34.0661198
0
LINE
8
DEFAULT_255_2_778
10
6.1138104
20
34.0558198
11
6.1141104
21
34.0558198
0
ARC
8
DEFAULT_255_2_778
10
6.8298987
20
34.1143792
40
0.5194442
50
69.7561446
51
91.4027862
0
ARC
8
DEFAULT_255_2_778
10
6.8985728
20
34.3169938
40
0.3056357
50
50.1587364
51
68.6920496
0
ARC
8
DEFAULT_255_2_778
10
6.9030974
20
34.3361501
40
0.2881627
50
358.7538712
51
48.4090087
0
ARC
8
DEFAULT_255_2_778
10
6.7050041
20
34.3130764
40
0.4864782
50
359.9871987
51
1.9798623
0
ARC
8
DEFAULT_255_2_778
10
6.9040287
20
34.3068771
40
0.2875181
50
324.3905515
51
1.2138012
0
ARC
8
DEFAULT_255_2_778
10
6.8813637
20
34.3299255
40
0.319413
50
289.5183293
51
323.3964604
0
ARC
8
DEFAULT_255_2_778
10
6.8347644
20
34.3569529
40
0.2438258
50
266.971476
51
309.112994
0
ARC
8
DEFAULT_255_2_778
10
6.8675555
20
34.305146
40
0.1830855
50
311.3792121
51
2.3858502
0
ARC
8
DEFAULT_255_2_778
10
6.8582151
20
34.3252216
40
0.1926701
50
356.2938915
51
46.2362981
0
ARC
8
DEFAULT_255_2_778
10
6.8421647
20
34.2796138
40
0.2375495
50
51.0549636
51
90.1580998
0
ARC
8
DEFAULT_255_2_778
10
6.8181035
20
34.0721933
40
0.4455843
50
86.9889719
51
89.6169693
0
LINE
8
DEFAULT_255_2_778
10
7.0875823
20
33.5671677
11
6.8559823
21
33.9983677
0
LINE
8
DEFAULT_255_2_778
10
6.8559823
20
33.9983677
11
6.6054823
21
33.9983677
0
LINE
8
DEFAULT_255_2_778
10
6.6054823
20
33.9983677
11
6.6054823
21
33.5671677
0
LINE
8
DEFAULT_255_2_778
10
6.6054823
20
33.5671677
11
6.4641823
21
33.5671677
0
LINE
8
DEFAULT_255_2_778
10
6.4641823
20
33.5671677
11
6.4641823
21
34.6336677
0
LINE
8
DEFAULT_255_2_778
10
6.4641823
20
34.6336677
11
6.8171823
21
34.6336677
0
LINE
8
DEFAULT_255_2_778
10
6.9880823
20
34.0288677
11
7.2385823
21
33.5761677
0
LINE
8
DEFAULT_255_2_778
10
7.2385823
20
33.5761677
11
7.2385823
21
33.5673677
0
LINE
8
DEFAULT_255_2_778
10
7.2385823
20
33.5673677
11
7.0877823
21
33.5673677
0
LINE
8
DEFAULT_255_2_778
10
7.0877823
20
33.5673677
11
7.0875823
21
33.5671677
0
LINE
8
DEFAULT_255_2_778
10
6.6057823
20
34.5177677
11
6.6057823
21
34.1134677
0
LINE
8
DEFAULT_255_2_778
10
6.6057823
20
34.1134677
11
6.8218823
21
34.1134677
0
LINE
8
DEFAULT_255_2_778
10
6.8210823
20
34.5177677
11
6.6057823
21
34.5177677
0
LINE
8
DEFAULT_255_2_778
10
6.6057823
20
34.5177677
11
6.6057823
21
34.5177677
0
LINE
8
DEFAULT_255_2_778
10
8.0668146
20
34.6336354
11
8.0668146
21
34.5180354
0
LINE
8
DEFAULT_255_2_778
10
8.0668146
20
34.5180354
11
7.7239146
21
34.5180354
0
LINE
8
DEFAULT_255_2_778
10
7.7239146
20
34.5180354
11
7.7239146
21
33.5673354
0
LINE
8
DEFAULT_255_2_778
10
7.7239146
20
33.5673354
11
7.5839146
21
33.5673354
0
LINE
8
DEFAULT_255_2_778
10
7.5839146
20
33.5673354
11
7.5839146
21
34.5180354
0
LINE
8
DEFAULT_255_2_778
10
7.5839146
20
34.5180354
11
7.2418146
21
34.5180354
0
LINE
8
DEFAULT_255_2_778
10
7.2418146
20
34.5180354
11
7.2418146
21
34.6336354
0
LINE
8
DEFAULT_255_2_778
10
7.2418146
20
34.6336354
11
8.0665146
21
34.6336354
0
LINE
8
DEFAULT_255_2_778
10
8.0665146
20
34.6336354
11
8.0668146
21
34.6336354
0
LINE
8
DEFAULT_255_2_778
10
8.6351125
20
34.6386812
11
8.6351125
21
33.5670812
0
LINE
8
DEFAULT_255_2_778
10
8.6351125
20
33.5670812
11
8.4988125
21
33.5670812
0
LINE
8
DEFAULT_255_2_778
10
8.4988125
20
33.5670812
11
8.4988125
21
34.4701812
0
LINE
8
DEFAULT_255_2_778
10
8.4988125
20
34.4701812
11
8.2255125
21
34.3698812
0
LINE
8
DEFAULT_255_2_778
10
8.2255125
20
34.3698812
11
8.2255125
21
34.4928812
0
LINE
8
DEFAULT_255_2_778
10
8.2255125
20
34.4928812
11
8.6136125
21
34.6386812
0
LINE
8
DEFAULT_255_2_778
10
8.6136125
20
34.6386812
11
8.6348125
21
34.6386812
0
LINE
8
DEFAULT_255_2_778
10
8.6348125
20
34.6386812
11
8.6351125
21
34.6386812
0
ARC
8
DEFAULT_255_2_778
10
4.8942597
20
52.7791745
40
0.4545841
50
65.0431829
51
91.6605822
0
ARC
8
DEFAULT_255_2_778
10
4.9479472
20
52.9132441
40
0.3104808
50
48.0528315
51
63.5862458
0
ARC
8
DEFAULT_255_2_778
10
4.9516185
20
52.9195954
40
0.3033065
50
357.7273178
51
47.7666625
0
ARC
8
DEFAULT_255_2_778
10
4.9422932
20
52.8928411
40
0.3127402
50
321.4375408
51
2.6989918
0
ARC
8
DEFAULT_255_2_778
10
4.9824003
20
52.8718643
40
0.2684407
50
310.738417
51
319.6018336
0
ARC
8
DEFAULT_255_2_778
10
4.9307321
20
52.9484959
40
0.3603869
50
275.0152141
51
309.0113636
0
ARC
8
DEFAULT_255_2_778
10
4.8817414
20
53.2448701
40
0.6603061
50
269.8043362
51
277.002163
0
ARC
8
DEFAULT_255_2_778
10
4.8936588
20
52.9754049
40
0.2763326
50
267.3508016
51
299.8994107
0
ARC
8
DEFAULT_255_2_778
10
4.9367618
20
52.8845193
40
0.1762365
50
302.4811362
51
311.5203952
0
ARC
8
DEFAULT_255_2_778
10
4.9200457
20
52.8933603
40
0.1940508
50
313.4857761
51
3.7251049
0
ARC
8
DEFAULT_255_2_778
10
4.913543
20
52.9150902
40
0.2003512
50
357.3902866
51
45.6539971
0
ARC
8
DEFAULT_255_2_778
10
4.8968797
20
52.8815124
40
0.2362939
50
48.4566876
51
91.9627964
0
LINE
8
DEFAULT_255_2_778
10
4.8792865
20
52.5845677
11
4.6281865
21
52.5845677
0
LINE
8
DEFAULT_255_2_778
10
4.6281865
20
52.5845677
11
4.6281865
21
52.1670677
0
LINE
8
DEFAULT_255_2_778
10
4.6281865
20
52.1670677
11
4.4876865
21
52.1670677
0
LINE
8
DEFAULT_255_2_778
10
4.4876865
20
52.1670677
11
4.4876865
21
53.2335677
0
LINE
8
DEFAULT_255_2_778
10
4.4876865
20
53.2335677
11
4.8810865
21
53.2335677
0
LINE
8
DEFAULT_255_2_778
10
4.8794865
20
52.5845677
11
4.8792865
21
52.5845677
0
LINE
8
DEFAULT_255_2_778
10
4.6281865
20
53.1176677
11
4.6281865
21
52.6993677
0
LINE
8
DEFAULT_255_2_778
10
4.6281865
20
52.6993677
11
4.8808865
21
52.6993677
0
LINE
8
DEFAULT_255_2_778
10
4.8887865
20
53.1176677
11
4.6281865
21
53.1176677
0
LINE
8
DEFAULT_255_2_778
10
4.6281865
20
53.1176677
11
4.6281865
21
53.1176677
0
ARC
8
DEFAULT_255_2_778
10
5.5811129
20
52.6527044
40
0.6731253
50
338.5911146
51
1.1164347
0
ARC
8
DEFAULT_255_2_778
10
5.728992
20
52.6049675
40
0.5181128
50
335.7561769
51
337.5365194
0
ARC
8
DEFAULT_255_2_778
10
5.8355818
20
52.5471318
40
0.3972762
50
302.9925299
51
337.0495213
0
ARC
8
DEFAULT_255_2_778
10
5.8355018
20
52.5625545
40
0.4103399
50
268.7025313
51
301.8291853
0
ARC
8
DEFAULT_255_2_778
10
5.8188764
20
52.5595826
40
0.4073288
50
237.9809887
51
271.0316733
0
ARC
8
DEFAULT_255_2_778
10
5.8261046
20
52.5586461
40
0.4104207
50
204.1518664
51
237.0560694
0
ARC
8
DEFAULT_255_2_778
10
6.0309523
20
52.6498932
40
0.6346715
50
179.446903
51
204.1017485
0
ARC
8
DEFAULT_255_2_778
10
6.0490062
20
52.7458364
40
0.6528216
50
156.6366533
51
181.1249382
0
ARC
8
DEFAULT_255_2_778
10
5.8230053
20
52.8453528
40
0.4058902
50
123.1400121
51
156.8814067
0
ARC
8
DEFAULT_255_2_778
10
5.8179328
20
52.8420622
40
0.4059176
50
89.0150508
51
122.2865343
0
ARC
8
DEFAULT_255_2_778
10
5.8330671
20
52.8341817
40
0.4138185
50
58.2359568
51
91.1294223
0
ARC
8
DEFAULT_255_2_778
10
5.834955
20
52.8520254
40
0.3977298
50
22.8731368
51
57.11394
0
ARC
8
DEFAULT_255_2_778
10
5.59736
20
52.7489096
40
0.6567278
50
359.4615837
51
23.1048821
0
ARC
8
DEFAULT_255_2_778
10
5.3423995
20
52.7330573
40
0.9117109
50
359.9976437
51
0.6084104
0
ARC
8
DEFAULT_255_2_778
10
5.4882777
20
52.747387
40
0.6259569
50
358.8587625
51
16.6629729
0
ARC
8
DEFAULT_255_2_778
10
5.7682112
20
52.8275019
40
0.3348244
50
17.2649563
51
36.3419365
0
ARC
8
DEFAULT_255_2_778
10
5.8359791
20
52.8761796
40
0.2513928
50
36.5584185
51
92.5691487
0
ARC
8
DEFAULT_255_2_778
10
5.8152628
20
52.8789279
40
0.2485714
50
87.8217999
51
143.7473859
0
ARC
8
DEFAULT_255_2_778
10
5.9462215
20
52.7911848
40
0.4061204
50
144.6904544
51
174.2190947
0
ARC
8
DEFAULT_255_2_778
10
6.2684021
20
52.7370454
40
0.7324287
50
172.5438206
51
179.4231153
0
ARC
8
DEFAULT_255_2_778
10
6.1228853
20
52.6534746
40
0.587011
50
178.7656616
51
198.731354
0
ARC
8
DEFAULT_255_2_778
10
5.8953667
20
52.5823045
40
0.3487342
50
199.6617702
51
216.0211178
0
ARC
8
DEFAULT_255_2_778
10
5.8168488
20
52.5213582
40
0.2494068
50
215.3047427
51
272.1051677
0
ARC
8
DEFAULT_255_2_778
10
5.8380065
20
52.5204037
40
0.2485735
50
267.233863
51
323.1474491
0
ARC
8
DEFAULT_255_2_778
10
5.7165257
20
52.5968123
40
0.3917822
50
324.8614357
51
352.9104659
0
ARC
8
DEFAULT_255_2_778
10
5.3607654
20
52.6614088
40
0.7530657
50
351.3738014
51
359.5747607
0
LINE
8
DEFAULT_255_2_778
10
6.2541104
20
52.7333198
11
6.2541104
21
52.6658198
0
LINE
8
DEFAULT_255_2_778
10
5.3963104
20
52.6560198
11
5.3963104
21
52.7330198
0
LINE
8
DEFAULT_255_2_778
10
6.2541104
20
52.7330198
11
6.2541104
21
52.7333198
0
LINE
8
DEFAULT_255_2_778
10
6.1141104
20
52.6558198
11
6.1141104
21
52.7349198
0
LINE
8
DEFAULT_255_2_778
10
5.5360104
20
52.7444198
11
5.5360104
21
52.6661198
0
LINE
8
DEFAULT_255_2_778
10
6.1138104
20
52.6558198
11
6.1141104
21
52.6558198
0
ARC
8
DEFAULT_255_2_778
10
6.8298987
20
52.7142792
40
0.5194442
50
69.7561446
51
91.4027862
0
ARC
8
DEFAULT_255_2_778
10
6.8985728
20
52.9168938
40
0.3056357
50
50.1587364
51
68.6920496
0
ARC
8
DEFAULT_255_2_778
10
6.9030974
20
52.9360501
40
0.2881627
50
358.7538712
51
48.4090087
0
ARC
8
DEFAULT_255_2_778
10
6.7050041
20
52.9129764
40
0.4864782
50
359.9871987
51
1.9798623
0
ARC
8
DEFAULT_255_2_778
10
6.9040287
20
52.9067771
40
0.2875181
50
324.3905515
51
1.2138012
0
ARC
8
DEFAULT_255_2_778
10
6.8813637
20
52.9298255
40
0.319413
50
289.5183293
51
323.3964604
0
ARC
8
DEFAULT_255_2_778
10
6.8347644
20
52.9568529
40
0.2438258
50
266.971476
51
309.112994
0
ARC
8
DEFAULT_255_2_778
10
6.8675555
20
52.905046
40
0.1830855
50
311.3792121
51
2.3858502
0
ARC
8
DEFAULT_255_2_778
10
6.8582151
20
52.9251216
40
0.1926701
50
356.2938915
51
46.2362981
0
ARC
8
DEFAULT_255_2_778
10
6.8421647
20
52.8795138
40
0.2375495
50
51.0549636
51
90.1580998
0
ARC
8
DEFAULT_255_2_778
10
6.8181035
20
52.6720933
40
0.4455843
50
86.9889719
51
89.6169693
0
LINE
8
DEFAULT_255_2_778
10
7.0875823
20
52.1670677
11
6.8559823
21
52.5982677
0
LINE
8
DEFAULT_255_2_778
10
6.8559823
20
52.5982677
11
6.6054823
21
52.5982677
0
LINE
8
DEFAULT_255_2_778
10
6.6054823
20
52.5982677
11
6.6054823
21
52.1670677
0
LINE
8
DEFAULT_255_2_778
10
6.6054823
20
52.1670677
11
6.4641823
21
52.1670677
0
LINE
8
DEFAULT_255_2_778
10
6.4641823
20
52.1670677
11
6.4641823
21
53.2335677
0
LINE
8
DEFAULT_255_2_778
10
6.4641823
20
53.2335677
11
6.8171823
21
53.2335677
0
LINE
8
DEFAULT_255_2_778
10
6.9880823
20
52.6287677
11
7.2385823
21
52.1760677
0
LINE
8
DEFAULT_255_2_778
10
7.2385823
20
52.1760677
11
7.2385823
21
52.1672677
0
LINE
8
DEFAULT_255_2_778
10
7.2385823
20
52.1672677
11
7.0877823
21
52.1672677
0
LINE
8
DEFAULT_255_2_778
10
7.0877823
20
52.1672677
11
7.0875823
21
52.1670677
0
LINE
8
DEFAULT_255_2_778
10
6.6057823
20
53.1176677
11
6.6057823
21
52.7133677
0
LINE
8
DEFAULT_255_2_778
10
6.6057823
20
52.7133677
11
6.8218823
21
52.7133677
0
LINE
8
DEFAULT_255_2_778
10
6.8210823
20
53.1176677
11
6.6057823
21
53.1176677
0
LINE
8
DEFAULT_255_2_778
10
6.6057823
20
53.1176677
11
6.6057823
21
53.1176677
0
LINE
8
DEFAULT_255_2_778
10
8.0668146
20
53.2336354
11
8.0668146
21
53.1180354
0
LINE
8
DEFAULT_255_2_778
10
8.0668146
20
53.1180354
11
7.7239146
21
53.1180354
0
LINE
8
DEFAULT_255_2_778
10
7.7239146
20
53.1180354
11
7.7239146
21
52.1673354
0
LINE
8
DEFAULT_255_2_778
10
7.7239146
20
52.1673354
11
7.5839146
21
52.1673354
0
LINE
8
DEFAULT_255_2_778
10
7.5839146
20
52.1673354
11
7.5839146
21
53.1180354
0
LINE
8
DEFAULT_255_2_778
10
7.5839146
20
53.1180354
11
7.2418146
21
53.1180354
0
LINE
8
DEFAULT_255_2_778
10
7.2418146
20
53.1180354
11
7.2418146
21
53.2336354
0
LINE
8
DEFAULT_255_2_778
10
7.2418146
20
53.2336354
11
8.0665146
21
53.2336354
0
LINE
8
DEFAULT_255_2_778
10
8.0665146
20
53.2336354
11
8.0668146
21
53.2336354
0
ARC
8
DEFAULT_255_2_778
10
8.4975651
20
52.9901921
40
0.2240441
50
267.7565651
51
309.3411485
0
ARC
8
DEFAULT_255_2_778
10
8.5264398
20
52.9415549
40
0.1683388
50
312.2360072
51
2.6778708
0
ARC
8
DEFAULT_255_2_778
10
8.4945712
20
52.9623252
40
0.2004395
50
356.3084103
51
36.5573574
0
ARC
8
DEFAULT_255_2_778
10
8.5278171
20
52.961637
40
0.1753299
50
43.2241694
51
92.4710064
0
ARC
8
DEFAULT_255_2_778
10
8.5078996
20
52.7833983
40
0.3536214
50
87.9972198
51
90.0169868
0
ARC
8
DEFAULT_255_2_778
10
8.4981741
20
52.9432974
40
0.1939612
50
87.1568853
51
132.3163649
0
ARC
8
DEFAULT_255_2_778
10
8.4904545
20
52.961504
40
0.1754238
50
134.4558711
51
182.477895
0
ARC
8
DEFAULT_255_2_778
10
8.4516363
20
52.9600061
40
0.2720096
50
131.2480679
51
181.2821217
0
ARC
8
DEFAULT_255_2_778
10
8.4952007
20
52.9113062
40
0.3373487
50
87.8605101
51
131.3577218
0
ARC
8
DEFAULT_255_2_778
10
8.5212597
20
52.8844599
40
0.3642089
50
60.0835171
51
92.1187166
0
ARC
8
DEFAULT_255_2_778
10
8.5627489
20
52.973772
40
0.2662434
50
47.00934
51
58.2362767
0
ARC
8
DEFAULT_255_2_778
10
8.542909
20
52.9632696
40
0.2875481
50
357.102918
51
45.5444852
0
ARC
8
DEFAULT_255_2_778
10
8.3584695
20
52.9464791
40
0.4716254
50
0.0049405
51
0.2742167
0
ARC
8
DEFAULT_255_2_778
10
8.596236
20
52.9497796
40
0.2338815
50
323.8521676
51
359.2013873
0
ARC
8
DEFAULT_255_2_778
10
8.5616124
20
52.9677301
40
0.2724929
50
291.6839349
51
325.0988232
0
ARC
8
DEFAULT_255_2_778
10
8.5903526
20
52.4623443
40
0.2622368
50
37.5374133
51
74.0772883
0
ARC
8
DEFAULT_255_2_778
10
8.5897309
20
52.4726611
40
0.2565868
50
358.2264232
51
35.6257059
0
ARC
8
DEFAULT_255_2_778
10
8.555765
20
52.4510104
40
0.2907531
50
312.5801764
51
2.7025711
0
ARC
8
DEFAULT_255_2_778
10
8.5241108
20
52.5035409
40
0.3510642
50
267.4668636
51
310.5829005
0
ARC
8
DEFAULT_255_2_778
10
8.4934425
20
52.5160126
40
0.3635087
50
232.1384017
51
272.3889815
0
ARC
8
DEFAULT_255_2_778
10
8.4701244
20
52.4726924
40
0.3151021
50
229.2395254
51
230.6511281
0
ARC
8
DEFAULT_255_2_778
10
8.4394177
20
52.438822
40
0.2694011
50
177.9157629
51
229.4829773
0
ARC
8
DEFAULT_255_2_778
10
8.4803652
20
52.441035
40
0.1740358
50
177.502151
51
226.9196875
0
ARC
8
DEFAULT_255_2_778
10
8.4980388
20
52.4721632
40
0.2090102
50
229.2099758
51
272.8949346
0
ARC
8
DEFAULT_255_2_778
10
8.522212
20
52.469304
40
0.2063341
50
266.2159679
51
310.4729844
0
ARC
8
DEFAULT_255_2_778
10
8.5503469
20
52.4240293
40
0.1538383
50
313.4481892
51
314.7204192
0
ARC
8
DEFAULT_255_2_778
10
8.5138609
20
52.4487582
40
0.1972668
50
317.1971667
51
3.7964943
0
ARC
8
DEFAULT_255_2_778
10
8.531631
20
52.4731275
40
0.1794204
50
356.3866281
51
47.1747072
0
ARC
8
DEFAULT_255_2_778
10
8.5074206
20
52.41879
40
0.2365096
50
51.8263037
51
89.732018
0
ARC
8
DEFAULT_255_2_778
10
8.4824044
20
52.2117472
40
0.4443184
50
86.6295197
51
89.1759218
0
LINE
8
DEFAULT_255_2_778
10
8.3868948
20
52.6557198
11
8.3868948
21
52.7663198
0
LINE
8
DEFAULT_255_2_778
10
8.3868948
20
52.7663198
11
8.4887948
21
52.7663198
0
LINE
8
DEFAULT_255_2_778
10
8.3151948
20
52.9539198
11
8.1796948
21
52.9539198
0
LINE
8
DEFAULT_255_2_778
10
8.1701948
20
52.4486198
11
8.3064948
21
52.4486198
0
LINE
8
DEFAULT_255_2_778
10
8.4887948
20
52.6560198
11
8.3868948
21
52.6560198
0
LINE
8
DEFAULT_255_2_778
10
8.3868948
20
52.6560198
11
8.3868948
21
52.6557198
0
ARC
8
DEFAULT_255_2_778
10
22.0261987
20
63.7590792
40
0.5194442
50
69.7561446
51
91.4027862
0
ARC
8
DEFAULT_255_2_778
10
22.0948728
20
63.9616938
40
0.3056357
50
50.1587364
51
68.6920496
0
ARC
8
DEFAULT_255_2_778
10
22.0993974
20
63.9808501
40
0.2881627
50
358.7538712
51
48.4090087
0
ARC
8
DEFAULT_255_2_778
10
21.9013041
20
63.9577764
40
0.4864782
50
359.9871987
51
1.9798623
0
ARC
8
DEFAULT_255_2_778
10
22.1003287
20
63.9515771
40
0.2875181
50
324.3905515
51
1.2138012
0
ARC
8
DEFAULT_255_2_778
10
22.0776637
20
63.9746255
40
0.319413
50
289.5183293
51
323.3964604
0
ARC
8
DEFAULT_255_2_778
10
22.0310644
20
64.0016529
40
0.2438258
50
266.971476
51
309.112994
0
ARC
8
DEFAULT_255_2_778
10
22.0638555
20
63.949846
40
0.1830855
50
311.3792121
51
2.3858502
0
ARC
8
DEFAULT_255_2_778
10
22.0545151
20
63.9699216
40
0.1926701
50
356.2938915
51
46.2362981
0
ARC
8
DEFAULT_255_2_778
10
22.0384647
20
63.9243138
40
0.2375495
50
51.0549636
51
90.1580998
0
ARC
8
DEFAULT_255_2_778
10
22.0144035
20
63.7168933
40
0.4455843
50
86.9889719
51
89.6169693
0
LINE
8
DEFAULT_255_2_778
10
22.2838823
20
63.2118677
11
22.0522823
21
63.6430677
0
LINE
8
DEFAULT_255_2_778
10
22.0522823
20
63.6430677
11
21.8017823
21
63.6430677
0
LINE
8
DEFAULT_255_2_778
10
21.8017823
20
63.6430677
11
21.8017823
21
63.2118677
0
LINE
8
DEFAULT_255_2_778
10
21.8017823
20
63.2118677
11
21.6604823
21
63.2118677
0
LINE
8
DEFAULT_255_2_778
10
21.6604823
20
63.2118677
11
21.6604823
21
64.2783677
0
LINE
8
DEFAULT_255_2_778
10
21.6604823
20
64.2783677
11
22.0134823
21
64.2783677
0
LINE
8
DEFAULT_255_2_778
10
22.1843823
20
63.6735677
11
22.4348823
21
63.2208677
0
LINE
8
DEFAULT_255_2_778
10
22.4348823
20
63.2208677
11
22.4348823
21
63.2120677
0
LINE
8
DEFAULT_255_2_778
10
22.4348823
20
63.2120677
11
22.2840823
21
63.2120677
0
LINE
8
DEFAULT_255_2_778
10
22.2840823
20
63.2120677
11
22.2838823
21
63.2118677
0
LINE
8
DEFAULT_255_2_778
10
21.8020823
20
64.1624677
11
21.8020823
21
63.7581677
0
LINE
8
DEFAULT_255_2_778
10
21.8020823
20
63.7581677
11
22.0181823
21
63.7581677
0
LINE
8
DEFAULT_255_2_778
10
22.0173823
20
64.1624677
11
21.8020823
21
64.1624677
0
LINE
8
DEFAULT_255_2_778
10
21.8020823
20
64.1624677
11
21.8020823
21
64.1624677
0
ARC
8
DEFAULT_255_2_778
10
22.9945163
20
63.542402
40
0.3410269
50
316.1798582
51
1.8104459
0
ARC
8
DEFAULT_255_2_778
10
22.9760921
20
63.5779702
40
0.3791673
50
272.5236893
51
314.2292295
0
ARC
8
DEFAULT_255_2_778
10
22.9434261
20
63.775045
40
0.5779859
50
274.1519146
51
274.8991933
0
ARC
8
DEFAULT_255_2_778
10
22.9342484
20
63.6325407
40
0.4357808
50
241.3476126
51
271.8047752
0
ARC
8
DEFAULT_255_2_778
10
22.8919528
20
63.5366794
40
0.3314956
50
227.7048638
51
239.818029
0
ARC
8
DEFAULT_255_2_778
10
22.9006225
20
63.5368789
40
0.3375359
50
177.9432519
51
226.6390221
0
ARC
8
DEFAULT_255_2_778
10
23.0803435
20
63.5565299
40
0.5170942
50
180.5489196
51
180.8351637
0
ARC
8
DEFAULT_255_2_778
10
22.9481633
20
63.5416448
40
0.2461139
50
176.6384519
51
221.4557184
0
ARC
8
DEFAULT_255_2_778
10
22.909779
20
63.5184234
40
0.2021313
50
223.7263308
51
224.7276628
0
ARC
8
DEFAULT_255_2_778
10
22.9297638
20
63.5526024
40
0.2405998
50
227.1618636
51
272.1611413
0
ARC
8
DEFAULT_255_2_778
10
22.9479232
20
63.7342054
40
0.4221294
50
268.7666156
51
270.0067499
0
ARC
8
DEFAULT_255_2_778
10
22.961412
20
63.573751
40
0.2620198
50
267.0600033
51
305.0293182
0
ARC
8
DEFAULT_255_2_778
10
22.995729
20
63.5102647
40
0.1905182
50
307.5382734
51
315.1393402
0
ARC
8
DEFAULT_255_2_778
10
22.9524802
20
63.5393486
40
0.2418916
50
317.4829942
51
2.9212517
0
ARC
8
DEFAULT_255_2_778
10
22.7801237
20
63.5552469
40
0.4139492
50
359.5057579
51
0.0040291
0
LINE
8
DEFAULT_255_2_778
10
23.1940729
20
64.278376
11
23.3353729
21
64.278376
0
LINE
8
DEFAULT_255_2_778
10
23.3353729
20
64.278376
11
23.3353729
21
63.553176
0
LINE
8
DEFAULT_255_2_778
10
22.9852729
20
63.198576
11
22.9479729
21
63.196976
0
LINE
8
DEFAULT_255_2_778
10
22.5632729
20
63.551576
11
22.5632729
21
64.278076
0
LINE
8
DEFAULT_255_2_778
10
22.5632729
20
64.278076
11
22.7024729
21
64.278076
0
LINE
8
DEFAULT_255_2_778
10
22.7024729
20
64.278076
11
22.7024729
21
63.556076
0
LINE
8
DEFAULT_255_2_778
10
23.1940729
20
63.555276
11
23.1940729
21
64.278076
0
LINE
8
DEFAULT_255_2_778
10
23.1940729
20
64.278076
11
23.1940729
21
64.278376
0
LINE
8
DEFAULT_255_2_778
10
24.3772604
20
64.2783677
11
24.3772604
21
63.2118677
0
LINE
8
DEFAULT_255_2_778
10
24.3772604
20
63.2118677
11
24.2359604
21
63.2118677
0
LINE
8
DEFAULT_255_2_778
10
24.2359604
20
63.2118677
11
23.6991604
21
64.0336677
0
LINE
8
DEFAULT_255_2_778
10
23.6991604
20
64.0336677
11
23.6991604
21
63.2118677
0
LINE
8
DEFAULT_255_2_778
10
23.6991604
20
63.2118677
11
23.5578604
21
63.2118677
0
LINE
8
DEFAULT_255_2_778
10
23.5578604
20
63.2118677
11
23.5578604
21
64.2783677
0
LINE
8
DEFAULT_255_2_778
10
23.5578604
20
64.2783677
11
23.6991604
21
64.2783677
0
LINE
8
DEFAULT_255_2_778
10
23.6991604
20
64.2783677
11
24.2375604
21
63.4528677
0
LINE
8
DEFAULT_255_2_778
10
24.2375604
20
63.4528677
11
24.2375604
21
64.2783677
0
LINE
8
DEFAULT_255_2_778
10
24.2375604
20
64.2783677
11
24.3775604
21
64.2783677
0
LINE
8
DEFAULT_255_2_778
10
24.3775604
20
64.2783677
11
24.3772604
21
64.2783677
0
LINE
8
DEFAULT_255_2_778
10
22.3979146
20
57.2785354
11
22.3979146
21
57.1629354
0
LINE
8
DEFAULT_255_2_778
10
22.3979146
20
57.1629354
11
22.0550146
21
57.1629354
0
LINE
8
DEFAULT_255_2_778
10
22.0550146
20
57.1629354
11
22.0550146
21
56.2122354
0
LINE
8
DEFAULT_255_2_778
10
22.0550146
20
56.2122354
11
21.9150146
21
56.2122354
0
LINE
8
DEFAULT_255_2_778
10
21.9150146
20
56.2122354
11
21.9150146
21
57.1629354
0
LINE
8
DEFAULT_255_2_778
10
21.9150146
20
57.1629354
11
21.5729146
21
57.1629354
0
LINE
8
DEFAULT_255_2_778
10
21.5729146
20
57.1629354
11
21.5729146
21
57.2785354
0
LINE
8
DEFAULT_255_2_778
10
21.5729146
20
57.2785354
11
22.3976146
21
57.2785354
0
LINE
8
DEFAULT_255_2_778
10
22.3976146
20
57.2785354
11
22.3979146
21
57.2785354
0
LINE
8
DEFAULT_255_2_778
10
23.1589011
20
56.8200677
11
23.1589011
21
56.7049677
0
LINE
8
DEFAULT_255_2_778
10
23.1589011
20
56.7049677
11
22.6967011
21
56.7049677
0
LINE
8
DEFAULT_255_2_778
10
22.6967011
20
56.7049677
11
22.6967011
21
56.3271677
0
LINE
8
DEFAULT_255_2_778
10
22.6967011
20
56.3271677
11
23.2335011
21
56.3271677
0
LINE
8
DEFAULT_255_2_778
10
23.2335011
20
56.3271677
11
23.2335011
21
56.2120677
0
LINE
8
DEFAULT_255_2_778
10
23.2335011
20
56.2120677
11
22.5559011
21
56.2120677
0
LINE
8
DEFAULT_255_2_778
10
22.5559011
20
56.2120677
11
22.5559011
21
57.2785677
0
LINE
8
DEFAULT_255_2_778
10
22.5559011
20
57.2785677
11
23.2261011
21
57.2785677
0
LINE
8
DEFAULT_255_2_778
10
23.2261011
20
57.2785677
11
23.2261011
21
57.1629677
0
LINE
8
DEFAULT_255_2_778
10
23.2261011
20
57.1629677
11
22.6967011
21
57.1629677
0
LINE
8
DEFAULT_255_2_778
10
22.6967011
20
57.1629677
11
22.6967011
21
56.8200677
0
LINE
8
DEFAULT_255_2_778
10
22.6967011
20
56.8200677
11
23.1589011
21
56.8200677
0
LINE
8
DEFAULT_255_2_778
10
23.1589011
20
56.8200677
11
23.1589011
21
56.8200677
0
ARC
8
DEFAULT_255_2_778
10
23.7734987
20
56.7592792
40
0.5194442
50
69.7561446
51
91.4027862
0
ARC
8
DEFAULT_255_2_778
10
23.8421728
20
56.9618938
40
0.3056357
50
50.1587364
51
68.6920496
0
ARC
8
DEFAULT_255_2_778
10
23.8466974
20
56.9810501
40
0.2881627
50
358.7538712
51
48.4090087
0
ARC
8
DEFAULT_255_2_778
10
23.6486041
20
56.9579764
40
0.4864782
50
359.9871987
51
1.9798623
0
ARC
8
DEFAULT_255_2_778
10
23.8476287
20
56.9517771
40
0.2875181
50
324.3905515
51
1.2138012
0
ARC
8
DEFAULT_255_2_778
10
23.8249637
20
56.9748255
40
0.319413
50
289.5183293
51
323.3964604
0
ARC
8
DEFAULT_255_2_778
10
23.7783644
20
57.0018529
40
0.2438258
50
266.971476
51
309.112994
0
ARC
8
DEFAULT_255_2_778
10
23.8111555
20
56.950046
40
0.1830855
50
311.3792121
51
2.3858502
0
ARC
8
DEFAULT_255_2_778
10
23.8018151
20
56.9701216
40
0.1926701
50
356.2938915
51
46.2362981
0
ARC
8
DEFAULT_255_2_778
10
23.7857647
20
56.9245138
40
0.2375495
50
51.0549636
51
90.1580998
0
ARC
8
DEFAULT_255_2_778
10
23.7617035
20
56.7170933
40
0.4455843
50
86.9889719
51
89.6169693
0
LINE
8
DEFAULT_255_2_778
10
24.0311823
20
56.2120677
11
23.7995823
21
56.6432677
0
LINE
8
DEFAULT_255_2_778
10
23.7995823
20
56.6432677
11
23.5490823
21
56.6432677
0
LINE
8
DEFAULT_255_2_778
10
23.5490823
20
56.6432677
11
23.5490823
21
56.2120677
0
LINE
8
DEFAULT_255_2_778
10
23.5490823
20
56.2120677
11
23.4077823
21
56.2120677
0
LINE
8
DEFAULT_255_2_778
10
23.4077823
20
56.2120677
11
23.4077823
21
57.2785677
0
LINE
8
DEFAULT_255_2_778
10
23.4077823
20
57.2785677
11
23.7607823
21
57.2785677
0
LINE
8
DEFAULT_255_2_778
10
23.9316823
20
56.6737677
11
24.1821823
21
56.2210677
0
LINE
8
DEFAULT_255_2_778
10
24.1821823
20
56.2210677
11
24.1821823
21
56.2122677
0
LINE
8
DEFAULT_255_2_778
10
24.1821823
20
56.2122677
11
24.0313823
21
56.2122677
0
LINE
8
DEFAULT_255_2_778
10
24.0313823
20
56.2122677
11
24.0311823
21
56.2120677
0
LINE
8
DEFAULT_255_2_778
10
23.5493823
20
57.1626677
11
23.5493823
21
56.7583677
0
LINE
8
DEFAULT_255_2_778
10
23.5493823
20
56.7583677
11
23.7654823
21
56.7583677
0
LINE
8
DEFAULT_255_2_778
10
23.7646823
20
57.1626677
11
23.5493823
21
57.1626677
0
LINE
8
DEFAULT_255_2_778
10
23.5493823
20
57.1626677
11
23.5493823
21
57.1626677
0
LINE
8
DEFAULT_255_2_778
10
24.3322458
20
57.2785
11
24.5140458
21
57.2785
0
LINE
8
DEFAULT_255_2_778
10
24.5140458
20
57.2785
11
24.8627458
21
56.4083
0
LINE
8
DEFAULT_255_2_778
10
24.8627458
20
56.4083
11
25.2114458
21
57.2785
0
LINE
8
DEFAULT_255_2_778
10
25.2114458
20
57.2785
11
25.3937458
21
57.2785
0
LINE
8
DEFAULT_255_2_778
10
25.3937458
20
57.2785
11
25.3937458
21
56.212
0
LINE
8
DEFAULT_255_2_778
10
25.3937458
20
56.212
11
25.2532458
21
56.212
0
LINE
8
DEFAULT_255_2_778
10
25.2532458
20
56.212
11
25.2532458
21
56.6274
0
LINE
8
DEFAULT_255_2_778
10
25.2532458
20
56.6274
11
25.2664458
21
57.0756
0
LINE
8
DEFAULT_255_2_778
10
25.2664458
20
57.0756
11
24.9164458
21
56.212
0
LINE
8
DEFAULT_255_2_778
10
24.9164458
20
56.212
11
24.8087458
21
56.212
0
LINE
8
DEFAULT_255_2_778
10
24.8087458
20
56.212
11
24.4595458
21
57.0732
0
LINE
8
DEFAULT_255_2_778
10
24.4595458
20
57.0732
11
24.4735458
21
56.6271
0
LINE
8
DEFAULT_255_2_778
10
24.4735458
20
56.6271
11
24.4735458
21
56.2117
0
LINE
8
DEFAULT_255_2_778
10
24.4735458
20
56.2117
11
24.3330458
21
56.2117
0
LINE
8
DEFAULT_255_2_778
10
24.3330458
20
56.2117
11
24.3330458
21
57.2782
0
LINE
8
DEFAULT_255_2_778
10
24.3330458
20
57.2782
11
24.3322458
21
57.2785
0
LINE
8
DEFAULT_255_2_778
10
42.9375105
20
75.469775
11
42.9375105
21
76.669875
0
LINE
8
DEFAULT_255_2_778
10
42.9375105
20
76.669875
11
34.6375105
21
76.669875
0
LINE
8
DEFAULT_255_2_778
10
34.6375105
20
76.669875
11
34.6375105
21
75.469775
0
LINE
8
DEFAULT_255_2_778
10
38.9375546
20
5.4697084
11
38.9375546
21
75.4697084
0
LINE
8
DEFAULT_255_2_778
10
38.9375546
20
75.4697084
11
43.0375546
21
75.4697084
0
LINE
8
DEFAULT_255_2_778
10
43.0375546
20
75.4697084
11
43.0375546
21
5.4697084
0
LINE
8
DEFAULT_255_2_778
10
43.0375546
20
5.4697084
11
31.9374546
21
5.4697084
0
LINE
8
DEFAULT_255_2_778
10
31.9374546
20
5.4697084
11
31.9374546
21
75.4697084
0
LINE
8
DEFAULT_255_2_778
10
31.9374546
20
75.4697084
11
38.9375546
21
75.4697084
0
LINE
8
DEFAULT_255_2_778
10
35.2373439
20
75.4697437
11
35.2373439
21
76.1698437
0
LINE
8
DEFAULT_255_2_778
10
35.2373439
20
76.1698437
11
42.4874439
21
76.1698437
0
LINE
8
DEFAULT_255_2_778
10
42.4874439
20
76.1698437
11
42.4874439
21
75.4697437
0
LINE
8
DEFAULT_255_2_778
10
42.4874439
20
5.4696437
11
42.4874439
21
4.7695437
0
LINE
8
DEFAULT_255_2_778
10
42.4874439
20
4.7695437
11
35.2373439
21
4.7695437
0
LINE
8
DEFAULT_255_2_778
10
35.2373439
20
4.7695437
11
35.2373439
21
5.4696437
0
LINE
8
DEFAULT_255_2_778
10
35.2373
20
4.2697312
11
35.2373
21
4.7698312
0
LINE
8
DEFAULT_255_2_778
10
40.7875
20
4.2697312
11
40.7875
21
4.7698312
0
LINE
8
DEFAULT_255_2_778
10
35.2373
20
76.1697312
11
35.2373
21
76.6698312
0
LINE
8
DEFAULT_255_2_778
10
37.4374
20
76.1697312
11
37.4374
21
76.6698312
0
LINE
8
DEFAULT_255_2_778
10
42.8875
20
4.2697427
11
42.8875
21
5.4696427
0
LINE
8
DEFAULT_255_2_778
10
42.7875
20
5.4696427
11
42.7875
21
4.2697427
0
LINE
8
DEFAULT_255_2_778
10
34.6375105
20
5.4696427
11
34.6375105
21
4.2697427
0
LINE
8
DEFAULT_255_2_778
10
34.6375105
20
4.2697427
11
42.9375105
21
4.2697427
0
LINE
8
DEFAULT_255_2_778
10
42.9375105
20
4.2697427
11
42.9375105
21
5.4696427
0
LINE
8
DEFAULT_255_2_778
10
33.1373084
20
74.9199177
11
37.2373084
21
74.9199177
0
LINE
8
DEFAULT_255_2_778
10
37.2373084
20
74.9199177
11
36.7372084
21
74.4198177
0
LINE
8
DEFAULT_255_2_778
10
36.7372084
20
74.4198177
11
36.7372084
21
73.0199177
0
LINE
8
DEFAULT_255_2_778
10
36.7372084
20
73.0199177
11
37.2373084
21
72.5199177
0
LINE
8
DEFAULT_255_2_778
10
37.2373084
20
72.5199177
11
33.1373084
21
72.5199177
0
LINE
8
DEFAULT_255_2_778
10
33.1373084
20
72.5199177
11
33.6374084
21
73.0199177
0
LINE
8
DEFAULT_255_2_778
10
36.7375084
20
74.4198177
11
33.6374084
21
74.4198177
0
LINE
8
DEFAULT_255_2_778
10
37.2373084
20
74.9199177
11
37.2373084
21
72.5199177
0
LINE
8
DEFAULT_255_2_778
10
33.1373084
20
72.5199177
11
33.1373084
21
74.9199177
0
LINE
8
DEFAULT_255_2_778
10
33.1373084
20
74.9199177
11
33.6374084
21
74.4198177
0
LINE
8
DEFAULT_255_2_778
10
33.6374084
20
74.4198177
11
33.6374084
21
73.0199177
0
LINE
8
DEFAULT_255_2_778
10
33.6374084
20
73.0199177
11
36.7375084
21
73.0199177
0
LINE
8
DEFAULT_255_2_778
10
33.6374084
20
69.5197177
11
33.1373084
21
69.0197177
0
LINE
8
DEFAULT_255_2_778
10
33.1373084
20
69.0197177
11
33.1373084
21
71.4197177
0
LINE
8
DEFAULT_255_2_778
10
33.1373084
20
71.4197177
11
37.2373084
21
71.4197177
0
LINE
8
DEFAULT_255_2_778
10
37.2373084
20
71.4197177
11
36.7372084
21
70.9196177
0
LINE
8
DEFAULT_255_2_778
10
36.7372084
20
70.9196177
11
33.6371084
21
70.9196177
0
LINE
8
DEFAULT_255_2_778
10
36.7372084
20
69.5197177
11
37.2373084
21
69.0197177
0
LINE
8
DEFAULT_255_2_778
10
37.2373084
20
69.0197177
11
33.1373084
21
69.0197177
0
LINE
8
DEFAULT_255_2_778
10
37.2373084
20
71.4197177
11
37.2373084
21
69.0197177
0
LINE
8
DEFAULT_255_2_778
10
33.1373084
20
71.4197177
11
33.6374084
21
70.9196177
0
LINE
8
DEFAULT_255_2_778
10
33.6374084
20
70.9196177
11
33.6374084
21
69.5197177
0
LINE
8
DEFAULT_255_2_778
10
33.6374084
20
69.5197177
11
36.7375084
21
69.5197177
0
LINE
8
DEFAULT_255_2_778
10
36.7375084
20
69.5197177
11
36.7375084
21
70.9196177
0
LINE
8
DEFAULT_255_2_778
10
36.7372761
20
66.0198177
11
36.7372761
21
67.4197177
0
LINE
8
DEFAULT_255_2_778
10
33.6371761
20
66.0198177
11
33.1370761
21
65.5198177
0
LINE
8
DEFAULT_255_2_778
10
33.1370761
20
65.5198177
11
33.1370761
21
67.9198177
0
LINE
8
DEFAULT_255_2_778
10
33.1370761
20
67.9198177
11
37.2370761
21
67.9198177
0
LINE
8
DEFAULT_255_2_778
10
37.2370761
20
67.9198177
11
37.2370761
21
65.5198177
0
LINE
8
DEFAULT_255_2_778
10
33.1370761
20
67.9198177
11
33.6371761
21
67.4197177
0
LINE
8
DEFAULT_255_2_778
10
33.6371761
20
67.4197177
11
33.6371761
21
66.0198177
0
LINE
8
DEFAULT_255_2_778
10
33.6371761
20
66.0198177
11
36.7372761
21
66.0198177
0
LINE
8
DEFAULT_255_2_778
10
36.7372761
20
66.0198177
11
37.2372761
21
65.5198177
0
LINE
8
DEFAULT_255_2_778
10
37.2372761
20
65.5198177
11
33.1373761
21
65.5198177
0
LINE
8
DEFAULT_255_2_778
10
37.2372761
20
67.9198177
11
36.7372761
21
67.4197177
0
LINE
8
DEFAULT_255_2_778
10
36.7372761
20
67.4197177
11
33.6371761
21
67.4197177
0
LINE
8
DEFAULT_255_2_778
10
33.6374761
20
62.5199177
11
33.1373761
21
62.0199177
0
LINE
8
DEFAULT_255_2_778
10
33.1373761
20
62.0199177
11
33.1373761
21
64.4199177
0
LINE
8
DEFAULT_255_2_778
10
33.1373761
20
64.4199177
11
37.2373761
21
64.4199177
0
LINE
8
DEFAULT_255_2_778
10
37.2373761
20
64.4199177
11
37.2373761
21
62.0199177
0
LINE
8
DEFAULT_255_2_778
10
33.1373761
20
64.4199177
11
33.6374761
21
63.9198177
0
LINE
8
DEFAULT_255_2_778
10
33.6374761
20
63.9198177
11
33.6374761
21
62.5199177
0
LINE
8
DEFAULT_255_2_778
10
33.6374761
20
62.5199177
11
36.7375761
21
62.5199177
0
LINE
8
DEFAULT_255_2_778
10
36.7375761
20
62.5199177
11
37.2375761
21
62.0199177
0
LINE
8
DEFAULT_255_2_778
10
37.2375761
20
62.0199177
11
33.1376761
21
62.0199177
0
LINE
8
DEFAULT_255_2_778
10
37.2375761
20
64.4199177
11
36.7375761
21
63.9198177
0
LINE
8
DEFAULT_255_2_778
10
36.7375761
20
63.9198177
11
33.6374761
21
63.9198177
0
LINE
8
DEFAULT_255_2_778
10
36.7375761
20
62.5199177
11
36.7375761
21
63.9198177
0
LINE
8
DEFAULT_255_2_778
10
36.7372761
20
60.4196177
11
37.2372761
21
60.9197177
0
LINE
8
DEFAULT_255_2_778
10
37.2372761
20
60.9197177
11
37.2372761
21
58.5197177
0
LINE
8
DEFAULT_255_2_778
10
37.2372761
20
58.5197177
11
33.1373761
21
58.5197177
0
LINE
8
DEFAULT_255_2_778
10
33.1373761
20
58.5197177
11
33.1373761
21
60.9197177
0
LINE
8
DEFAULT_255_2_778
10
37.2372761
20
58.5197177
11
36.7372761
21
59.0197177
0
LINE
8
DEFAULT_255_2_778
10
36.7372761
20
59.0197177
11
36.7372761
21
60.4196177
0
LINE
8
DEFAULT_255_2_778
10
36.7372761
20
60.4196177
11
33.6371761
21
60.4196177
0
LINE
8
DEFAULT_255_2_778
10
33.6371761
20
60.4196177
11
33.1370761
21
60.9197177
0
LINE
8
DEFAULT_255_2_778
10
33.1370761
20
60.9197177
11
37.2370761
21
60.9197177
0
LINE
8
DEFAULT_255_2_778
10
33.6371761
20
60.4196177
11
33.6371761
21
59.0197177
0
LINE
8
DEFAULT_255_2_778
10
33.1370761
20
58.5197177
11
33.6371761
21
59.0197177
0
LINE
8
DEFAULT_255_2_778
10
33.6371761
20
59.0197177
11
36.7372761
21
59.0197177
0
LINE
8
DEFAULT_255_2_778
10
37.2373761
20
55.0198177
11
33.1373761
21
55.0198177
0
LINE
8
DEFAULT_255_2_778
10
33.1373761
20
55.0198177
11
33.6374761
21
55.5198177
0
LINE
8
DEFAULT_255_2_778
10
33.6374761
20
55.5198177
11
36.7375761
21
55.5198177
0
LINE
8
DEFAULT_255_2_778
10
37.2375761
20
57.4198177
11
37.2375761
21
55.0198177
0
LINE
8
DEFAULT_255_2_778
10
37.2375761
20
55.0198177
11
36.7375761
21
55.5198177
0
LINE
8
DEFAULT_255_2_778
10
36.7375761
20
55.5198177
11
36.7375761
21
56.9197177
0
LINE
8
DEFAULT_255_2_778
10
36.7375761
20
56.9197177
11
33.6374761
21
56.9197177
0
LINE
8
DEFAULT_255_2_778
10
33.6374761
20
56.9197177
11
33.6374761
21
55.5198177
0
LINE
8
DEFAULT_255_2_778
10
33.6374761
20
56.9197177
11
33.1373761
21
57.4198177
0
LINE
8
DEFAULT_255_2_778
10
33.1373761
20
57.4198177
11
37.2373761
21
57.4198177
0
LINE
8
DEFAULT_255_2_778
10
37.2373761
20
57.4198177
11
36.7372761
21
56.9197177
0
LINE
8
DEFAULT_255_2_778
10
33.1373761
20
55.0198177
11
33.1373761
21
57.4198177
0
LINE
8
DEFAULT_255_2_778
10
33.1373761
20
51.5199177
11
33.1373761
21
53.9199177
0
LINE
8
DEFAULT_255_2_778
10
33.6374761
20
53.4198177
11
33.6374761
21
52.0199177
0
LINE
8
DEFAULT_255_2_778
10
37.2372761
20
53.9199177
11
37.2372761
21
51.5199177
0
LINE
8
DEFAULT_255_2_778
10
37.2372761
20
51.5199177
11
36.7372761
21
52.0199177
0
LINE
8
DEFAULT_255_2_778
10
36.7372761
20
52.0199177
11
36.7372761
21
53.4198177
0
LINE
8
DEFAULT_255_2_778
10
36.7372761
20
53.4198177
11
33.6371761
21
53.4198177
0
LINE
8
DEFAULT_255_2_778
10
33.6371761
20
53.4198177
11
33.1370761
21
53.9199177
0
LINE
8
DEFAULT_255_2_778
10
33.1370761
20
53.9199177
11
37.2370761
21
53.9199177
0
LINE
8
DEFAULT_255_2_778
10
37.2370761
20
53.9199177
11
36.7369761
21
53.4198177
0
LINE
8
DEFAULT_255_2_778
10
37.2370761
20
51.5199177
11
33.1370761
21
51.5199177
0
LINE
8
DEFAULT_255_2_778
10
33.1370761
20
51.5199177
11
33.6371761
21
52.0199177
0
LINE
8
DEFAULT_255_2_778
10
33.6371761
20
52.0199177
11
36.7372761
21
52.0199177
0
LINE
8
DEFAULT_255_2_778
10
33.1373761
20
48.0197177
11
33.1373761
21
50.4197177
0
LINE
8
DEFAULT_255_2_778
10
33.6374761
20
49.9196177
11
33.6374761
21
48.5197177
0
LINE
8
DEFAULT_255_2_778
10
37.2372761
20
50.4197177
11
37.2372761
21
48.0197177
0
LINE
8
DEFAULT_255_2_778
10
37.2372761
20
48.0197177
11
36.7372761
21
48.5197177
0
LINE
8
DEFAULT_255_2_778
10
36.7372761
20
48.5197177
11
36.7372761
21
49.9196177
0
LINE
8
DEFAULT_255_2_778
10
36.7372761
20
49.9196177
11
33.6371761
21
49.9196177
0
LINE
8
DEFAULT_255_2_778
10
33.6371761
20
49.9196177
11
33.1370761
21
50.4197177
0
LINE
8
DEFAULT_255_2_778
10
33.1370761
20
50.4197177
11
37.2370761
21
50.4197177
0
LINE
8
DEFAULT_255_2_778
10
37.2370761
20
50.4197177
11
36.7369761
21
49.9196177
0
LINE
8
DEFAULT_255_2_778
10
37.2370761
20
48.0197177
11
33.1370761
21
48.0197177
0
LINE
8
DEFAULT_255_2_778
10
33.1370761
20
48.0197177
11
33.6371761
21
48.5197177
0
LINE
8
DEFAULT_255_2_778
10
33.6371761
20
48.5197177
11
36.7372761
21
48.5197177
0
LINE
8
DEFAULT_255_2_778
10
33.1373084
20
44.5198177
11
33.1373084
21
46.9198177
0
LINE
8
DEFAULT_255_2_778
10
37.2373084
20
46.9198177
11
37.2373084
21
44.5198177
0
LINE
8
DEFAULT_255_2_778
10
36.7372084
20
45.0198177
11
37.2373084
21
44.5198177
0
LINE
8
DEFAULT_255_2_778
10
37.2373084
20
44.5198177
11
33.1373084
21
44.5198177
0
LINE
8
DEFAULT_255_2_778
10
33.1373084
20
44.5198177
11
33.6374084
21
45.0198177
0
LINE
8
DEFAULT_255_2_778
10
33.6374084
20
45.0198177
11
36.7375084
21
45.0198177
0
LINE
8
DEFAULT_255_2_778
10
36.7375084
20
45.0198177
11
36.7375084
21
46.4197177
0
LINE
8
DEFAULT_255_2_778
10
33.6374084
20
46.4197177
11
33.1373084
21
46.9198177
0
LINE
8
DEFAULT_255_2_778
10
33.1373084
20
46.9198177
11
37.2373084
21
46.9198177
0
LINE
8
DEFAULT_255_2_778
10
37.2373084
20
46.9198177
11
36.7372084
21
46.4197177
0
LINE
8
DEFAULT_255_2_778
10
36.7372084
20
46.4197177
11
33.6371084
21
46.4197177
0
LINE
8
DEFAULT_255_2_778
10
33.6371084
20
46.4197177
11
33.6371084
21
45.0198177
0
LINE
8
DEFAULT_255_2_778
10
37.2373761
20
41.0199177
11
33.1373761
21
41.0199177
0
LINE
8
DEFAULT_255_2_778
10
33.1373761
20
41.0199177
11
33.6374761
21
41.5199177
0
LINE
8
DEFAULT_255_2_778
10
33.6374761
20
41.5199177
11
36.7375761
21
41.5199177
0
LINE
8
DEFAULT_255_2_778
10
36.7375761
20
42.9198177
11
37.2375761
21
43.4199177
0
LINE
8
DEFAULT_255_2_778
10
37.2375761
20
43.4199177
11
37.2375761
21
41.0199177
0
LINE
8
DEFAULT_255_2_778
10
37.2375761
20
41.0199177
11
36.7375761
21
41.5199177
0
LINE
8
DEFAULT_255_2_778
10
36.7375761
20
41.5199177
11
36.7375761
21
42.9198177
0
LINE
8
DEFAULT_255_2_778
10
36.7375761
20
42.9198177
11
33.6374761
21
42.9198177
0
LINE
8
DEFAULT_255_2_778
10
33.1373761
20
41.0199177
11
33.1373761
21
43.4199177
0
LINE
8
DEFAULT_255_2_778
10
33.1373761
20
43.4199177
11
33.6374761
21
42.9198177
0
LINE
8
DEFAULT_255_2_778
10
33.6374761
20
42.9198177
11
33.6374761
21
41.5199177
0
LINE
8
DEFAULT_255_2_778
10
33.1373761
20
43.4199177
11
37.2373761
21
43.4199177
0
LINE
8
DEFAULT_255_2_778
10
37.2372761
20
39.9197177
11
37.2372761
21
37.5197177
0
LINE
8
DEFAULT_255_2_778
10
37.2372761
20
37.5197177
11
36.7372761
21
38.0197177
0
LINE
8
DEFAULT_255_2_778
10
36.7372761
20
38.0197177
11
36.7372761
21
39.4196177
0
LINE
8
DEFAULT_255_2_778
10
36.7372761
20
39.4196177
11
33.6371761
21
39.4196177
0
LINE
8
DEFAULT_255_2_778
10
33.6371761
20
39.4196177
11
33.1370761
21
39.9197177
0
LINE
8
DEFAULT_255_2_778
10
33.1370761
20
39.9197177
11
37.2370761
21
39.9197177
0
LINE
8
DEFAULT_255_2_778
10
37.2370761
20
39.9197177
11
36.7369761
21
39.4196177
0
LINE
8
DEFAULT_255_2_778
10
37.2370761
20
37.5197177
11
33.1370761
21
37.5197177
0
LINE
8
DEFAULT_255_2_778
10
33.1370761
20
37.5197177
11
33.6371761
21
38.0197177
0
LINE
8
DEFAULT_255_2_778
10
33.6371761
20
38.0197177
11
36.7372761
21
38.0197177
0
LINE
8
DEFAULT_255_2_778
10
33.6371761
20
39.4196177
11
33.6371761
21
38.0197177
0
LINE
8
DEFAULT_255_2_778
10
33.1370761
20
37.5197177
11
33.1370761
21
39.9197177
0
LINE
8
DEFAULT_255_2_778
10
33.1373438
20
36.4198177
11
37.2373438
21
36.4198177
0
LINE
8
DEFAULT_255_2_778
10
37.2373438
20
36.4198177
11
36.7372438
21
35.9197177
0
LINE
8
DEFAULT_255_2_778
10
36.7372438
20
35.9197177
11
33.6371438
21
35.9197177
0
LINE
8
DEFAULT_255_2_778
10
33.6371438
20
35.9197177
11
33.6371438
21
34.5198177
0
LINE
8
DEFAULT_255_2_778
10
37.2370438
20
36.4198177
11
37.2370438
21
34.0198177
0
LINE
8
DEFAULT_255_2_778
10
37.2370438
20
34.0198177
11
36.7370438
21
34.5198177
0
LINE
8
DEFAULT_255_2_778
10
36.7370438
20
34.5198177
11
33.6369438
21
34.5198177
0
LINE
8
DEFAULT_255_2_778
10
33.6369438
20
34.5198177
11
33.1368438
21
34.0198177
0
LINE
8
DEFAULT_255_2_778
10
33.1368438
20
34.0198177
11
33.1368438
21
36.4198177
0
LINE
8
DEFAULT_255_2_778
10
33.1368438
20
36.4198177
11
33.6369438
21
35.9197177
0
LINE
8
DEFAULT_255_2_778
10
37.2368438
20
34.0198177
11
33.1368438
21
34.0198177
0
LINE
8
DEFAULT_255_2_778
10
36.7367438
20
34.5198177
11
36.7367438
21
35.9197177
0
LINE
8
DEFAULT_255_2_778
10
33.1373761
20
30.5197177
11
33.1373761
21
32.9197177
0
LINE
8
DEFAULT_255_2_778
10
37.2373761
20
30.5197177
11
33.1373761
21
30.5197177
0
LINE
8
DEFAULT_255_2_778
10
33.1373761
20
30.5197177
11
33.6374761
21
31.0197177
0
LINE
8
DEFAULT_255_2_778
10
33.6374761
20
31.0197177
11
36.7375761
21
31.0197177
0
LINE
8
DEFAULT_255_2_778
10
37.2375761
20
32.9197177
11
37.2375761
21
30.5197177
0
LINE
8
DEFAULT_255_2_778
10
37.2375761
20
30.5197177
11
36.7375761
21
31.0197177
0
LINE
8
DEFAULT_255_2_778
10
36.7375761
20
31.0197177
11
36.7375761
21
32.4196177
0
LINE
8
DEFAULT_255_2_778
10
36.7375761
20
32.4196177
11
33.6374761
21
32.4196177
0
LINE
8
DEFAULT_255_2_778
10
33.6374761
20
32.4196177
11
33.6374761
21
31.0197177
0
LINE
8
DEFAULT_255_2_778
10
33.6374761
20
32.4196177
11
33.1373761
21
32.9197177
0
LINE
8
DEFAULT_255_2_778
10
33.1373761
20
32.9197177
11
37.2373761
21
32.9197177
0
LINE
8
DEFAULT_255_2_778
10
37.2373761
20
32.9197177
11
36.7372761
21
32.4196177
0
LINE
8
DEFAULT_255_2_778
10
33.1373761
20
27.0198177
11
33.1373761
21
29.4198177
0
LINE
8
DEFAULT_255_2_778
10
37.2372761
20
29.4198177
11
37.2372761
21
27.0198177
0
LINE
8
DEFAULT_255_2_778
10
37.2372761
20
27.0198177
11
36.7372761
21
27.5198177
0
LINE
8
DEFAULT_255_2_778
10
36.7372761
20
27.5198177
11
36.7372761
21
28.9197177
0
LINE
8
DEFAULT_255_2_778
10
36.7372761
20
28.9197177
11
33.6371761
21
28.9197177
0
LINE
8
DEFAULT_255_2_778
10
33.6371761
20
28.9197177
11
33.1370761
21
29.4198177
0
LINE
8
DEFAULT_255_2_778
10
33.1370761
20
29.4198177
11
37.2370761
21
29.4198177
0
LINE
8
DEFAULT_255_2_778
10
37.2370761
20
29.4198177
11
36.7369761
21
28.9197177
0
LINE
8
DEFAULT_255_2_778
10
37.2370761
20
27.0198177
11
33.1370761
21
27.0198177
0
LINE
8
DEFAULT_255_2_778
10
33.1370761
20
27.0198177
11
33.6371761
21
27.5198177
0
LINE
8
DEFAULT_255_2_778
10
33.6371761
20
27.5198177
11
36.7372761
21
27.5198177
0
LINE
8
DEFAULT_255_2_778
10
33.6371761
20
28.9197177
11
33.6371761
21
27.5198177
0
LINE
8
DEFAULT_255_2_778
10
33.1373761
20
23.5198177
11
33.1373761
21
25.9198177
0
LINE
8
DEFAULT_255_2_778
10
37.2373761
20
23.5198177
11
33.1373761
21
23.5198177
0
LINE
8
DEFAULT_255_2_778
10
33.1373761
20
23.5198177
11
33.6374761
21
24.0198177
0
LINE
8
DEFAULT_255_2_778
10
33.6374761
20
24.0198177
11
36.7375761
21
24.0198177
0
LINE
8
DEFAULT_255_2_778
10
37.2375761
20
25.9198177
11
37.2375761
21
23.5198177
0
LINE
8
DEFAULT_255_2_778
10
37.2375761
20
23.5198177
11
36.7375761
21
24.0198177
0
LINE
8
DEFAULT_255_2_778
10
36.7375761
20
24.0198177
11
36.7375761
21
25.4197177
0
LINE
8
DEFAULT_255_2_778
10
36.7375761
20
25.4197177
11
33.6374761
21
25.4197177
0
LINE
8
DEFAULT_255_2_778
10
33.6374761
20
25.4197177
11
33.6374761
21
24.0198177
0
LINE
8
DEFAULT_255_2_778
10
33.6374761
20
25.4197177
11
33.1373761
21
25.9198177
0
LINE
8
DEFAULT_255_2_778
10
33.1373761
20
25.9198177
11
37.2373761
21
25.9198177
0
LINE
8
DEFAULT_255_2_778
10
37.2373761
20
25.9198177
11
36.7372761
21
25.4197177
0
LINE
8
DEFAULT_255_2_778
10
37.2372761
20
22.4197177
11
37.2372761
21
20.0197177
0
LINE
8
DEFAULT_255_2_778
10
37.2372761
20
20.0197177
11
36.7372761
21
20.5197177
0
LINE
8
DEFAULT_255_2_778
10
36.7372761
20
20.5197177
11
36.7372761
21
21.9196177
0
LINE
8
DEFAULT_255_2_778
10
36.7372761
20
21.9196177
11
33.6371761
21
21.9196177
0
LINE
8
DEFAULT_255_2_778
10
33.6371761
20
21.9196177
11
33.1370761
21
22.4197177
0
LINE
8
DEFAULT_255_2_778
10
33.1370761
20
22.4197177
11
37.2370761
21
22.4197177
0
LINE
8
DEFAULT_255_2_778
10
37.2370761
20
22.4197177
11
36.7369761
21
21.9196177
0
LINE
8
DEFAULT_255_2_778
10
37.2370761
20
20.0197177
11
33.1370761
21
20.0197177
0
LINE
8
DEFAULT_255_2_778
10
33.1370761
20
20.0197177
11
33.6371761
21
20.5197177
0
LINE
8
DEFAULT_255_2_778
10
33.6371761
20
20.5197177
11
36.7372761
21
20.5197177
0
LINE
8
DEFAULT_255_2_778
10
33.6371761
20
21.9196177
11
33.6371761
21
20.5197177
0
LINE
8
DEFAULT_255_2_778
10
33.1370761
20
20.0197177
11
33.1370761
21
22.4197177
0
LINE
8
DEFAULT_255_2_778
10
33.1373761
20
18.9198177
11
37.2372761
21
18.9198177
0
LINE
8
DEFAULT_255_2_778
10
37.2372761
20
18.9198177
11
36.7372761
21
18.4197177
0
LINE
8
DEFAULT_255_2_778
10
36.7372761
20
18.4197177
11
33.6371761
21
18.4197177
0
LINE
8
DEFAULT_255_2_778
10
33.6371761
20
18.4197177
11
33.1370761
21
18.9198177
0
LINE
8
DEFAULT_255_2_778
10
33.1370761
20
18.9198177
11
33.1370761
21
16.5198177
0
LINE
8
DEFAULT_255_2_778
10
33.1370761
20
16.5198177
11
33.6371761
21
17.0198177
0
LINE
8
DEFAULT_255_2_778
10
37.2370761
20
16.5198177
11
33.1370761
21
16.5198177
0
LINE
8
DEFAULT_255_2_778
10
33.6371761
20
18.4197177
11
33.6371761
21
17.0198177
0
LINE
8
DEFAULT_255_2_778
10
33.6371761
20
17.0198177
11
36.7372761
21
17.0198177
0
LINE
8
DEFAULT_255_2_778
10
36.7372761
20
17.0198177
11
37.2372761
21
16.5198177
0
LINE
8
DEFAULT_255_2_778
10
37.2372761
20
16.5198177
11
37.2372761
21
18.9198177
0
LINE
8
DEFAULT_255_2_778
10
36.7372761
20
17.0198177
11
36.7372761
21
18.4197177
0
LINE
8
DEFAULT_255_2_778
10
33.6374761
20
14.9198177
11
33.6374761
21
13.5199177
0
LINE
8
DEFAULT_255_2_778
10
33.1373761
20
13.0199177
11
33.1373761
21
15.4199177
0
LINE
8
DEFAULT_255_2_778
10
33.1373761
20
15.4199177
11
37.2372761
21
15.4199177
0
LINE
8
DEFAULT_255_2_778
10
37.2372761
20
15.4199177
11
36.7372761
21
14.9198177
0
LINE
8
DEFAULT_255_2_778
10
36.7372761
20
14.9198177
11
33.6371761
21
14.9198177
0
LINE
8
DEFAULT_255_2_778
10
33.6371761
20
14.9198177
11
33.1370761
21
15.4199177
0
LINE
8
DEFAULT_255_2_778
10
37.2370761
20
13.0199177
11
33.1370761
21
13.0199177
0
LINE
8
DEFAULT_255_2_778
10
33.1370761
20
13.0199177
11
33.6371761
21
13.5199177
0
LINE
8
DEFAULT_255_2_778
10
33.6371761
20
13.5199177
11
36.7372761
21
13.5199177
0
LINE
8
DEFAULT_255_2_778
10
37.2372761
20
15.4199177
11
37.2372761
21
13.0199177
0
LINE
8
DEFAULT_255_2_778
10
37.2372761
20
13.0199177
11
36.7372761
21
13.5199177
0
LINE
8
DEFAULT_255_2_778
10
36.7372761
20
13.5199177
11
36.7372761
21
14.9198177
0
LINE
8
DEFAULT_255_2_778
10
33.6374761
20
11.4196177
11
33.6374761
21
10.0197177
0
LINE
8
DEFAULT_255_2_778
10
33.1373761
20
9.5197177
11
33.1373761
21
11.9197177
0
LINE
8
DEFAULT_255_2_778
10
37.2372761
20
11.9197177
11
37.2372761
21
9.5197177
0
LINE
8
DEFAULT_255_2_778
10
37.2372761
20
9.5197177
11
36.7372761
21
10.0197177
0
LINE
8
DEFAULT_255_2_778
10
36.7372761
20
10.0197177
11
36.7372761
21
11.4196177
0
LINE
8
DEFAULT_255_2_778
10
36.7372761
20
11.4196177
11
33.6371761
21
11.4196177
0
LINE
8
DEFAULT_255_2_778
10
33.6371761
20
11.4196177
11
33.1370761
21
11.9197177
0
LINE
8
DEFAULT_255_2_778
10
33.1370761
20
11.9197177
11
37.2370761
21
11.9197177
0
LINE
8
DEFAULT_255_2_778
10
37.2370761
20
11.9197177
11
36.7369761
21
11.4196177
0
LINE
8
DEFAULT_255_2_778
10
37.2370761
20
9.5197177
11
33.1370761
21
9.5197177
0
LINE
8
DEFAULT_255_2_778
10
33.1370761
20
9.5197177
11
33.6371761
21
10.0197177
0
LINE
8
DEFAULT_255_2_778
10
33.6371761
20
10.0197177
11
36.7372761
21
10.0197177
0
LINE
8
DEFAULT_255_2_778
10
33.6374761
20
7.9197177
11
33.6374761
21
6.5198177
0
LINE
8
DEFAULT_255_2_778
10
33.1373761
20
6.0198177
11
33.1373761
21
8.4198177
0
LINE
8
DEFAULT_255_2_778
10
37.2372761
20
8.4198177
11
37.2372761
21
6.0198177
0
LINE
8
DEFAULT_255_2_778
10
37.2372761
20
6.0198177
11
36.7372761
21
6.5198177
0
LINE
8
DEFAULT_255_2_778
10
36.7372761
20
6.5198177
11
36.7372761
21
7.9197177
0
LINE
8
DEFAULT_255_2_778
10
36.7372761
20
7.9197177
11
33.6371761
21
7.9197177
0
LINE
8
DEFAULT_255_2_778
10
33.6371761
20
7.9197177
11
33.1370761
21
8.4198177
0
LINE
8
DEFAULT_255_2_778
10
33.1370761
20
8.4198177
11
37.2370761
21
8.4198177
0
LINE
8
DEFAULT_255_2_778
10
37.2370761
20
8.4198177
11
36.7369761
21
7.9197177
0
LINE
8
DEFAULT_255_2_778
10
37.2370761
20
6.0198177
11
33.1370761
21
6.0198177
0
LINE
8
DEFAULT_255_2_778
10
33.1370761
20
6.0198177
11
33.6371761
21
6.5198177
0
LINE
8
DEFAULT_255_2_778
10
33.6371761
20
6.5198177
11
36.7372761
21
6.5198177
0
ARC
8
DEFAULT_255_2_778
10
45.431587
20
73.8396037
40
0.4153886
50
321.5902139
51
355.2795747
0
ARC
8
DEFAULT_255_2_778
10
45.4994259
20
73.7972453
40
0.3360339
50
311.1770585
51
320.0630521
0
ARC
8
DEFAULT_255_2_778
10
45.46982
20
73.8454184
40
0.3918985
50
271.2817675
51
309.7978393
0
ARC
8
DEFAULT_255_2_778
10
45.4416598
20
74.073823
40
0.6213034
50
269.9637446
51
273.4073333
0
ARC
8
DEFAULT_255_2_778
10
45.4275824
20
73.8284121
40
0.3761413
50
219.7446265
51
272.0849202
0
ARC
8
DEFAULT_255_2_778
10
45.5272596
20
73.9013053
40
0.4994479
50
184.8906267
51
218.8632611
0
ARC
8
DEFAULT_255_2_778
10
45.8234568
20
73.9485478
40
0.7988923
50
179.8657437
51
186.4556253
0
ARC
8
DEFAULT_255_2_778
10
45.6304865
20
74.0659169
40
0.606055
50
155.7826898
51
181.2099147
0
ARC
8
DEFAULT_255_2_778
10
45.4413262
20
74.1507913
40
0.3987261
50
122.2998778
51
155.7556576
0
ARC
8
DEFAULT_255_2_778
10
45.4452259
20
74.1282939
40
0.4199168
50
88.8072742
51
121.1092744
0
ARC
8
DEFAULT_255_2_778
10
45.4681913
20
74.1403594
40
0.4080084
50
57.797273
51
91.9979334
0
ARC
8
DEFAULT_255_2_778
10
45.5012634
20
74.2096388
40
0.331882
50
47.2684611
51
56.254476
0
ARC
8
DEFAULT_255_2_778
10
45.4564699
20
74.1732945
40
0.3890609
50
4.894602
51
46.0547715
0
ARC
8
DEFAULT_255_2_778
10
45.2527633
20
74.1319691
40
0.5960259
50
5.6761905
51
7.1825069
0
ARC
8
DEFAULT_255_2_778
10
45.331541
20
74.1497754
40
0.3752879
50
6.2942251
51
29.6554142
0
ARC
8
DEFAULT_255_2_778
10
45.4902826
20
74.2332034
40
0.1961533
50
31.4205974
51
46.5559212
0
ARC
8
DEFAULT_255_2_778
10
45.4707229
20
74.1958831
40
0.2369771
50
49.3282662
51
92.3316936
0
ARC
8
DEFAULT_255_2_778
10
45.4542781
20
74.0179231
40
0.4147967
50
89.0601879
51
90.0015764
0
ARC
8
DEFAULT_255_2_778
10
45.4437026
20
74.1806885
40
0.2522526
50
87.5998082
51
142.7658868
0
ARC
8
DEFAULT_255_2_778
10
45.5549606
20
74.1089455
40
0.384378
50
144.2864397
51
174.2714094
0
ARC
8
DEFAULT_255_2_778
10
45.8934573
20
74.0530025
40
0.7270973
50
172.5472932
51
180.2429201
0
ARC
8
DEFAULT_255_2_778
10
45.72355
20
73.9340682
40
0.5573269
50
178.6992471
51
199.7765182
0
ARC
8
DEFAULT_255_2_778
10
45.5213781
20
73.8684212
40
0.3449313
50
200.8779194
51
215.0115429
0
ARC
8
DEFAULT_255_2_778
10
45.4328028
20
73.8018907
40
0.2342425
50
214.1134259
51
272.193096
0
ARC
8
DEFAULT_255_2_778
10
45.4544019
20
73.8709508
40
0.3033943
50
267.6131663
51
297.4038818
0
ARC
8
DEFAULT_255_2_778
10
45.501787
20
73.7628288
40
0.1857551
50
299.7785073
51
310.2333926
0
ARC
8
DEFAULT_255_2_778
10
45.4556398
20
73.796957
40
0.2419753
50
313.3572163
51
347.5917622
0
ARC
8
DEFAULT_255_2_778
10
45.1726522
20
73.8858644
40
0.5380864
50
344.8196873
51
351.4558186
0
LINE
8
DEFAULT_255_2_778
10
45.7042667
20
73.8054198
11
45.8455667
21
73.8054198
0
LINE
8
DEFAULT_255_2_778
10
45.0245667
20
73.9504198
11
45.0245667
21
74.0531198
0
LINE
8
DEFAULT_255_2_778
10
45.8458667
20
74.1909198
11
45.7045667
21
74.1909198
0
LINE
8
DEFAULT_255_2_778
10
45.1663667
20
74.0499198
11
45.1663667
21
73.9467198
0
LINE
8
DEFAULT_255_2_778
10
45.7047667
20
73.8059198
11
45.7042667
21
73.8054198
0
ARC
8
DEFAULT_255_2_778
10
45.7104043
20
73.9102352
40
0.9607171
50
348.9183555
51
0.6987966
0
ARC
8
DEFAULT_255_2_778
10
46.2365567
20
73.8018028
40
0.4235667
50
326.5213186
51
349.6326065
0
ARC
8
DEFAULT_255_2_778
10
46.3632214
20
73.7338268
40
0.2807287
50
269.2250901
51
323.8316767
0
ARC
8
DEFAULT_255_2_778
10
46.3357726
20
73.9423158
40
0.4897637
50
269.9739601
51
272.7680648
0
ARC
8
DEFAULT_255_2_778
10
46.321617
20
73.7755597
40
0.323308
50
235.7848916
51
272.4699354
0
ARC
8
DEFAULT_255_2_778
10
46.2932451
20
73.7170693
40
0.2591583
50
215.7238851
51
233.7001402
0
ARC
8
DEFAULT_255_2_778
10
46.4434927
20
73.8107012
40
0.4359624
50
189.3810875
51
214.1844112
0
ARC
8
DEFAULT_255_2_778
10
46.9226174
20
73.9077969
40
0.9246754
50
180.2382416
51
190.477886
0
ARC
8
DEFAULT_255_2_778
10
46.9224978
20
74.0972418
40
0.9246295
50
168.3239624
51
180.7615685
0
ARC
8
DEFAULT_255_2_778
10
46.4188311
20
74.2054255
40
0.4095106
50
146.0453793
51
168.8856134
0
ARC
8
DEFAULT_255_2_778
10
46.3048404
20
74.266696
40
0.2810297
50
89.6098226
51
143.4255932
0
ARC
8
DEFAULT_255_2_778
10
46.3336628
20
74.0542258
40
0.4942264
50
89.9667058
51
93.1210735
0
ARC
8
DEFAULT_255_2_778
10
46.3472723
20
74.2093963
40
0.3393174
50
59.2308603
51
92.2501227
0
ARC
8
DEFAULT_255_2_778
10
46.3852244
20
74.2904201
40
0.2504393
50
36.1492775
51
57.2079485
0
ARC
8
DEFAULT_255_2_778
10
46.2478761
20
74.2043224
40
0.4122945
50
10.0317435
51
34.5511957
0
ARC
8
DEFAULT_255_2_778
10
45.7399665
20
74.0980897
40
0.9310837
50
359.9853743
51
11.0246147
0
ARC
8
DEFAULT_255_2_778
10
45.7726337
20
74.1193841
40
0.7630112
50
359.0964603
51
11.2149316
0
ARC
8
DEFAULT_255_2_778
10
46.2353815
20
74.212247
40
0.291041
50
11.0003673
51
30.1102032
0
ARC
8
DEFAULT_255_2_778
10
46.3453494
20
74.2708916
40
0.1665511
50
31.6363941
51
93.9246226
0
ARC
8
DEFAULT_255_2_778
10
46.3225382
20
74.2732373
40
0.1642118
50
86.0150483
51
148.6168234
0
ARC
8
DEFAULT_255_2_778
10
46.4856423
20
74.1907789
40
0.3467004
50
151.0208923
51
173.8521996
0
ARC
8
DEFAULT_255_2_778
10
46.9669967
20
74.1164385
40
0.8335478
50
172.3148449
51
179.9097059
0
ARC
8
DEFAULT_255_2_778
10
46.882399
20
73.8889958
40
0.7490461
50
179.0777525
51
191.7743608
0
ARC
8
DEFAULT_255_2_778
10
46.4478227
20
73.7983078
40
0.3051081
50
191.7553944
51
210.0220465
0
ARC
8
DEFAULT_255_2_778
10
46.3272263
20
73.7295208
40
0.1662772
50
210.2909397
51
272.8693878
0
ARC
8
DEFAULT_255_2_778
10
46.3451446
20
73.7269879
40
0.1638171
50
266.6423239
51
328.3186463
0
ARC
8
DEFAULT_255_2_778
10
46.191794
20
73.8081038
40
0.3371139
50
330.2753875
51
353.2900213
0
ARC
8
DEFAULT_255_2_778
10
45.6894196
20
73.8901619
40
0.8459424
50
351.7458086
51
359.6945445
0
LINE
8
DEFAULT_255_2_778
10
46.67105
20
74.0978521
11
46.67105
21
73.9219521
0
LINE
8
DEFAULT_255_2_778
10
45.99795
20
73.9039521
11
45.99795
21
74.0849521
0
LINE
8
DEFAULT_255_2_778
10
46.67105
20
74.0978521
11
46.67105
21
74.0978521
0
LINE
8
DEFAULT_255_2_778
10
46.53555
20
73.8854521
11
46.53555
21
74.1073521
0
LINE
8
DEFAULT_255_2_778
10
46.13345
20
74.1177521
11
46.13345
21
73.9010521
0
LINE
8
DEFAULT_255_2_778
10
46.53535
20
73.8856521
11
46.53555
21
73.8854521
0
ARC
8
DEFAULT_255_2_778
10
45.6003043
20
70.4105352
40
0.9607171
50
348.9183555
51
0.6987966
0
ARC
8
DEFAULT_255_2_778
10
46.1264567
20
70.3021028
40
0.4235667
50
326.5213186
51
349.6326065
0
ARC
8
DEFAULT_255_2_778
10
46.2531214
20
70.2341268
40
0.2807287
50
269.2250901
51
323.8316767
0
ARC
8
DEFAULT_255_2_778
10
46.2256726
20
70.4426158
40
0.4897637
50
269.9739601
51
272.7680648
0
ARC
8
DEFAULT_255_2_778
10
46.211517
20
70.2758597
40
0.323308
50
235.7848916
51
272.4699354
0
ARC
8
DEFAULT_255_2_778
10
46.1831451
20
70.2173693
40
0.2591583
50
215.7238851
51
233.7001402
0
ARC
8
DEFAULT_255_2_778
10
46.3333927
20
70.3110012
40
0.4359624
50
189.3810875
51
214.1844112
0
ARC
8
DEFAULT_255_2_778
10
46.8125174
20
70.4080969
40
0.9246754
50
180.2382416
51
190.477886
0
ARC
8
DEFAULT_255_2_778
10
46.8123978
20
70.5975418
40
0.9246295
50
168.3239624
51
180.7615685
0
ARC
8
DEFAULT_255_2_778
10
46.3087311
20
70.7057255
40
0.4095106
50
146.0453793
51
168.8856134
0
ARC
8
DEFAULT_255_2_778
10
46.1947404
20
70.766996
40
0.2810297
50
89.6098226
51
143.4255932
0
ARC
8
DEFAULT_255_2_778
10
46.2235628
20
70.5545258
40
0.4942264
50
89.9667058
51
93.1210735
0
ARC
8
DEFAULT_255_2_778
10
46.2371723
20
70.7096963
40
0.3393174
50
59.2308603
51
92.2501227
0
ARC
8
DEFAULT_255_2_778
10
46.2751244
20
70.7907201
40
0.2504393
50
36.1492775
51
57.2079485
0
ARC
8
DEFAULT_255_2_778
10
46.1377761
20
70.7046224
40
0.4122945
50
10.0317435
51
34.5511957
0
ARC
8
DEFAULT_255_2_778
10
45.6298665
20
70.5983897
40
0.9310837
50
359.9853743
51
11.0246147
0
ARC
8
DEFAULT_255_2_778
10
45.6632059
20
70.6194713
40
0.7623388
50
359.0966252
51
11.2198432
0
ARC
8
DEFAULT_255_2_778
10
46.1252868
20
70.7122366
40
0.2910417
50
11.0065487
51
30.1125065
0
ARC
8
DEFAULT_255_2_778
10
46.2352494
20
70.7708916
40
0.1665511
50
31.6363941
51
93.9246226
0
ARC
8
DEFAULT_255_2_778
10
46.2124382
20
70.7732373
40
0.1642118
50
86.0150483
51
148.6168234
0
ARC
8
DEFAULT_255_2_778
10
46.3755423
20
70.6907789
40
0.3467004
50
151.0208923
51
173.8521996
0
ARC
8
DEFAULT_255_2_778
10
46.8568967
20
70.6164385
40
0.8335478
50
172.3148449
51
179.9097059
0
ARC
8
DEFAULT_255_2_778
10
46.7718663
20
70.3889836
40
0.7486136
50
179.0762868
51
191.7778678
0
ARC
8
DEFAULT_255_2_778
10
46.3371264
20
70.2982271
40
0.3045016
50
191.7576489
51
210.0487537
0
ARC
8
DEFAULT_255_2_778
10
46.2171566
20
70.229475
40
0.1662299
50
210.2422646
51
272.8597277
0
ARC
8
DEFAULT_255_2_778
10
46.2350446
20
70.2269879
40
0.1638171
50
266.6423239
51
328.3186463
0
ARC
8
DEFAULT_255_2_778
10
46.0816381
20
70.3081109
40
0.337166
50
330.2790551
51
353.2962032
0
ARC
8
DEFAULT_255_2_778
10
45.5784833
20
70.3902592
40
0.8467787
50
351.749903
51
359.6950284
0
LINE
8
DEFAULT_255_2_778
10
46.56095
20
70.5979521
11
46.56095
21
70.4222521
0
LINE
8
DEFAULT_255_2_778
10
45.88785
20
70.4042521
11
45.88785
21
70.5852521
0
LINE
8
DEFAULT_255_2_778
10
46.56095
20
70.5981521
11
46.56095
21
70.5979521
0
LINE
8
DEFAULT_255_2_778
10
46.42545
20
70.3854521
11
46.42545
21
70.6074521
0
LINE
8
DEFAULT_255_2_778
10
46.02335
20
70.6177521
11
46.02335
21
70.4010521
0
LINE
8
DEFAULT_255_2_778
10
46.42525
20
70.3857521
11
46.42545
21
70.3854521
0
LINE
8
DEFAULT_255_2_778
10
46.3374125
20
67.5385812
11
46.3374125
21
66.4669812
0
LINE
8
DEFAULT_255_2_778
10
46.3374125
20
66.4669812
11
46.2011125
21
66.4669812
0
LINE
8
DEFAULT_255_2_778
10
46.2011125
20
66.4669812
11
46.2011125
21
67.3700812
0
LINE
8
DEFAULT_255_2_778
10
46.2011125
20
67.3700812
11
45.9278125
21
67.2697812
0
LINE
8
DEFAULT_255_2_778
10
45.9278125
20
67.2697812
11
45.9278125
21
67.3927812
0
LINE
8
DEFAULT_255_2_778
10
45.9278125
20
67.3927812
11
46.3159125
21
67.5385812
0
LINE
8
DEFAULT_255_2_778
10
46.3159125
20
67.5385812
11
46.3371125
21
67.5385812
0
LINE
8
DEFAULT_255_2_778
10
46.3371125
20
67.5385812
11
46.3374125
21
67.5385812
0
ARC
8
DEFAULT_255_2_778
10
45.3696959
20
64.3434119
40
1.1984021
50
318.0655437
51
324.7577583
0
ARC
8
DEFAULT_255_2_778
10
45.9764601
20
63.9109478
40
0.4533096
50
325.1468138
51
331.3843848
0
ARC
8
DEFAULT_255_2_778
10
46.1538967
20
63.8152264
40
0.2517041
50
331.1679819
51
359.7763204
0
ARC
8
DEFAULT_255_2_778
10
46.2140595
20
63.821542
40
0.1916785
50
357.817917
51
42.624055
0
ARC
8
DEFAULT_255_2_778
10
46.22837
20
63.8282619
40
0.1766617
50
44.1635531
51
92.5860806
0
ARC
8
DEFAULT_255_2_778
10
46.2077317
20
63.7957271
40
0.2094002
50
86.5318831
51
133.6099311
0
ARC
8
DEFAULT_255_2_778
10
46.2261486
20
63.8004013
40
0.2193447
50
137.9394577
51
183.4390085
0
ARC
8
DEFAULT_255_2_778
10
46.1866731
20
63.7998511
40
0.3152263
50
134.3292709
51
182.2921269
0
ARC
8
DEFAULT_255_2_778
10
46.200339
20
63.7693717
40
0.3467703
50
88.553645
51
132.4250713
0
ARC
8
DEFAULT_255_2_778
10
46.2201501
20
63.5711662
40
0.5449775
50
89.9948581
51
91.1626765
0
ARC
8
DEFAULT_255_2_778
10
46.2337878
20
63.7526545
40
0.3637431
50
59.3470716
51
92.140965
0
ARC
8
DEFAULT_255_2_778
10
46.2733116
20
63.8363662
40
0.2717162
50
47.9222691
51
57.5168713
0
ARC
8
DEFAULT_255_2_778
10
46.2762239
20
63.8415666
40
0.2659078
50
357.6026223
51
47.6371075
0
ARC
8
DEFAULT_255_2_778
10
46.1773767
20
63.843414
40
0.364753
50
330.4977337
51
357.962195
0
ARC
8
DEFAULT_255_2_778
10
45.7108107
20
64.0883496
40
0.891597
50
319.0286053
51
331.5637606
0
ARC
8
DEFAULT_255_2_778
10
45.2561156
20
64.4578111
40
1.4772824
50
317.2718089
51
319.7724473
0
LINE
8
DEFAULT_255_2_778
10
46.590799
20
63.1456437
11
46.590799
21
63.0350437
0
LINE
8
DEFAULT_255_2_778
10
46.590799
20
63.0350437
11
45.892099
21
63.0350437
0
LINE
8
DEFAULT_255_2_778
10
45.892099
20
63.0350437
11
45.892099
21
63.1324437
0
LINE
8
DEFAULT_255_2_778
10
45.892099
20
63.1324437
11
46.261199
21
63.5425437
0
LINE
8
DEFAULT_255_2_778
10
46.007199
20
63.7872437
11
45.871699
21
63.7872437
0
LINE
8
DEFAULT_255_2_778
10
46.341299
20
63.4554437
11
46.055599
21
63.1456437
0
LINE
8
DEFAULT_255_2_778
10
46.055599
20
63.1456437
11
46.591099
21
63.1456437
0
LINE
8
DEFAULT_255_2_778
10
46.591099
20
63.1456437
11
46.590799
21
63.1456437
0
ARC
8
DEFAULT_255_2_778
10
46.1996651
20
60.2902921
40
0.2240441
50
267.7565651
51
309.3411485
0
ARC
8
DEFAULT_255_2_778
10
46.2285398
20
60.2416549
40
0.1683388
50
312.2360072
51
2.6778708
0
ARC
8
DEFAULT_255_2_778
10
46.1966712
20
60.2624252
40
0.2004395
50
356.3084103
51
36.5573574
0
ARC
8
DEFAULT_255_2_778
10
46.2299171
20
60.261737
40
0.1753299
50
43.2241694
51
92.4710064
0
ARC
8
DEFAULT_255_2_778
10
46.2099996
20
60.0834983
40
0.3536214
50
87.9972198
51
90.0169868
0
ARC
8
DEFAULT_255_2_778
10
46.2002741
20
60.2433974
40
0.1939612
50
87.1568853
51
132.3163649
0
ARC
8
DEFAULT_255_2_778
10
46.1925545
20
60.261604
40
0.1754238
50
134.4558711
51
182.477895
0
ARC
8
DEFAULT_255_2_778
10
46.1537363
20
60.2601061
40
0.2720096
50
131.2480679
51
181.2821217
0
ARC
8
DEFAULT_255_2_778
10
46.1973007
20
60.2114062
40
0.3373487
50
87.8605101
51
131.3577218
0
ARC
8
DEFAULT_255_2_778
10
46.2233597
20
60.1845599
40
0.3642089
50
60.0835171
51
92.1187166
0
ARC
8
DEFAULT_255_2_778
10
46.2648489
20
60.273872
40
0.2662434
50
47.00934
51
58.2362767
0
ARC
8
DEFAULT_255_2_778
10
46.245009
20
60.2633696
40
0.2875481
50
357.102918
51
45.5444852
0
ARC
8
DEFAULT_255_2_778
10
46.0605695
20
60.2465791
40
0.4716254
50
0.0049405
51
0.2742167
0
ARC
8
DEFAULT_255_2_778
10
46.298336
20
60.2498796
40
0.2338815
50
323.8521676
51
359.2013873
0
ARC
8
DEFAULT_255_2_778
10
46.2637124
20
60.2678301
40
0.2724929
50
291.6839349
51
325.0988232
0
ARC
8
DEFAULT_255_2_778
10
46.2924526
20
59.7624443
40
0.2622368
50
37.5374133
51
74.0772883
0
ARC
8
DEFAULT_255_2_778
10
46.2918309
20
59.7727611
40
0.2565868
50
358.2264232
51
35.6257059
0
ARC
8
DEFAULT_255_2_778
10
46.257865
20
59.7511104
40
0.2907531
50
312.5801764
51
2.7025711
0
ARC
8
DEFAULT_255_2_778
10
46.2262108
20
59.8036409
40
0.3510642
50
267.4668636
51
310.5829005
0
ARC
8
DEFAULT_255_2_778
10
46.1955425
20
59.8161126
40
0.3635087
50
232.1384017
51
272.3889815
0
ARC
8
DEFAULT_255_2_778
10
46.1722244
20
59.7727924
40
0.3151021
50
229.2395254
51
230.6511281
0
ARC
8
DEFAULT_255_2_778
10
46.1415177
20
59.738922
40
0.2694011
50
177.9157629
51
229.4829773
0
ARC
8
DEFAULT_255_2_778
10
46.1824652
20
59.741135
40
0.1740358
50
177.502151
51
226.9196875
0
ARC
8
DEFAULT_255_2_778
10
46.2001388
20
59.7722632
40
0.2090102
50
229.2099758
51
272.8949346
0
ARC
8
DEFAULT_255_2_778
10
46.224312
20
59.769404
40
0.2063341
50
266.2159679
51
310.4729844
0
ARC
8
DEFAULT_255_2_778
10
46.2524469
20
59.7241293
40
0.1538383
50
313.4481892
51
314.7204192
0
ARC
8
DEFAULT_255_2_778
10
46.2159609
20
59.7488582
40
0.1972668
50
317.1971667
51
3.7964943
0
ARC
8
DEFAULT_255_2_778
10
46.233731
20
59.7732275
40
0.1794204
50
356.3866281
51
47.1747072
0
ARC
8
DEFAULT_255_2_778
10
46.2095206
20
59.71889
40
0.2365096
50
51.8263037
51
89.732018
0
ARC
8
DEFAULT_255_2_778
10
46.1845044
20
59.5118472
40
0.4443184
50
86.6295197
51
89.1759218
0
LINE
8
DEFAULT_255_2_778
10
46.0889948
20
59.9558198
11
46.0889948
21
60.0664198
0
LINE
8
DEFAULT_255_2_778
10
46.0889948
20
60.0664198
11
46.1908948
21
60.0664198
0
LINE
8
DEFAULT_255_2_778
10
46.0172948
20
60.2540198
11
45.8817948
21
60.2540198
0
LINE
8
DEFAULT_255_2_778
10
45.8722948
20
59.7487198
11
46.0085948
21
59.7487198
0
LINE
8
DEFAULT_255_2_778
10
46.1908948
20
59.9561198
11
46.0889948
21
59.9561198
0
LINE
8
DEFAULT_255_2_778
10
46.0889948
20
59.9561198
11
46.0889948
21
59.9558198
0
ARC
8
DEFAULT_255_2_778
10
45.431587
20
56.4076037
40
0.4153886
50
321.5902139
51
355.2795747
0
ARC
8
DEFAULT_255_2_778
10
45.4994259
20
56.3652453
40
0.3360339
50
311.1770585
51
320.0630521
0
ARC
8
DEFAULT_255_2_778
10
45.46982
20
56.4134184
40
0.3918985
50
271.2817675
51
309.7978393
0
ARC
8
DEFAULT_255_2_778
10
45.4416598
20
56.641823
40
0.6213034
50
269.9637446
51
273.4073333
0
ARC
8
DEFAULT_255_2_778
10
45.4275824
20
56.3964121
40
0.3761413
50
219.7446265
51
272.0849202
0
ARC
8
DEFAULT_255_2_778
10
45.5272596
20
56.4693053
40
0.4994479
50
184.8906267
51
218.8632611
0
ARC
8
DEFAULT_255_2_778
10
45.8234568
20
56.5165478
40
0.7988923
50
179.8657437
51
186.4556253
0
ARC
8
DEFAULT_255_2_778
10
45.6304865
20
56.6339169
40
0.606055
50
155.7826898
51
181.2099147
0
ARC
8
DEFAULT_255_2_778
10
45.4413262
20
56.7187913
40
0.3987261
50
122.2998778
51
155.7556576
0
ARC
8
DEFAULT_255_2_778
10
45.4452259
20
56.6962939
40
0.4199168
50
88.8072742
51
121.1092744
0
ARC
8
DEFAULT_255_2_778
10
45.4681913
20
56.7083594
40
0.4080084
50
57.797273
51
91.9979334
0
ARC
8
DEFAULT_255_2_778
10
45.5012634
20
56.7776388
40
0.331882
50
47.2684611
51
56.254476
0
ARC
8
DEFAULT_255_2_778
10
45.4564699
20
56.7412945
40
0.3890609
50
4.894602
51
46.0547715
0
ARC
8
DEFAULT_255_2_778
10
45.2527633
20
56.6999691
40
0.5960259
50
5.6761905
51
7.1825069
0
ARC
8
DEFAULT_255_2_778
10
45.331541
20
56.7177754
40
0.3752879
50
6.2942251
51
29.6554142
0
ARC
8
DEFAULT_255_2_778
10
45.4902826
20
56.8012034
40
0.1961533
50
31.4205974
51
46.5559212
0
ARC
8
DEFAULT_255_2_778
10
45.4707229
20
56.7638831
40
0.2369771
50
49.3282662
51
92.3316936
0
ARC
8
DEFAULT_255_2_778
10
45.4542781
20
56.5859231
40
0.4147967
50
89.0601879
51
90.0015764
0
ARC
8
DEFAULT_255_2_778
10
45.4437026
20
56.7486885
40
0.2522526
50
87.5998082
51
142.7658868
0
ARC
8
DEFAULT_255_2_778
10
45.5549606
20
56.6769455
40
0.384378
50
144.2864397
51
174.2714094
0
ARC
8
DEFAULT_255_2_778
10
45.8934573
20
56.6210025
40
0.7270973
50
172.5472932
51
180.2429201
0
ARC
8
DEFAULT_255_2_778
10
45.72355
20
56.5020682
40
0.5573269
50
178.6992471
51
199.7765182
0
ARC
8
DEFAULT_255_2_778
10
45.5213781
20
56.4364212
40
0.3449313
50
200.8779194
51
215.0115429
0
ARC
8
DEFAULT_255_2_778
10
45.4328028
20
56.3698907
40
0.2342425
50
214.1134259
51
272.193096
0
ARC
8
DEFAULT_255_2_778
10
45.4544019
20
56.4389508
40
0.3033943
50
267.6131663
51
297.4038818
0
ARC
8
DEFAULT_255_2_778
10
45.501787
20
56.3308288
40
0.1857551
50
299.7785073
51
310.2333926
0
ARC
8
DEFAULT_255_2_778
10
45.4556398
20
56.364957
40
0.2419753
50
313.3572163
51
347.5917622
0
ARC
8
DEFAULT_255_2_778
10
45.1726522
20
56.4538644
40
0.5380864
50
344.8196873
51
351.4558186
0
LINE
8
DEFAULT_255_2_778
10
45.7042667
20
56.3734198
11
45.8455667
21
56.3734198
0
LINE
8
DEFAULT_255_2_778
10
45.0245667
20
56.5184198
11
45.0245667
21
56.6211198
0
LINE
8
DEFAULT_255_2_778
10
45.8458667
20
56.7589198
11
45.7045667
21
56.7589198
0
LINE
8
DEFAULT_255_2_778
10
45.1663667
20
56.6179198
11
45.1663667
21
56.5147198
0
LINE
8
DEFAULT_255_2_778
10
45.7047667
20
56.3739198
11
45.7042667
21
56.3734198
0
LINE
8
DEFAULT_255_2_778
10
46.4475125
20
57.1065812
11
46.4475125
21
56.0349812
0
LINE
8
DEFAULT_255_2_778
10
46.4475125
20
56.0349812
11
46.3112125
21
56.0349812
0
LINE
8
DEFAULT_255_2_778
10
46.3112125
20
56.0349812
11
46.3112125
21
56.9380812
0
LINE
8
DEFAULT_255_2_778
10
46.3112125
20
56.9380812
11
46.0379125
21
56.8377812
0
LINE
8
DEFAULT_255_2_778
10
46.0379125
20
56.8377812
11
46.0379125
21
56.9607812
0
LINE
8
DEFAULT_255_2_778
10
46.0379125
20
56.9607812
11
46.4260125
21
57.1065812
0
LINE
8
DEFAULT_255_2_778
10
46.4260125
20
57.1065812
11
46.4472125
21
57.1065812
0
LINE
8
DEFAULT_255_2_778
10
46.4472125
20
57.1065812
11
46.4475125
21
57.1065812
0
LINE
8
DEFAULT_255_2_778
10
46.4641636
20
53.5336677
11
46.4641636
21
52.8253677
0
LINE
8
DEFAULT_255_2_778
10
46.4641636
20
52.8253677
11
46.6120636
21
52.8253677
0
LINE
8
DEFAULT_255_2_778
10
46.6120636
20
52.8253677
11
46.6120636
21
52.7147677
0
LINE
8
DEFAULT_255_2_778
10
46.6120636
20
52.7147677
11
46.4641636
21
52.7147677
0
LINE
8
DEFAULT_255_2_778
10
46.4641636
20
52.7147677
11
46.4641636
21
52.4671677
0
LINE
8
DEFAULT_255_2_778
10
46.4641636
20
52.4671677
11
46.3278636
21
52.4671677
0
LINE
8
DEFAULT_255_2_778
10
46.3278636
20
52.4671677
11
46.3278636
21
52.7147677
0
LINE
8
DEFAULT_255_2_778
10
46.3278636
20
52.7147677
11
45.8423636
21
52.7147677
0
LINE
8
DEFAULT_255_2_778
10
45.8423636
20
52.7147677
11
45.8423636
21
52.7946677
0
LINE
8
DEFAULT_255_2_778
10
45.8423636
20
52.7946677
11
46.3199636
21
53.5336677
0
LINE
8
DEFAULT_255_2_778
10
46.3199636
20
53.5336677
11
46.4641636
21
53.5336677
0
LINE
8
DEFAULT_255_2_778
10
46.4641636
20
53.5336677
11
46.4641636
21
53.5336677
0
LINE
8
DEFAULT_255_2_778
10
46.3117636
20
53.3190677
11
45.9960636
21
52.8253677
0
LINE
8
DEFAULT_255_2_778
10
45.9960636
20
52.8253677
11
46.3278636
21
52.8253677
0
LINE
8
DEFAULT_255_2_778
10
46.3278636
20
52.8253677
11
46.3278636
21
53.3484677
0
LINE
8
DEFAULT_255_2_778
10
46.3278636
20
53.3484677
11
46.3117636
21
53.3190677
0
LINE
8
DEFAULT_255_2_778
10
46.3117636
20
53.3190677
11
46.3117636
21
53.3190677
0
ARC
8
DEFAULT_255_2_778
10
46.2634991
20
49.3865999
40
0.3449621
50
89.0189914
51
119.9449467
0
ARC
8
DEFAULT_255_2_778
10
46.2828036
20
49.4373137
40
0.2945027
50
42.2194959
51
92.6075709
0
ARC
8
DEFAULT_255_2_778
10
46.2255233
20
49.4031507
40
0.3601213
50
1.0860672
51
40.1204052
0
ARC
8
DEFAULT_255_2_778
10
45.9996696
20
49.3752953
40
0.586936
50
359.9625273
51
3.3875025
0
ARC
8
DEFAULT_255_2_778
10
46.1858967
20
49.3613501
40
0.400938
50
331.0484612
51
1.9383429
0
ARC
8
DEFAULT_255_2_778
10
46.281266
20
49.3185084
40
0.2968753
50
316.8074522
51
329.3734699
0
ARC
8
DEFAULT_255_2_778
10
46.2723059
20
49.3373702
40
0.3164094
50
269.3476073
51
315.4277404
0
ARC
8
DEFAULT_255_2_778
10
46.2491448
20
49.5379861
40
0.5173746
50
269.9845411
51
272.1664844
0
ARC
8
DEFAULT_255_2_778
10
46.234765
20
49.3576673
40
0.3373565
50
230.0861488
51
272.4192394
0
ARC
8
DEFAULT_255_2_778
10
46.2281411
20
49.3298922
40
0.3120628
50
182.6229067
51
227.7462297
0
ARC
8
DEFAULT_255_2_778
10
46.2592049
20
49.332318
40
0.2153487
50
184.4494252
51
225.960814
0
ARC
8
DEFAULT_255_2_778
10
46.2389887
20
49.333091
40
0.2024129
50
230.2305473
51
272.7514403
0
ARC
8
DEFAULT_255_2_778
10
46.2574546
20
49.3135655
40
0.1828635
50
267.257555
51
319.7903905
0
ARC
8
DEFAULT_255_2_778
10
46.189646
20
49.3540581
40
0.261106
50
322.6118423
51
1.1976058
0
ARC
8
DEFAULT_255_2_778
10
45.9906322
20
49.3734244
40
0.4602731
50
358.2683031
51
0.0108305
0
ARC
8
DEFAULT_255_2_778
10
46.2041988
20
49.3854911
40
0.2469971
50
357.2199925
51
40.2894049
0
ARC
8
DEFAULT_255_2_778
10
46.2460211
20
49.4126303
40
0.1976478
50
42.1284352
51
92.3533563
0
ARC
8
DEFAULT_255_2_778
10
46.2250886
20
49.3874675
40
0.2230125
50
86.705369
51
124.5210997
0
LINE
8
DEFAULT_255_2_778
10
46.0627052
20
49.5418114
11
45.9542052
21
49.5696114
0
LINE
8
DEFAULT_255_2_778
10
45.9542052
20
49.5696114
11
46.0085052
21
50.1014114
0
LINE
8
DEFAULT_255_2_778
10
46.0085052
20
50.1014114
11
46.5548052
21
50.1014114
0
LINE
8
DEFAULT_255_2_778
10
46.5548052
20
50.1014114
11
46.5548052
21
49.9763114
0
LINE
8
DEFAULT_255_2_778
10
46.5548052
20
49.9763114
11
46.1236052
21
49.9763114
0
LINE
8
DEFAULT_255_2_778
10
46.1236052
20
49.9763114
11
46.0913052
21
49.6855114
0
LINE
8
DEFAULT_255_2_778
10
45.9164052
20
49.3156114
11
46.0445052
21
49.3156114
0
LINE
8
DEFAULT_255_2_778
10
46.0987052
20
49.5712114
11
46.0627052
21
49.5418114
0
LINE
8
DEFAULT_255_2_778
10
46.0627052
20
49.5418114
11
46.0627052
21
49.5418114
0
ARC
8
DEFAULT_255_2_778
10
46.3911254
20
46.0504896
40
0.3688671
50
88.7790109
51
126.4464215
0
ARC
8
DEFAULT_255_2_778
10
46.3627357
20
46.1034949
40
0.3094843
50
128.0483863
51
134.1454307
0
ARC
8
DEFAULT_255_2_778
10
46.4134982
20
46.0646236
40
0.3728499
50
135.5828127
51
173.746624
0
ARC
8
DEFAULT_255_2_778
10
46.6382674
20
46.0166053
40
0.6019613
50
171.5331472
51
174.9041445
0
ARC
8
DEFAULT_255_2_778
10
46.2546067
20
45.8777705
40
0.2891405
50
87.2289196
51
138.311315
0
ARC
8
DEFAULT_255_2_778
10
46.2794682
20
45.8905274
40
0.27626
50
40.0999888
51
92.2576555
0
ARC
8
DEFAULT_255_2_778
10
46.1977434
20
45.8324312
40
0.3762835
50
358.2618034
51
38.8510173
0
ARC
8
DEFAULT_255_2_778
10
45.9978469
20
45.8149648
40
0.5760387
50
0.0008066
51
0.6020473
0
ARC
8
DEFAULT_255_2_778
10
46.1717541
20
45.8010057
40
0.4023738
50
328.7649683
51
1.9892535
0
ARC
8
DEFAULT_255_2_778
10
46.2484262
20
45.7649043
40
0.3182193
50
317.8055991
51
327.1641174
0
ARC
8
DEFAULT_255_2_778
10
46.257432
20
45.7607125
40
0.3087458
50
267.4481196
51
317.2594184
0
ARC
8
DEFAULT_255_2_778
10
46.2355996
20
45.7562431
40
0.3040777
50
217.8474282
51
271.5237452
0
ARC
8
DEFAULT_255_2_778
10
46.3512234
20
45.8454794
40
0.4501319
50
180.9788226
51
217.786708
0
ARC
8
DEFAULT_255_2_778
10
46.5864703
20
45.8723736
40
0.686185
50
179.9750108
51
182.8889349
0
ARC
8
DEFAULT_255_2_778
10
46.8960237
20
45.9373411
40
0.9958176
50
166.6807688
51
180.7231482
0
ARC
8
DEFAULT_255_2_778
10
46.446401
20
46.047296
40
0.5329689
50
142.0752069
51
167.0478793
0
ARC
8
DEFAULT_255_2_778
10
46.3570953
20
46.0993014
40
0.4307823
50
95.1913842
51
140.2305385
0
ARC
8
DEFAULT_255_2_778
10
46.4087325
20
45.8249001
40
0.7092292
50
90.7228153
51
97.3405351
0
ARC
8
DEFAULT_255_2_778
10
46.2455304
20
45.8386918
40
0.2151819
50
89.8522046
51
126.3179882
0
ARC
8
DEFAULT_255_2_778
10
46.2419896
20
45.8320178
40
0.2185683
50
124.5336474
51
159.860354
0
ARC
8
DEFAULT_255_2_778
10
46.4094073
20
45.8444279
40
0.3728537
50
177.9796074
51
207.8655657
0
ARC
8
DEFAULT_255_2_778
10
46.3072871
20
45.8001362
40
0.2620131
50
209.7410242
51
216.2859406
0
ARC
8
DEFAULT_255_2_778
10
46.2449343
20
45.7419911
40
0.1776207
50
213.0688744
51
269.6939221
0
ARC
8
DEFAULT_255_2_778
10
46.251066
20
45.7364148
40
0.1721876
50
267.6432458
51
322.6170236
0
ARC
8
DEFAULT_255_2_778
10
46.1608356
20
45.7953087
40
0.2797551
50
324.2527792
51
2.6766128
0
ARC
8
DEFAULT_255_2_778
10
46.161583
20
45.8215632
40
0.2790144
50
357.2903572
51
36.078515
0
ARC
8
DEFAULT_255_2_778
10
46.2510966
20
45.8835793
40
0.1701674
50
36.9512321
51
91.68752
0
LINE
8
DEFAULT_255_2_778
10
46.3997854
20
46.5343729
11
46.4238854
21
46.5343729
0
LINE
8
DEFAULT_255_2_778
10
46.4238854
20
46.5343729
11
46.4238854
21
46.4192729
0
LINE
8
DEFAULT_255_2_778
10
46.4238854
20
46.4192729
11
46.3989854
21
46.4192729
0
LINE
8
DEFAULT_255_2_778
10
45.9002854
20
45.8726729
11
45.9002854
21
45.9247729
0
LINE
8
DEFAULT_255_2_778
10
46.3997854
20
46.5340729
11
46.3997854
21
46.5343729
0
LINE
8
DEFAULT_255_2_778
10
46.0367854
20
45.9072729
11
46.0367854
21
45.8575729
0
LINE
8
DEFAULT_255_2_778
10
46.2460854
20
46.0536729
11
46.2460854
21
46.0538729
0
LINE
8
DEFAULT_255_2_778
10
46.5806375
20
43.0336677
11
46.5806375
21
42.9574677
0
LINE
8
DEFAULT_255_2_778
10
46.5806375
20
42.9574677
11
46.1390375
21
41.9671677
0
LINE
8
DEFAULT_255_2_778
10
46.1390375
20
41.9671677
11
45.9969375
21
41.9671677
0
LINE
8
DEFAULT_255_2_778
10
45.9969375
20
41.9671677
11
46.4372375
21
42.9222677
0
LINE
8
DEFAULT_255_2_778
10
46.4372375
20
42.9222677
11
45.8601375
21
42.9222677
0
LINE
8
DEFAULT_255_2_778
10
45.8601375
20
42.9222677
11
45.8601375
21
43.0336677
0
LINE
8
DEFAULT_255_2_778
10
45.8601375
20
43.0336677
11
46.5808375
21
43.0336677
0
LINE
8
DEFAULT_255_2_778
10
46.5808375
20
43.0336677
11
46.5806375
21
43.0336677
0
LINE
8
DEFAULT_255_2_778
10
13.6375657
20
5.4696437
11
13.6375657
21
4.7695437
0
LINE
8
DEFAULT_255_2_778
10
13.6375657
20
4.7695437
11
20.5376657
21
4.7695437
0
LINE
8
DEFAULT_255_2_778
10
20.5376657
20
4.7695437
11
20.5376657
21
5.4696437
0
LINE
8
DEFAULT_255_2_778
10
20.5374
20
4.7698312
11
20.5374
21
4.2697312
0
LINE
8
DEFAULT_255_2_778
10
18.1375834
20
16.6698062
11
18.1375834
21
16.7698062
0
LINE
8
DEFAULT_255_2_778
10
18.1375834
20
16.7698062
11
13.6375834
21
16.7698062
0
LINE
8
DEFAULT_255_2_778
10
13.6376
20
4.2697312
11
13.6376
21
4.7698312
0
LINE
8
DEFAULT_255_2_778
10
21.4375
20
15.9699946
11
21.4375
21
5.4699946
0
LINE
8
DEFAULT_255_2_778
10
9.0374959
20
15.7199614
11
4.7374959
21
15.7199614
0
LINE
8
DEFAULT_255_2_778
10
4.7374959
20
15.7199614
11
4.7374959
21
14.2200614
0
LINE
8
DEFAULT_255_2_778
10
9.0374959
20
5.7199614
11
4.7374959
21
5.7199614
0
LINE
8
DEFAULT_255_2_778
10
4.7374959
20
5.7199614
11
4.7374959
21
7.2198614
0
LINE
8
DEFAULT_255_2_778
10
13.6376
20
16.6697312
11
13.6376
21
17.1698312
0
LINE
8
DEFAULT_255_2_778
10
17.3375
20
15.9696946
11
17.3375
21
5.4696946
0
LINE
8
DEFAULT_255_2_778
10
13.1374679
20
15.96998
11
13.1374679
21
17.16988
0
LINE
8
DEFAULT_255_2_778
10
13.1374679
20
17.16988
11
21.4374679
21
17.16988
0
LINE
8
DEFAULT_255_2_778
10
21.4374679
20
17.16988
11
21.4374679
21
15.96998
0
LINE
8
DEFAULT_255_2_778
10
21.4374679
20
15.96998
11
10.3373679
21
15.96998
0
LINE
8
DEFAULT_255_2_778
10
10.3373679
20
15.96998
11
10.3373679
21
5.46998
0
LINE
8
DEFAULT_255_2_778
10
10.3373679
20
5.46998
11
21.4374679
21
5.46998
0
LINE
8
DEFAULT_255_2_778
10
21.4374679
20
5.46998
11
21.4374679
21
4.27008
0
LINE
8
DEFAULT_255_2_778
10
21.4374679
20
4.27008
11
13.1374679
21
4.27008
0
LINE
8
DEFAULT_255_2_778
10
13.1374679
20
4.27008
11
13.1374679
21
5.46998
0
LINE
8
DEFAULT_255_2_778
10
19.1875
20
16.6697312
11
19.1875
21
17.1698312
0
LINE
8
DEFAULT_255_2_778
10
17.0875
20
16.769825
11
17.0875
21
17.169825
0
LINE
8
DEFAULT_255_2_778
10
20.5376657
20
15.9696437
11
20.5376657
21
16.6697437
0
LINE
8
DEFAULT_255_2_778
10
20.5376657
20
16.6697437
11
13.6375657
21
16.6697437
0
LINE
8
DEFAULT_255_2_778
10
13.6375657
20
16.6697437
11
13.6375657
21
15.9696437
0
LINE
8
DEFAULT_255_2_778
10
17.1875
20
16.769825
11
17.1875
21
17.169825
0
LINE
8
DEFAULT_255_2_778
10
15.9376
20
16.769825
11
15.9376
21
17.169825
0
ARC
8
DEFAULT_255_2_778
10
9.8372684
20
13.0191284
40
0.6007831
50
33.6016849
51
89.9718485
0
ARC
8
DEFAULT_255_2_778
10
8.2382097
20
13.0192653
40
0.6006464
50
90.0520945
51
179.9479055
0
ARC
8
DEFAULT_255_2_778
10
9.8372684
20
11.9206944
40
0.6007831
50
270.0281515
51
326.3983151
0
ARC
8
DEFAULT_255_2_778
10
8.2382097
20
11.9205575
40
0.6006464
50
180.0520945
51
269.9479055
0
ARC
8
DEFAULT_255_2_778
10
8.2377874
20
11.9199177
40
0.1000063
50
224.911855
51
269.9290487
0
ARC
8
DEFAULT_255_2_778
10
8.2375731
20
11.9199952
40
0.0999095
50
179.9907187
51
225.0301224
0
ARC
8
DEFAULT_255_2_778
10
8.2375731
20
13.0198276
40
0.0999095
50
134.9698776
51
180.0092813
0
ARC
8
DEFAULT_255_2_778
10
8.2376474
20
13.0199019
40
0.0999095
50
89.9907187
51
135.0301224
0
ARC
8
DEFAULT_255_2_778
10
9.83758
20
13.0199025
40
0.0999089
50
44.9697096
51
90.0094117
0
ARC
8
DEFAULT_255_2_778
10
9.8372322
20
13.0196528
40
0.1003315
50
0.0905703
51
44.9302235
0
ARC
8
DEFAULT_255_2_778
10
9.8372324
20
11.9201699
40
0.1003313
50
315.0697422
51
359.9095272
0
ARC
8
DEFAULT_255_2_778
10
9.8374399
20
11.9199172
40
0.1000058
50
270.0708366
51
315.0882669
0
LINE
8
DEFAULT_255_2_778
10
10.3376636
20
13.0198114
11
9.9375636
21
13.0198114
0
LINE
8
DEFAULT_255_2_778
10
10.3376636
20
11.9200114
11
9.9375636
21
11.9200114
0
LINE
8
DEFAULT_255_2_778
10
9.8375636
20
13.6199114
11
9.8375636
21
13.1198114
0
LINE
8
DEFAULT_255_2_778
10
9.8375636
20
11.8199114
11
9.8375636
21
11.3199114
0
LINE
8
DEFAULT_255_2_778
10
8.2376636
20
13.6199114
11
8.2376636
21
13.1198114
0
LINE
8
DEFAULT_255_2_778
10
8.1376636
20
13.0198114
11
7.6375636
21
13.0198114
0
LINE
8
DEFAULT_255_2_778
10
9.8375636
20
13.6199114
11
8.2376636
21
13.6199114
0
LINE
8
DEFAULT_255_2_778
10
7.6375636
20
13.0198114
11
7.6375636
21
11.9200114
0
LINE
8
DEFAULT_255_2_778
10
8.2376636
20
11.3199114
11
9.8375636
21
11.3199114
0
LINE
8
DEFAULT_255_2_778
10
8.1376636
20
11.9200114
11
7.6375636
21
11.9200114
0
LINE
8
DEFAULT_255_2_778
10
8.2376636
20
11.3199114
11
8.2376636
21
11.8199114
0
LINE
8
DEFAULT_255_2_778
10
8.1376636
20
11.9200114
11
8.1376636
21
13.0198114
0
LINE
8
DEFAULT_255_2_778
10
8.2376636
20
13.1198114
11
9.8375636
21
13.1198114
0
LINE
8
DEFAULT_255_2_778
10
9.9375636
20
13.0198114
11
9.9375636
21
11.9200114
0
LINE
8
DEFAULT_255_2_778
10
9.8375636
20
11.8199114
11
8.2376636
21
11.8199114
0
ARC
8
DEFAULT_255_2_778
10
9.8372684
20
9.5189284
40
0.6007831
50
33.6016849
51
89.9718485
0
ARC
8
DEFAULT_255_2_778
10
8.2382097
20
9.5190653
40
0.6006464
50
90.0520945
51
179.9479055
0
ARC
8
DEFAULT_255_2_778
10
8.2382097
20
8.4203575
40
0.6006464
50
180.0520945
51
269.9479055
0
ARC
8
DEFAULT_255_2_778
10
9.8372684
20
8.4204944
40
0.6007831
50
270.0281515
51
326.3983151
0
ARC
8
DEFAULT_255_2_778
10
9.8374399
20
8.4197172
40
0.1000058
50
270.0708366
51
315.0882669
0
ARC
8
DEFAULT_255_2_778
10
9.837232
20
8.41997
40
0.1003315
50
315.0698525
51
359.9094454
0
ARC
8
DEFAULT_255_2_778
10
9.8372318
20
9.5194527
40
0.1003319
50
0.0906359
51
44.9301189
0
ARC
8
DEFAULT_255_2_778
10
9.83758
20
9.5197025
40
0.0999089
50
44.9697096
51
90.0094117
0
ARC
8
DEFAULT_255_2_778
10
8.2376474
20
9.5197019
40
0.0999095
50
89.9907187
51
135.0301224
0
ARC
8
DEFAULT_255_2_778
10
8.2375726
20
9.5196278
40
0.099909
50
134.9697211
51
180.009379
0
ARC
8
DEFAULT_255_2_778
10
8.2375726
20
8.4197951
40
0.099909
50
179.9906372
51
225.0302732
0
ARC
8
DEFAULT_255_2_778
10
8.2377874
20
8.4197177
40
0.1000063
50
224.911855
51
269.9290487
0
LINE
8
DEFAULT_255_2_778
10
9.9375636
20
8.4198114
11
10.3376636
21
8.4198114
0
LINE
8
DEFAULT_255_2_778
10
9.9375636
20
9.5196114
11
10.3376636
21
9.5196114
0
LINE
8
DEFAULT_255_2_778
10
9.8375636
20
10.1197114
11
9.8375636
21
9.6196114
0
LINE
8
DEFAULT_255_2_778
10
8.2376636
20
8.3197114
11
8.2376636
21
7.8197114
0
LINE
8
DEFAULT_255_2_778
10
8.2376636
20
10.1197114
11
8.2376636
21
9.6196114
0
LINE
8
DEFAULT_255_2_778
10
7.6375636
20
8.4198114
11
8.1376636
21
8.4198114
0
LINE
8
DEFAULT_255_2_778
10
7.6375636
20
9.5196114
11
8.1376636
21
9.5196114
0
LINE
8
DEFAULT_255_2_778
10
9.8375636
20
10.1197114
11
8.2376636
21
10.1197114
0
LINE
8
DEFAULT_255_2_778
10
7.6375636
20
9.5196114
11
7.6375636
21
8.4198114
0
LINE
8
DEFAULT_255_2_778
10
8.2376636
20
7.8197114
11
9.8375636
21
7.8197114
0
LINE
8
DEFAULT_255_2_778
10
9.8375636
20
7.8197114
11
9.8375636
21
8.3197114
0
LINE
8
DEFAULT_255_2_778
10
9.9375636
20
8.4198114
11
9.9375636
21
9.5196114
0
LINE
8
DEFAULT_255_2_778
10
9.8375636
20
9.6196114
11
8.2376636
21
9.6196114
0
LINE
8
DEFAULT_255_2_778
10
8.1376636
20
9.5196114
11
8.1376636
21
8.4198114
0
LINE
8
DEFAULT_255_2_778
10
8.2376636
20
8.3197114
11
9.8375636
21
8.3197114
0
LINE
8
DEFAULT_255_2_778
10
15.6375084
20
15.4199177
11
15.6375084
21
13.0199177
0
LINE
8
DEFAULT_255_2_778
10
11.5375084
20
13.0199177
11
11.5375084
21
15.4199177
0
LINE
8
DEFAULT_255_2_778
10
11.5375084
20
15.4199177
11
12.0376084
21
14.9198177
0
LINE
8
DEFAULT_255_2_778
10
12.0376084
20
14.9198177
11
12.0376084
21
13.5199177
0
LINE
8
DEFAULT_255_2_778
10
12.0376084
20
13.5199177
11
15.1377084
21
13.5199177
0
LINE
8
DEFAULT_255_2_778
10
15.1377084
20
14.9198177
11
12.0376084
21
14.9198177
0
LINE
8
DEFAULT_255_2_778
10
11.5375084
20
15.4199177
11
15.6375084
21
15.4199177
0
LINE
8
DEFAULT_255_2_778
10
15.6375084
20
15.4199177
11
15.1374084
21
14.9198177
0
LINE
8
DEFAULT_255_2_778
10
15.1374084
20
14.9198177
11
15.1374084
21
13.5199177
0
LINE
8
DEFAULT_255_2_778
10
15.1374084
20
13.5199177
11
15.6375084
21
13.0199177
0
LINE
8
DEFAULT_255_2_778
10
15.6375084
20
13.0199177
11
11.5375084
21
13.0199177
0
LINE
8
DEFAULT_255_2_778
10
11.5375084
20
13.0199177
11
12.0376084
21
13.5199177
0
LINE
8
DEFAULT_255_2_778
10
15.6375761
20
11.9197177
11
15.6375761
21
9.5197177
0
LINE
8
DEFAULT_255_2_778
10
11.5375761
20
9.5197177
11
11.5375761
21
11.9197177
0
LINE
8
DEFAULT_255_2_778
10
11.5375761
20
11.9197177
11
12.0376761
21
11.4196177
0
LINE
8
DEFAULT_255_2_778
10
12.0376761
20
11.4196177
11
12.0376761
21
10.0197177
0
LINE
8
DEFAULT_255_2_778
10
15.1377761
20
10.0197177
11
15.6377761
21
9.5197177
0
LINE
8
DEFAULT_255_2_778
10
15.6377761
20
9.5197177
11
11.5375761
21
9.5197177
0
LINE
8
DEFAULT_255_2_778
10
11.5375761
20
9.5197177
11
12.0376761
21
10.0197177
0
LINE
8
DEFAULT_255_2_778
10
12.0376761
20
10.0197177
11
15.1377761
21
10.0197177
0
LINE
8
DEFAULT_255_2_778
10
15.1377761
20
10.0197177
11
15.1377761
21
11.4196177
0
LINE
8
DEFAULT_255_2_778
10
11.5378761
20
11.9197177
11
15.6377761
21
11.9197177
0
LINE
8
DEFAULT_255_2_778
10
15.6377761
20
11.9197177
11
15.1377761
21
11.4196177
0
LINE
8
DEFAULT_255_2_778
10
15.1377761
20
11.4196177
11
12.0376761
21
11.4196177
0
LINE
8
DEFAULT_255_2_778
10
15.6375761
20
8.4198177
11
15.6375761
21
6.0198177
0
LINE
8
DEFAULT_255_2_778
10
12.0376761
20
7.9197177
11
11.5375761
21
8.4198177
0
LINE
8
DEFAULT_255_2_778
10
11.5375761
20
8.4198177
11
11.5375761
21
6.0198177
0
LINE
8
DEFAULT_255_2_778
10
15.1374761
20
7.9197177
11
12.0376761
21
7.9197177
0
LINE
8
DEFAULT_255_2_778
10
12.0376761
20
7.9197177
11
12.0376761
21
6.5198177
0
LINE
8
DEFAULT_255_2_778
10
12.0376761
20
6.5198177
11
15.1377761
21
6.5198177
0
LINE
8
DEFAULT_255_2_778
10
11.5378761
20
8.4198177
11
15.6377761
21
8.4198177
0
LINE
8
DEFAULT_255_2_778
10
15.6377761
20
8.4198177
11
15.1377761
21
7.9197177
0
LINE
8
DEFAULT_255_2_778
10
15.1377761
20
7.9197177
11
15.1377761
21
6.5198177
0
LINE
8
DEFAULT_255_2_778
10
15.1377761
20
6.5198177
11
15.6377761
21
6.0198177
0
LINE
8
DEFAULT_255_2_778
10
15.6377761
20
6.0198177
11
11.5375761
21
6.0198177
0
LINE
8
DEFAULT_255_2_778
10
11.5375761
20
6.0198177
11
12.0376761
21
6.5198177
0
ARC
8
DEFAULT_255_2_778
10
9.8368112
20
29.9704575
40
0.6006464
50
270.0520945
51
359.9479055
0
ARC
8
DEFAULT_255_2_778
10
8.2380035
20
29.9704575
40
0.6006464
50
180.0520945
51
269.9479055
0
ARC
8
DEFAULT_255_2_778
10
8.2373669
20
31.0697276
40
0.0999095
50
134.9698776
51
180.0092813
0
ARC
8
DEFAULT_255_2_778
10
8.2374411
20
31.0698019
40
0.0999095
50
89.9907187
51
135.0301224
0
ARC
8
DEFAULT_255_2_778
10
8.2380035
20
31.0691653
40
0.6006464
50
90.0520945
51
179.9479055
0
ARC
8
DEFAULT_255_2_778
10
8.2373663
20
29.9698951
40
0.099909
50
179.9906372
51
225.0302732
0
ARC
8
DEFAULT_255_2_778
10
8.2375812
20
29.9698177
40
0.1000063
50
224.911855
51
269.9290487
0
ARC
8
DEFAULT_255_2_778
10
9.8372337
20
29.9698172
40
0.1000058
50
270.0708366
51
315.0882669
0
ARC
8
DEFAULT_255_2_778
10
9.8370258
20
29.97007
40
0.1003315
50
315.0698525
51
359.9094454
0
ARC
8
DEFAULT_255_2_778
10
9.8368112
20
31.0691653
40
0.6006464
50
0.0520945
51
89.9479055
0
ARC
8
DEFAULT_255_2_778
10
9.8370256
20
31.0695527
40
0.1003319
50
0.0906359
51
44.9301189
0
ARC
8
DEFAULT_255_2_778
10
9.8373737
20
31.0698025
40
0.0999089
50
44.9697096
51
90.0094117
0
LINE
8
DEFAULT_255_2_778
10
10.4374573
20
31.0697114
11
10.4374573
21
29.9699114
0
LINE
8
DEFAULT_255_2_778
10
9.8373573
20
29.3698114
11
9.8373573
21
29.8698114
0
LINE
8
DEFAULT_255_2_778
10
8.2374573
20
29.3698114
11
8.2374573
21
29.8698114
0
LINE
8
DEFAULT_255_2_778
10
8.1374573
20
29.9699114
11
7.6373573
21
29.9699114
0
LINE
8
DEFAULT_255_2_778
10
9.9373573
20
29.9699114
11
10.4374573
21
29.9699114
0
LINE
8
DEFAULT_255_2_778
10
9.8373573
20
29.3698114
11
8.2374573
21
29.3698114
0
LINE
8
DEFAULT_255_2_778
10
7.6373573
20
29.9699114
11
7.6373573
21
31.0697114
0
LINE
8
DEFAULT_255_2_778
10
7.6373573
20
31.0697114
11
8.1374573
21
31.0697114
0
LINE
8
DEFAULT_255_2_778
10
8.2374573
20
31.1697114
11
8.2374573
21
31.6698114
0
LINE
8
DEFAULT_255_2_778
10
8.1374573
20
31.0697114
11
8.1374573
21
29.9699114
0
LINE
8
DEFAULT_255_2_778
10
8.2374573
20
29.8698114
11
9.8373573
21
29.8698114
0
LINE
8
DEFAULT_255_2_778
10
9.9373573
20
29.9699114
11
9.9373573
21
31.0697114
0
LINE
8
DEFAULT_255_2_778
10
8.2374573
20
31.6698114
11
9.8373573
21
31.6698114
0
LINE
8
DEFAULT_255_2_778
10
9.8373573
20
31.1697114
11
9.8373573
21
31.6698114
0
LINE
8
DEFAULT_255_2_778
10
10.4374573
20
31.0697114
11
9.9373573
21
31.0697114
0
LINE
8
DEFAULT_255_2_778
10
9.8373573
20
31.1697114
11
8.2374573
21
31.1697114
0
ARC
8
DEFAULT_255_2_778
10
8.2373663
20
26.4699951
40
0.099909
50
179.9906372
51
225.0302732
0
ARC
8
DEFAULT_255_2_778
10
8.2375812
20
26.4699177
40
0.1000063
50
224.911855
51
269.9290487
0
ARC
8
DEFAULT_255_2_778
10
8.2380035
20
27.5692653
40
0.6006464
50
90.0520945
51
179.9479055
0
ARC
8
DEFAULT_255_2_778
10
8.2380035
20
26.4705575
40
0.6006464
50
180.0520945
51
269.9479055
0
ARC
8
DEFAULT_255_2_778
10
9.8368112
20
27.5692653
40
0.6006464
50
0.0520945
51
89.9479055
0
ARC
8
DEFAULT_255_2_778
10
9.8370256
20
27.5696527
40
0.1003319
50
0.0906359
51
44.9301189
0
ARC
8
DEFAULT_255_2_778
10
9.8373737
20
27.5699025
40
0.0999089
50
44.9697096
51
90.0094117
0
ARC
8
DEFAULT_255_2_778
10
8.2374411
20
27.5699019
40
0.0999095
50
89.9907187
51
135.0301224
0
ARC
8
DEFAULT_255_2_778
10
8.2373663
20
27.5698278
40
0.099909
50
134.9697211
51
180.009379
0
ARC
8
DEFAULT_255_2_778
10
9.8368112
20
26.4705575
40
0.6006464
50
270.0520945
51
359.9479055
0
ARC
8
DEFAULT_255_2_778
10
9.8372337
20
26.4699172
40
0.1000058
50
270.0708366
51
315.0882669
0
ARC
8
DEFAULT_255_2_778
10
9.8370258
20
26.47017
40
0.1003315
50
315.0698525
51
359.9094454
0
LINE
8
DEFAULT_255_2_778
10
10.4374573
20
27.5698114
11
10.4374573
21
26.4700114
0
LINE
8
DEFAULT_255_2_778
10
8.1374573
20
27.5698114
11
7.6373573
21
27.5698114
0
LINE
8
DEFAULT_255_2_778
10
9.8373573
20
25.8699114
11
8.2374573
21
25.8699114
0
LINE
8
DEFAULT_255_2_778
10
7.6373573
20
26.4700114
11
8.1374573
21
26.4700114
0
LINE
8
DEFAULT_255_2_778
10
8.2374573
20
26.3699114
11
9.8373573
21
26.3699114
0
LINE
8
DEFAULT_255_2_778
10
9.8373573
20
28.1699114
11
8.2374573
21
28.1699114
0
LINE
8
DEFAULT_255_2_778
10
7.6373573
20
27.5698114
11
7.6373573
21
26.4700114
0
LINE
8
DEFAULT_255_2_778
10
8.2374573
20
25.8699114
11
8.2374573
21
26.3699114
0
LINE
8
DEFAULT_255_2_778
10
8.2374573
20
27.6698114
11
9.8373573
21
27.6698114
0
LINE
8
DEFAULT_255_2_778
10
9.8373573
20
27.6698114
11
9.8373573
21
28.1699114
0
LINE
8
DEFAULT_255_2_778
10
10.4374573
20
27.5698114
11
9.9373573
21
27.5698114
0
LINE
8
DEFAULT_255_2_778
10
8.2374573
20
28.1699114
11
8.2374573
21
27.6698114
0
LINE
8
DEFAULT_255_2_778
10
8.1374573
20
27.5698114
11
8.1374573
21
26.4700114
0
LINE
8
DEFAULT_255_2_778
10
9.9373573
20
26.4700114
11
10.4374573
21
26.4700114
0
LINE
8
DEFAULT_255_2_778
10
9.8373573
20
25.8699114
11
9.8373573
21
26.3699114
0
LINE
8
DEFAULT_255_2_778
10
9.9373573
20
26.4700114
11
9.9373573
21
27.5698114
0
LINE
8
DEFAULT_255_2_778
10
20.3373595
20
55.3147842
11
19.3372595
21
56.3148842
0
LINE
8
DEFAULT_255_2_778
10
19.3372595
20
56.3148842
11
19.3372595
21
63.6147842
0
LINE
8
DEFAULT_255_2_778
10
19.3372595
20
63.6147842
11
20.3373595
21
64.6148842
0
LINE
8
DEFAULT_255_2_778
10
20.3373595
20
64.6148842
11
20.3373595
21
55.3147842
0
LINE
8
DEFAULT_255_2_778
10
20.3373595
20
55.3147842
11
14.9374595
21
55.3147842
0
LINE
8
DEFAULT_255_2_778
10
14.9374595
20
64.6148842
11
15.9375595
21
63.6147842
0
LINE
8
DEFAULT_255_2_778
10
15.9375595
20
63.6147842
11
15.9375595
21
56.3146842
0
LINE
8
DEFAULT_255_2_778
10
15.9375595
20
56.3146842
11
14.9374595
21
55.3144842
0
LINE
8
DEFAULT_255_2_778
10
14.9374595
20
55.3144842
11
14.9374595
21
64.6145842
0
LINE
8
DEFAULT_255_2_778
10
14.9374595
20
64.6145842
11
20.3373595
21
64.6145842
0
LINE
8
DEFAULT_255_2_778
10
15.9373595
20
56.3146842
11
19.3372595
21
56.3146842
0
LINE
8
DEFAULT_255_2_778
10
19.3372595
20
63.6147842
11
15.9373595
21
63.6147842
0
LINE
8
DEFAULT_255_2_778
10
18.6373595
20
61.9047842
11
16.6373595
21
61.9047842
0
LINE
8
DEFAULT_255_2_778
10
16.6373595
20
61.9047842
11
16.6373595
21
62.9048842
0
LINE
8
DEFAULT_255_2_778
10
16.6373595
20
62.9048842
11
18.6373595
21
62.9048842
0
LINE
8
DEFAULT_255_2_778
10
18.6373595
20
58.9048842
11
16.6373595
21
58.9048842
0
LINE
8
DEFAULT_255_2_778
10
16.6373595
20
58.9048842
11
16.6373595
21
61.9047842
0
LINE
8
DEFAULT_255_2_778
10
16.6373595
20
59.9047842
11
18.6373595
21
59.9047842
0
LINE
8
DEFAULT_255_2_778
10
18.6373595
20
58.1698842
11
19.3374595
21
58.1698842
0
LINE
8
DEFAULT_255_2_778
10
18.6373595
20
56.3148842
11
18.6373595
21
63.6147842
0
LINE
8
DEFAULT_255_2_778
10
15.9375877
20
21.969585
11
15.9375877
21
22.119585
0
LINE
8
DEFAULT_255_2_778
10
17.8949877
20
21.969585
11
17.9682877
21
22.119585
0
LINE
8
DEFAULT_255_2_778
10
17.0876877
20
21.969585
11
17.0876877
21
22.119585
0
LINE
8
DEFAULT_255_2_778
10
19.1876877
20
21.969585
11
19.1876877
21
22.119585
0
LINE
8
DEFAULT_255_2_778
10
13.6377877
20
21.969585
11
13.6377877
21
22.119585
0
LINE
8
DEFAULT_255_2_778
10
14.6376877
20
35.419685
11
14.6376877
21
36.594685
0
LINE
8
DEFAULT_255_2_778
10
13.6375877
20
35.419685
11
13.6375877
21
36.594685
0
LINE
8
DEFAULT_255_2_778
10
16.3174877
20
25.269785
11
14.1174877
21
25.269785
0
LINE
8
DEFAULT_255_2_778
10
14.1174877
20
25.269785
11
14.1174877
21
32.269885
0
LINE
8
DEFAULT_255_2_778
10
14.1174877
20
32.269885
11
16.3174877
21
32.269885
0
LINE
8
DEFAULT_255_2_778
10
16.3174877
20
32.269885
11
16.3174877
21
33.684885
0
LINE
8
DEFAULT_255_2_778
10
16.3174877
20
33.684885
11
23.1373877
21
33.684885
0
LINE
8
DEFAULT_255_2_778
10
23.1373877
20
33.684885
11
23.1373877
21
23.854785
0
LINE
8
DEFAULT_255_2_778
10
23.1373877
20
23.854785
11
16.3174877
21
23.854785
0
LINE
8
DEFAULT_255_2_778
10
16.3174877
20
23.854785
11
16.3174877
21
25.269785
0
LINE
8
DEFAULT_255_2_778
10
14.1174877
20
31.019685
11
13.4374877
21
31.019685
0
LINE
8
DEFAULT_255_2_778
10
13.4374877
20
31.019685
11
13.4374877
21
35.419685
0
LINE
8
DEFAULT_255_2_778
10
13.4374877
20
35.419685
11
25.1373877
21
35.419685
0
LINE
8
DEFAULT_255_2_778
10
25.1373877
20
35.419685
11
25.1373877
21
22.119585
0
LINE
8
DEFAULT_255_2_778
10
25.1373877
20
22.119585
11
13.4374877
21
22.119585
0
LINE
8
DEFAULT_255_2_778
10
13.4374877
20
22.119585
11
13.4374877
21
26.519685
0
LINE
8
DEFAULT_255_2_778
10
13.4374877
20
26.519685
11
14.1174877
21
26.519685
0
LINE
8
DEFAULT_255_2_778
10
17.6374877
20
38.494685
11
20.0375877
21
38.494685
0
LINE
8
DEFAULT_255_2_778
10
20.0375877
20
38.494685
11
20.0375877
21
39.241585
0
LINE
8
DEFAULT_255_2_778
10
20.0375877
20
39.241585
11
22.0375877
21
39.241585
0
LINE
8
DEFAULT_255_2_778
10
22.0375877
20
39.241585
11
22.0375877
21
38.494685
0
LINE
8
DEFAULT_255_2_778
10
22.0375877
20
38.494685
11
24.4375877
21
38.494685
0
LINE
8
DEFAULT_255_2_778
10
24.4375877
20
38.494685
11
24.4375877
21
50.444585
0
LINE
8
DEFAULT_255_2_778
10
24.4375877
20
50.444585
11
22.0375877
21
50.444585
0
LINE
8
DEFAULT_255_2_778
10
22.0375877
20
50.444585
11
22.0375877
21
49.697685
0
LINE
8
DEFAULT_255_2_778
10
22.0375877
20
49.697685
11
20.0375877
21
49.697685
0
LINE
8
DEFAULT_255_2_778
10
20.0375877
20
49.697685
11
20.0375877
21
50.444585
0
LINE
8
DEFAULT_255_2_778
10
20.0375877
20
50.444585
11
17.6374877
21
50.444585
0
LINE
8
DEFAULT_255_2_778
10
26.9875877
20
52.344585
11
26.9875877
21
36.594485
0
LINE
8
DEFAULT_255_2_778
10
26.9875877
20
36.594485
11
13.6375877
21
36.594485
0
LINE
8
DEFAULT_255_2_778
10
13.6375877
20
36.594485
11
13.6375877
21
52.344585
0
LINE
8
DEFAULT_255_2_778
10
13.6375877
20
52.344585
11
26.9875877
21
52.344585
0
LINE
8
DEFAULT_255_2_778
10
15.5374877
20
48.249585
11
17.6374877
21
48.249585
0
LINE
8
DEFAULT_255_2_778
10
17.6374877
20
48.249585
11
17.6374877
21
50.789585
0
LINE
8
DEFAULT_255_2_778
10
17.6374877
20
50.789585
11
15.5374877
21
50.789585
0
LINE
8
DEFAULT_255_2_778
10
15.5374877
20
50.789585
11
15.5374877
21
48.249585
0
LINE
8
DEFAULT_255_2_778
10
15.5374877
20
48.249585
11
14.6373877
21
48.249585
0
LINE
8
DEFAULT_255_2_778
10
14.6373877
20
48.249585
11
14.6373877
21
40.689685
0
LINE
8
DEFAULT_255_2_778
10
14.6373877
20
40.689685
11
15.5374877
21
40.689685
0
LINE
8
DEFAULT_255_2_778
10
15.5374877
20
40.689685
11
15.5374877
21
38.149685
0
LINE
8
DEFAULT_255_2_778
10
15.5374877
20
38.149685
11
17.6374877
21
38.149685
0
LINE
8
DEFAULT_255_2_778
10
17.6374877
20
38.149685
11
17.6374877
21
40.689685
0
LINE
8
DEFAULT_255_2_778
10
17.6374877
20
40.689685
11
15.5374877
21
40.689685
0
LINE
8
DEFAULT_255_2_778
10
20.4375877
20
35.419685
11
20.4375877
21
36.594685
0
LINE
8
DEFAULT_255_2_778
10
20.4375877
20
52.344885
11
20.4375877
21
52.664985
0
LINE
8
DEFAULT_255_2_778
10
13.6375877
20
26.519885
11
13.6375877
21
31.019685
0
LINE
8
DEFAULT_255_2_778
10
13.6375877
20
52.344885
11
13.6375877
21
52.664985
0
LINE
8
DEFAULT_255_2_778
10
27.3074877
20
35.764985
11
25.4874877
21
35.764985
0
LINE
8
DEFAULT_255_2_778
10
25.4874877
20
35.764985
11
25.4874877
21
21.969885
0
LINE
8
DEFAULT_255_2_778
10
25.4874877
20
21.969885
11
13.1374877
21
21.969885
0
LINE
8
DEFAULT_255_2_778
10
13.1374877
20
21.969885
11
13.1374877
21
52.664685
0
LINE
8
DEFAULT_255_2_778
10
13.1374877
20
52.664685
11
27.3074877
21
52.664685
0
LINE
8
DEFAULT_255_2_778
10
27.3074877
20
52.664685
11
27.3074877
21
35.764985
0
ARC
8
DEFAULT_255_2_778
10
8.2373663
20
55.9148951
40
0.099909
50
179.9906372
51
225.0302732
0
ARC
8
DEFAULT_255_2_778
10
8.2375812
20
55.9148177
40
0.1000063
50
224.911855
51
269.9290487
0
ARC
8
DEFAULT_255_2_778
10
9.8372337
20
55.9148172
40
0.1000058
50
270.0708366
51
315.0882669
0
ARC
8
DEFAULT_255_2_778
10
9.8370258
20
55.91507
40
0.1003315
50
315.0698525
51
359.9094454
0
ARC
8
DEFAULT_255_2_778
10
9.8370256
20
57.0145527
40
0.1003319
50
0.0906359
51
44.9301189
0
ARC
8
DEFAULT_255_2_778
10
9.8373737
20
57.0148025
40
0.0999089
50
44.9697096
51
90.0094117
0
ARC
8
DEFAULT_255_2_778
10
9.8368112
20
55.9154575
40
0.6006464
50
270.0520945
51
359.9479055
0
ARC
8
DEFAULT_255_2_778
10
9.8368112
20
57.0141653
40
0.6006464
50
0.0520945
51
89.9479055
0
ARC
8
DEFAULT_255_2_778
10
8.2380035
20
57.0141653
40
0.6006464
50
90.0520945
51
179.9479055
0
ARC
8
DEFAULT_255_2_778
10
8.2373669
20
57.0147276
40
0.0999095
50
134.9698776
51
180.0092813
0
ARC
8
DEFAULT_255_2_778
10
8.2374411
20
57.0148019
40
0.0999095
50
89.9907187
51
135.0301224
0
ARC
8
DEFAULT_255_2_778
10
8.2380035
20
55.9156575
40
0.6006464
50
180.0520945
51
269.9479055
0
LINE
8
DEFAULT_255_2_778
10
7.6373573
20
55.9149114
11
8.1374573
21
55.9149114
0
LINE
8
DEFAULT_255_2_778
10
8.2374573
20
55.8148114
11
9.8373573
21
55.8148114
0
LINE
8
DEFAULT_255_2_778
10
9.9373573
20
55.9149114
11
9.9373573
21
57.0147114
0
LINE
8
DEFAULT_255_2_778
10
9.8373573
20
57.1147114
11
8.2374573
21
57.1147114
0
LINE
8
DEFAULT_255_2_778
10
8.2374573
20
55.3148114
11
9.8373573
21
55.3148114
0
LINE
8
DEFAULT_255_2_778
10
10.4374573
20
55.9149114
11
10.4374573
21
57.0147114
0
LINE
8
DEFAULT_255_2_778
10
9.8373573
20
57.6148114
11
8.2374573
21
57.6148114
0
LINE
8
DEFAULT_255_2_778
10
7.6373573
20
57.0147114
11
8.1374573
21
57.0147114
0
LINE
8
DEFAULT_255_2_778
10
8.2374573
20
57.1147114
11
8.2374573
21
57.6148114
0
LINE
8
DEFAULT_255_2_778
10
10.4374573
20
57.0147114
11
9.9373573
21
57.0147114
0
LINE
8
DEFAULT_255_2_778
10
10.4374573
20
55.9149114
11
9.9373573
21
55.9149114
0
LINE
8
DEFAULT_255_2_778
10
9.8373573
20
55.3148114
11
9.8373573
21
55.8148114
0
LINE
8
DEFAULT_255_2_778
10
9.8373573
20
57.1147114
11
9.8373573
21
57.6148114
0
LINE
8
DEFAULT_255_2_778
10
8.1374573
20
57.0147114
11
8.1374573
21
55.9149114
0
LINE
8
DEFAULT_255_2_778
10
7.6373573
20
57.0150114
11
7.6373573
21
55.9151114
0
LINE
8
DEFAULT_255_2_778
10
8.2374573
20
55.3150114
11
8.2374573
21
55.8151114
0
ARC
8
DEFAULT_255_2_778
10
9.8372337
20
59.4147172
40
0.1000058
50
270.0708366
51
315.0882669
0
ARC
8
DEFAULT_255_2_778
10
9.8370258
20
59.41497
40
0.1003315
50
315.0698525
51
359.9094454
0
ARC
8
DEFAULT_255_2_778
10
9.8370256
20
60.5144527
40
0.1003319
50
0.0906359
51
44.9301189
0
ARC
8
DEFAULT_255_2_778
10
9.8373737
20
60.5147025
40
0.0999089
50
44.9697096
51
90.0094117
0
ARC
8
DEFAULT_255_2_778
10
8.2380035
20
60.5140653
40
0.6006464
50
90.0520945
51
179.9479055
0
ARC
8
DEFAULT_255_2_778
10
8.2380035
20
59.4153575
40
0.6006464
50
180.0520945
51
269.9479055
0
ARC
8
DEFAULT_255_2_778
10
8.2375812
20
59.4147177
40
0.1000063
50
224.911855
51
269.9290487
0
ARC
8
DEFAULT_255_2_778
10
8.2373669
20
59.4147952
40
0.0999095
50
179.9907187
51
225.0301224
0
ARC
8
DEFAULT_255_2_778
10
8.2373669
20
60.5146276
40
0.0999095
50
134.9698776
51
180.0092813
0
ARC
8
DEFAULT_255_2_778
10
8.2374411
20
60.5147019
40
0.0999095
50
89.9907187
51
135.0301224
0
ARC
8
DEFAULT_255_2_778
10
9.8368112
20
59.4153575
40
0.6006464
50
270.0520945
51
359.9479055
0
ARC
8
DEFAULT_255_2_778
10
9.8368112
20
60.5140653
40
0.6006464
50
0.0520945
51
89.9479055
0
LINE
8
DEFAULT_255_2_778
10
7.6373573
20
59.4148114
11
8.1374573
21
59.4148114
0
LINE
8
DEFAULT_255_2_778
10
7.6373573
20
60.5146114
11
8.1374573
21
60.5146114
0
LINE
8
DEFAULT_255_2_778
10
9.9373573
20
59.4148114
11
10.4374573
21
59.4148114
0
LINE
8
DEFAULT_255_2_778
10
9.9373573
20
60.5146114
11
10.4374573
21
60.5146114
0
LINE
8
DEFAULT_255_2_778
10
8.2374573
20
59.3147114
11
9.8373573
21
59.3147114
0
LINE
8
DEFAULT_255_2_778
10
8.2374573
20
61.1147114
11
9.8373573
21
61.1147114
0
LINE
8
DEFAULT_255_2_778
10
9.8373573
20
58.8147114
11
9.8373573
21
59.3147114
0
LINE
8
DEFAULT_255_2_778
10
9.9373573
20
59.4148114
11
9.9373573
21
60.5146114
0
LINE
8
DEFAULT_255_2_778
10
9.8373573
20
60.6146114
11
8.2374573
21
60.6146114
0
LINE
8
DEFAULT_255_2_778
10
8.2374573
20
60.6146114
11
8.2374573
21
61.1147114
0
LINE
8
DEFAULT_255_2_778
10
7.6373573
20
60.5146114
11
7.6373573
21
59.4148114
0
LINE
8
DEFAULT_255_2_778
10
8.2374573
20
58.8147114
11
8.2374573
21
59.3147114
0
LINE
8
DEFAULT_255_2_778
10
8.1374573
20
59.4148114
11
8.1374573
21
60.5146114
0
LINE
8
DEFAULT_255_2_778
10
8.2374573
20
58.8147114
11
9.8373573
21
58.8147114
0
LINE
8
DEFAULT_255_2_778
10
10.4374573
20
59.4148114
11
10.4374573
21
60.5146114
0
LINE
8
DEFAULT_255_2_778
10
9.8373573
20
61.1147114
11
9.8373573
21
60.6146114
0
ARC
8
DEFAULT_255_2_778
10
8.2380035
20
62.9152575
40
0.6006464
50
180.0520945
51
269.9479055
0
ARC
8
DEFAULT_255_2_778
10
9.8368112
20
62.9152575
40
0.6006464
50
270.0520945
51
359.9479055
0
ARC
8
DEFAULT_255_2_778
10
8.2373669
20
64.0145276
40
0.0999095
50
134.9698776
51
180.0092813
0
ARC
8
DEFAULT_255_2_778
10
8.2374411
20
64.0146019
40
0.0999095
50
89.9907187
51
135.0301224
0
ARC
8
DEFAULT_255_2_778
10
8.2380035
20
64.0139653
40
0.6006464
50
90.0520945
51
179.9479055
0
ARC
8
DEFAULT_255_2_778
10
8.2373663
20
62.9146951
40
0.099909
50
179.9906372
51
225.0302732
0
ARC
8
DEFAULT_255_2_778
10
8.2375812
20
62.9146177
40
0.1000063
50
224.911855
51
269.9290487
0
ARC
8
DEFAULT_255_2_778
10
9.8372337
20
62.9146172
40
0.1000058
50
270.0708366
51
315.0882669
0
ARC
8
DEFAULT_255_2_778
10
9.8370258
20
62.91487
40
0.1003315
50
315.0698525
51
359.9094454
0
ARC
8
DEFAULT_255_2_778
10
9.8368112
20
64.0139653
40
0.6006464
50
0.0520945
51
89.9479055
0
ARC
8
DEFAULT_255_2_778
10
9.8370256
20
64.0143527
40
0.1003319
50
0.0906359
51
44.9301189
0
ARC
8
DEFAULT_255_2_778
10
9.8373737
20
64.0146025
40
0.0999089
50
44.9697096
51
90.0094117
0
LINE
8
DEFAULT_255_2_778
10
8.1374573
20
62.9147114
11
7.6373573
21
62.9147114
0
LINE
8
DEFAULT_255_2_778
10
10.4374573
20
62.9147114
11
9.9373573
21
62.9147114
0
LINE
8
DEFAULT_255_2_778
10
8.2374573
20
62.8146114
11
8.2374573
21
62.3146114
0
LINE
8
DEFAULT_255_2_778
10
9.8373573
20
64.6146114
11
9.8373573
21
64.1145114
0
LINE
8
DEFAULT_255_2_778
10
9.8373573
20
62.8146114
11
9.8373573
21
62.3146114
0
LINE
8
DEFAULT_255_2_778
10
7.6373573
20
64.0145114
11
7.6373573
21
62.9147114
0
LINE
8
DEFAULT_255_2_778
10
8.2374573
20
62.3146114
11
9.8373573
21
62.3146114
0
LINE
8
DEFAULT_255_2_778
10
10.4374573
20
62.9147114
11
10.4374573
21
64.0145114
0
LINE
8
DEFAULT_255_2_778
10
8.2374573
20
64.1145114
11
8.2374573
21
64.6146114
0
LINE
8
DEFAULT_255_2_778
10
7.6373573
20
64.0145114
11
8.1374573
21
64.0145114
0
LINE
8
DEFAULT_255_2_778
10
8.1374573
20
64.0145114
11
8.1374573
21
62.9147114
0
LINE
8
DEFAULT_255_2_778
10
8.2374573
20
62.8146114
11
9.8373573
21
62.8146114
0
LINE
8
DEFAULT_255_2_778
10
9.9373573
20
62.9147114
11
9.9373573
21
64.0145114
0
LINE
8
DEFAULT_255_2_778
10
8.2374573
20
64.6146114
11
9.8373573
21
64.6146114
0
LINE
8
DEFAULT_255_2_778
10
10.4374573
20
64.0145114
11
9.9373573
21
64.0145114
0
LINE
8
DEFAULT_255_2_778
10
9.8373573
20
64.1145114
11
8.2374573
21
64.1145114
0
ARC
8
DEFAULT_255_2_778
10
9.8368112
20
66.4154575
40
0.6006464
50
270.0520945
51
359.9479055
0
ARC
8
DEFAULT_255_2_778
10
8.2373657
20
67.5148031
40
0.0999084
50
89.9474432
51
180.0525568
0
ARC
8
DEFAULT_255_2_778
10
8.2374511
20
66.4148051
40
0.0999938
50
179.9390736
51
270.0035784
0
ARC
8
DEFAULT_255_2_778
10
8.2380035
20
66.4154575
40
0.6006464
50
180.0520945
51
269.9479055
0
ARC
8
DEFAULT_255_2_778
10
9.8368112
20
67.5141653
40
0.6006464
50
0.0520945
51
89.9479055
0
ARC
8
DEFAULT_255_2_778
10
9.8373636
20
66.4148051
40
0.0999938
50
269.9964014
51
0.0609348
0
ARC
8
DEFAULT_255_2_778
10
9.837449
20
67.5148031
40
0.0999084
50
359.9474229
51
90.0525485
0
ARC
8
DEFAULT_255_2_778
10
8.2380035
20
67.5141653
40
0.6006464
50
90.0520945
51
179.9479055
0
LINE
8
DEFAULT_255_2_778
10
9.8373573
20
68.1148114
11
8.2374573
21
68.1148114
0
LINE
8
DEFAULT_255_2_778
10
8.2374573
20
68.1148114
11
8.2374573
21
67.6147114
0
LINE
8
DEFAULT_255_2_778
10
8.2374573
20
67.6147114
11
9.8373573
21
67.6147114
0
LINE
8
DEFAULT_255_2_778
10
9.8373573
20
67.6147114
11
9.8373573
21
68.1148114
0
LINE
8
DEFAULT_255_2_778
10
9.8373573
20
66.3148114
11
8.2374573
21
66.3148114
0
LINE
8
DEFAULT_255_2_778
10
8.2374573
20
66.3148114
11
8.2374573
21
65.8148114
0
LINE
8
DEFAULT_255_2_778
10
8.2374573
20
65.8148114
11
9.8373573
21
65.8148114
0
LINE
8
DEFAULT_255_2_778
10
9.8373573
20
65.8148114
11
9.8373573
21
66.3148114
0
LINE
8
DEFAULT_255_2_778
10
9.9373573
20
67.5147114
11
10.4374573
21
67.5147114
0
LINE
8
DEFAULT_255_2_778
10
10.4374573
20
67.5147114
11
10.4374573
21
66.4149114
0
LINE
8
DEFAULT_255_2_778
10
10.4374573
20
66.4149114
11
9.9373573
21
66.4149114
0
LINE
8
DEFAULT_255_2_778
10
9.9373573
20
66.4149114
11
9.9373573
21
67.5147114
0
LINE
8
DEFAULT_255_2_778
10
7.6373573
20
67.5147114
11
8.1374573
21
67.5147114
0
LINE
8
DEFAULT_255_2_778
10
8.1374573
20
67.5147114
11
8.1374573
21
66.4149114
0
LINE
8
DEFAULT_255_2_778
10
8.1374573
20
66.4149114
11
7.6373573
21
66.4149114
0
LINE
8
DEFAULT_255_2_778
10
7.6373573
20
66.4149114
11
7.6373573
21
67.5147114
0
ARC
8
DEFAULT_255_2_778
10
9.8368112
20
69.9153575
40
0.6006464
50
270.0520945
51
359.9479055
0
ARC
8
DEFAULT_255_2_778
10
8.2374511
20
69.9147051
40
0.0999938
50
179.9390736
51
270.0035784
0
ARC
8
DEFAULT_255_2_778
10
9.8368112
20
71.0140653
40
0.6006464
50
0.0520945
51
89.9479055
0
ARC
8
DEFAULT_255_2_778
10
8.2380035
20
71.0140653
40
0.6006464
50
90.0520945
51
179.9479055
0
ARC
8
DEFAULT_255_2_778
10
8.2374411
20
71.0147019
40
0.0999095
50
89.9907187
51
135.0301224
0
ARC
8
DEFAULT_255_2_778
10
8.2373663
20
71.0146278
40
0.099909
50
134.9697211
51
180.009379
0
ARC
8
DEFAULT_255_2_778
10
9.8373634
20
69.9147053
40
0.0999938
50
269.9965396
51
0.0608372
0
ARC
8
DEFAULT_255_2_778
10
8.2380035
20
69.9153575
40
0.6006464
50
180.0520945
51
269.9479055
0
ARC
8
DEFAULT_255_2_778
10
9.8370256
20
71.0144527
40
0.1003319
50
0.0906359
51
44.9301189
0
ARC
8
DEFAULT_255_2_778
10
9.8373737
20
71.0147025
40
0.0999089
50
44.9697096
51
90.0094117
0
LINE
8
DEFAULT_255_2_778
10
9.8373573
20
69.8147114
11
8.2374573
21
69.8147114
0
LINE
8
DEFAULT_255_2_778
10
8.2374573
20
69.8147114
11
8.2374573
21
69.3147114
0
LINE
8
DEFAULT_255_2_778
10
8.2374573
20
69.3147114
11
9.8373573
21
69.3147114
0
LINE
8
DEFAULT_255_2_778
10
9.8373573
20
69.3147114
11
9.8373573
21
69.8147114
0
LINE
8
DEFAULT_255_2_778
10
9.9373573
20
69.9148114
11
10.4374573
21
69.9148114
0
LINE
8
DEFAULT_255_2_778
10
10.4374573
20
69.9148114
11
10.4374573
21
71.0146114
0
LINE
8
DEFAULT_255_2_778
10
10.4374573
20
71.0146114
11
9.9373573
21
71.0146114
0
LINE
8
DEFAULT_255_2_778
10
9.9373573
20
71.0146114
11
9.9373573
21
69.9148114
0
LINE
8
DEFAULT_255_2_778
10
7.6373573
20
69.9148114
11
8.1374573
21
69.9148114
0
LINE
8
DEFAULT_255_2_778
10
8.1374573
20
69.9148114
11
8.1374573
21
71.0146114
0
LINE
8
DEFAULT_255_2_778
10
8.1374573
20
71.0146114
11
7.6373573
21
71.0146114
0
LINE
8
DEFAULT_255_2_778
10
7.6373573
20
71.0146114
11
7.6373573
21
69.9148114
0
LINE
8
DEFAULT_255_2_778
10
9.8373573
20
71.1146114
11
9.8373573
21
71.6147114
0
LINE
8
DEFAULT_255_2_778
10
9.8373573
20
71.6147114
11
8.2374573
21
71.6147114
0
LINE
8
DEFAULT_255_2_778
10
8.2374573
20
71.6147114
11
8.2374573
21
71.1146114
0
LINE
8
DEFAULT_255_2_778
10
8.2374573
20
71.1146114
11
9.8373573
21
71.1146114
0
LINE
8
DEFAULT_255_2_778
10
4.6750604
20
57.2835677
11
4.6750604
21
56.2170677
0
LINE
8
DEFAULT_255_2_778
10
4.6750604
20
56.2170677
11
4.5337604
21
56.2170677
0
LINE
8
DEFAULT_255_2_778
10
4.5337604
20
56.2170677
11
3.9969604
21
57.0388677
0
LINE
8
DEFAULT_255_2_778
10
3.9969604
20
57.0388677
11
3.9969604
21
56.2170677
0
LINE
8
DEFAULT_255_2_778
10
3.9969604
20
56.2170677
11
3.8556604
21
56.2170677
0
LINE
8
DEFAULT_255_2_778
10
3.8556604
20
56.2170677
11
3.8556604
21
57.2835677
0
LINE
8
DEFAULT_255_2_778
10
3.8556604
20
57.2835677
11
3.9969604
21
57.2835677
0
LINE
8
DEFAULT_255_2_778
10
3.9969604
20
57.2835677
11
4.5353604
21
56.4580677
0
LINE
8
DEFAULT_255_2_778
10
4.5353604
20
56.4580677
11
4.5353604
21
57.2835677
0
LINE
8
DEFAULT_255_2_778
10
4.5353604
20
57.2835677
11
4.6753604
21
57.2835677
0
LINE
8
DEFAULT_255_2_778
10
4.6753604
20
57.2835677
11
4.6750604
21
57.2835677
0
ARC
8
DEFAULT_255_2_778
10
5.4862032
20
57.5957648
40
0.9365015
50
243.371128
51
254.6850486
0
ARC
8
DEFAULT_255_2_778
10
5.2554663
20
57.1347887
40
0.4210034
50
228.3269548
51
243.3232777
0
ARC
8
DEFAULT_255_2_778
10
5.1375828
20
57.0032419
40
0.2443668
50
179.0438394
51
228.4654171
0
ARC
8
DEFAULT_255_2_778
10
5.1513968
20
57.0111339
40
0.2581749
50
127.5503186
51
180.8464909
0
ARC
8
DEFAULT_255_2_778
10
5.2332858
20
56.9073255
40
0.3903877
50
89.9421683
51
127.7934014
0
ARC
8
DEFAULT_255_2_778
10
5.2559102
20
56.6908296
40
0.6072904
50
89.9868101
51
92.0978256
0
ARC
8
DEFAULT_255_2_778
10
5.2638838
20
56.8628533
40
0.435337
50
64.4199414
51
91.031074
0
ARC
8
DEFAULT_255_2_778
10
5.3129342
20
56.9631149
40
0.3237255
50
32.7663336
51
64.5885168
0
ARC
8
DEFAULT_255_2_778
10
5.3340319
20
56.9769002
40
0.298524
50
359.6390939
51
32.7330556
0
ARC
8
DEFAULT_255_2_778
10
5.2979141
20
56.9849699
40
0.1935918
50
357.0538476
51
47.1589785
0
ARC
8
DEFAULT_255_2_778
10
5.2755251
20
56.9394142
40
0.2426561
50
50.5988804
51
91.3422407
0
ARC
8
DEFAULT_255_2_778
10
5.2561459
20
56.7479767
40
0.4342431
50
88.1927152
51
90.0126568
0
ARC
8
DEFAULT_255_2_778
10
5.2432402
20
56.911311
40
0.2712115
50
87.2928151
51
120.1082573
0
ARC
8
DEFAULT_255_2_778
10
5.2015131
20
56.9995127
40
0.174169
50
122.7896073
51
128.1813503
0
ARC
8
DEFAULT_255_2_778
10
5.1878981
20
57.016485
40
0.1524119
50
128.1021233
51
182.6569611
0
ARC
8
DEFAULT_255_2_778
10
5.1734821
20
57.0095107
40
0.1378322
50
180.037788
51
233.2169155
0
ARC
8
DEFAULT_255_2_778
10
5.3145683
20
57.1971898
40
0.372627
50
233.1220184
51
250.5270118
0
ARC
8
DEFAULT_255_2_778
10
5.5403348
20
57.7643292
40
0.9828753
50
249.1400953
51
254.5832983
0
ARC
8
DEFAULT_255_2_778
10
5.004194
20
55.7935907
40
1.0595016
50
65.7026676
51
74.9643449
0
ARC
8
DEFAULT_255_2_778
10
5.2184288
20
56.2818067
40
0.5264089
50
59.3168604
51
65.0900044
0
ARC
8
DEFAULT_255_2_778
10
5.3333716
20
56.4598792
40
0.3147134
50
32.6177639
51
60.770278
0
ARC
8
DEFAULT_255_2_778
10
5.3661368
20
56.4947158
40
0.2685918
50
358.6141425
51
30.1252316
0
ARC
8
DEFAULT_255_2_778
10
5.3853884
20
56.4810946
40
0.2493634
50
306.4527229
51
1.6373679
0
ARC
8
DEFAULT_255_2_778
10
5.2995904
20
56.6015957
40
0.3972743
50
272.882198
51
306.0798429
0
ARC
8
DEFAULT_255_2_778
10
5.2643979
20
56.8639148
40
0.6613957
50
269.917887
51
274.7847299
0
ARC
8
DEFAULT_255_2_778
10
5.2595713
20
56.7053648
40
0.5028599
50
246.4122051
51
270.4419396
0
ARC
8
DEFAULT_255_2_778
10
5.1899508
20
56.5630007
40
0.3445996
50
216.1090765
51
247.5488961
0
ARC
8
DEFAULT_255_2_778
10
5.1414922
20
56.5224177
40
0.2815653
50
179.2669917
51
215.2484735
0
ARC
8
DEFAULT_255_2_778
10
5.1847982
20
56.5188964
40
0.1836863
50
177.7775166
51
232.371322
0
ARC
8
DEFAULT_255_2_778
10
5.2453699
20
56.6114627
40
0.2941031
50
234.0359984
51
271.3639759
0
ARC
8
DEFAULT_255_2_778
10
5.2633983
20
56.8109141
40
0.4935943
50
268.7198186
51
270.0060011
0
ARC
8
DEFAULT_255_2_778
10
5.2758374
20
56.6309738
40
0.3138986
50
267.7383416
51
294.7592425
0
ARC
8
DEFAULT_255_2_778
10
5.3269308
20
56.5028475
40
0.1763017
50
297.1204447
51
307.4154774
0
ARC
8
DEFAULT_255_2_778
10
5.3457519
20
56.4812167
40
0.147697
50
306.7148506
51
2.0964582
0
ARC
8
DEFAULT_255_2_778
10
5.3487386
20
56.4940751
40
0.1448035
50
357.0487604
51
51.7678946
0
ARC
8
DEFAULT_255_2_778
10
5.2159564
20
56.2980751
40
0.3813144
50
54.3220274
51
69.7123757
0
ARC
8
DEFAULT_255_2_778
10
4.9206214
20
55.5676927
40
1.1690307
50
68.547501
51
74.1936518
0
LINE
8
DEFAULT_255_2_778
10
5.63255
20
56.9750198
11
5.49125
21
56.9750198
0
LINE
8
DEFAULT_255_2_778
10
4.85995
20
56.5260198
11
5.00125
21
56.5260198
0
LINE
8
DEFAULT_255_2_778
10
5.23905
20
56.6925198
11
5.23885
21
56.6925198
0
LINE
8
DEFAULT_255_2_778
10
3.7151458
20
60.8515
11
3.8969458
21
60.8515
0
LINE
8
DEFAULT_255_2_778
10
3.8969458
20
60.8515
11
4.2456458
21
59.9813
0
LINE
8
DEFAULT_255_2_778
10
4.2456458
20
59.9813
11
4.5943458
21
60.8515
0
LINE
8
DEFAULT_255_2_778
10
4.5943458
20
60.8515
11
4.7766458
21
60.8515
0
LINE
8
DEFAULT_255_2_778
10
4.7766458
20
60.8515
11
4.7766458
21
59.785
0
LINE
8
DEFAULT_255_2_778
10
4.7766458
20
59.785
11
4.6361458
21
59.785
0
LINE
8
DEFAULT_255_2_778
10
4.6361458
20
59.785
11
4.6361458
21
60.2004
0
LINE
8
DEFAULT_255_2_778
10
4.6361458
20
60.2004
11
4.6493458
21
60.6486
0
LINE
8
DEFAULT_255_2_778
10
4.6493458
20
60.6486
11
4.2993458
21
59.785
0
LINE
8
DEFAULT_255_2_778
10
4.2993458
20
59.785
11
4.1916458
21
59.785
0
LINE
8
DEFAULT_255_2_778
10
4.1916458
20
59.785
11
3.8424458
21
60.6462
0
LINE
8
DEFAULT_255_2_778
10
3.8424458
20
60.6462
11
3.8564458
21
60.2001
0
LINE
8
DEFAULT_255_2_778
10
3.8564458
20
60.2001
11
3.8564458
21
59.7847
0
LINE
8
DEFAULT_255_2_778
10
3.8564458
20
59.7847
11
3.7159458
21
59.7847
0
LINE
8
DEFAULT_255_2_778
10
3.7159458
20
59.7847
11
3.7159458
21
60.8515
0
LINE
8
DEFAULT_255_2_778
10
3.7159458
20
60.8515
11
3.7151458
21
60.8515
0
ARC
8
DEFAULT_255_2_778
10
5.5863032
20
61.1636648
40
0.9365015
50
243.371128
51
254.6850486
0
ARC
8
DEFAULT_255_2_778
10
5.3555663
20
60.7026887
40
0.4210034
50
228.3269548
51
243.3232777
0
ARC
8
DEFAULT_255_2_778
10
5.2376828
20
60.5711419
40
0.2443668
50
179.0438394
51
228.4654171
0
ARC
8
DEFAULT_255_2_778
10
5.2514968
20
60.5790339
40
0.2581749
50
127.5503186
51
180.8464909
0
ARC
8
DEFAULT_255_2_778
10
5.3333858
20
60.4752255
40
0.3903877
50
89.9421683
51
127.7934014
0
ARC
8
DEFAULT_255_2_778
10
5.3560102
20
60.2587296
40
0.6072904
50
89.9868101
51
92.0978256
0
ARC
8
DEFAULT_255_2_778
10
5.3639838
20
60.4307533
40
0.435337
50
64.4199414
51
91.031074
0
ARC
8
DEFAULT_255_2_778
10
5.4130342
20
60.5310149
40
0.3237255
50
32.7663336
51
64.5885168
0
ARC
8
DEFAULT_255_2_778
10
5.4341319
20
60.5448002
40
0.298524
50
359.6390939
51
32.7330556
0
ARC
8
DEFAULT_255_2_778
10
5.3980141
20
60.5528699
40
0.1935918
50
357.0538476
51
47.1589785
0
ARC
8
DEFAULT_255_2_778
10
5.3756251
20
60.5073142
40
0.2426561
50
50.5988804
51
91.3422407
0
ARC
8
DEFAULT_255_2_778
10
5.3562459
20
60.3158767
40
0.4342431
50
88.1927152
51
90.0126568
0
ARC
8
DEFAULT_255_2_778
10
5.3433402
20
60.479211
40
0.2712115
50
87.2928151
51
120.1082573
0
ARC
8
DEFAULT_255_2_778
10
5.3016131
20
60.5674127
40
0.174169
50
122.7896073
51
128.1813503
0
ARC
8
DEFAULT_255_2_778
10
5.2879981
20
60.584385
40
0.1524119
50
128.1021233
51
182.6569611
0
ARC
8
DEFAULT_255_2_778
10
5.2735821
20
60.5774107
40
0.1378322
50
180.037788
51
233.2169155
0
ARC
8
DEFAULT_255_2_778
10
5.4146683
20
60.7650898
40
0.372627
50
233.1220184
51
250.5270118
0
ARC
8
DEFAULT_255_2_778
10
5.6404348
20
61.3322292
40
0.9828753
50
249.1400953
51
254.5832983
0
ARC
8
DEFAULT_255_2_778
10
5.104294
20
59.3614907
40
1.0595016
50
65.7026676
51
74.9643449
0
ARC
8
DEFAULT_255_2_778
10
5.3185288
20
59.8497067
40
0.5264089
50
59.3168604
51
65.0900044
0
ARC
8
DEFAULT_255_2_778
10
5.4334716
20
60.0277792
40
0.3147134
50
32.6177639
51
60.770278
0
ARC
8
DEFAULT_255_2_778
10
5.4662368
20
60.0626158
40
0.2685918
50
358.6141425
51
30.1252316
0
ARC
8
DEFAULT_255_2_778
10
5.4854884
20
60.0489946
40
0.2493634
50
306.4527229
51
1.6373679
0
ARC
8
DEFAULT_255_2_778
10
5.3996904
20
60.1694957
40
0.3972743
50
272.882198
51
306.0798429
0
ARC
8
DEFAULT_255_2_778
10
5.3644979
20
60.4318148
40
0.6613957
50
269.917887
51
274.7847299
0
ARC
8
DEFAULT_255_2_778
10
5.3596713
20
60.2732648
40
0.5028599
50
246.4122051
51
270.4419396
0
ARC
8
DEFAULT_255_2_778
10
5.2900508
20
60.1309007
40
0.3445996
50
216.1090765
51
247.5488961
0
ARC
8
DEFAULT_255_2_778
10
5.2415922
20
60.0903177
40
0.2815653
50
179.2669917
51
215.2484735
0
ARC
8
DEFAULT_255_2_778
10
5.2848982
20
60.0867964
40
0.1836863
50
177.7775166
51
232.371322
0
ARC
8
DEFAULT_255_2_778
10
5.3454699
20
60.1793627
40
0.2941031
50
234.0359984
51
271.3639759
0
ARC
8
DEFAULT_255_2_778
10
5.3634983
20
60.3788141
40
0.4935943
50
268.7198186
51
270.0060011
0
ARC
8
DEFAULT_255_2_778
10
5.3759374
20
60.1988738
40
0.3138986
50
267.7383416
51
294.7592425
0
ARC
8
DEFAULT_255_2_778
10
5.4270308
20
60.0707475
40
0.1763017
50
297.1204447
51
307.4154774
0
ARC
8
DEFAULT_255_2_778
10
5.4458519
20
60.0491167
40
0.147697
50
306.7148506
51
2.0964582
0
ARC
8
DEFAULT_255_2_778
10
5.4488386
20
60.0619751
40
0.1448035
50
357.0487604
51
51.7678946
0
ARC
8
DEFAULT_255_2_778
10
5.3160564
20
59.8659751
40
0.3813144
50
54.3220274
51
69.7123757
0
ARC
8
DEFAULT_255_2_778
10
5.0207214
20
59.1355927
40
1.1690307
50
68.547501
51
74.1936518
0
LINE
8
DEFAULT_255_2_778
10
5.73265
20
60.5429198
11
5.59135
21
60.5429198
0
LINE
8
DEFAULT_255_2_778
10
4.96005
20
60.0939198
11
5.10135
21
60.0939198
0
LINE
8
DEFAULT_255_2_778
10
5.33915
20
60.2604198
11
5.33895
21
60.2604198
0
LINE
8
DEFAULT_255_2_778
10
4.0710011
20
63.8248677
11
4.0710011
21
63.7097677
0
LINE
8
DEFAULT_255_2_778
10
4.0710011
20
63.7097677
11
3.6088011
21
63.7097677
0
LINE
8
DEFAULT_255_2_778
10
3.6088011
20
63.7097677
11
3.6088011
21
63.3319677
0
LINE
8
DEFAULT_255_2_778
10
3.6088011
20
63.3319677
11
4.1456011
21
63.3319677
0
LINE
8
DEFAULT_255_2_778
10
4.1456011
20
63.3319677
11
4.1456011
21
63.2168677
0
LINE
8
DEFAULT_255_2_778
10
4.1456011
20
63.2168677
11
3.4680011
21
63.2168677
0
LINE
8
DEFAULT_255_2_778
10
3.4680011
20
63.2168677
11
3.4680011
21
64.2833677
0
LINE
8
DEFAULT_255_2_778
10
3.4680011
20
64.2833677
11
4.1382011
21
64.2833677
0
LINE
8
DEFAULT_255_2_778
10
4.1382011
20
64.2833677
11
4.1382011
21
64.1677677
0
LINE
8
DEFAULT_255_2_778
10
4.1382011
20
64.1677677
11
3.6088011
21
64.1677677
0
LINE
8
DEFAULT_255_2_778
10
3.6088011
20
64.1677677
11
3.6088011
21
63.8248677
0
LINE
8
DEFAULT_255_2_778
10
3.6088011
20
63.8248677
11
4.0710011
21
63.8248677
0
LINE
8
DEFAULT_255_2_778
10
4.0710011
20
63.8248677
11
4.0710011
21
63.8248677
0
ARC
8
DEFAULT_255_2_778
10
4.6856987
20
63.7640792
40
0.5194442
50
69.7561446
51
91.4027862
0
ARC
8
DEFAULT_255_2_778
10
4.7543728
20
63.9666938
40
0.3056357
50
50.1587364
51
68.6920496
0
ARC
8
DEFAULT_255_2_778
10
4.7588974
20
63.9858501
40
0.2881627
50
358.7538712
51
48.4090087
0
ARC
8
DEFAULT_255_2_778
10
4.5608041
20
63.9627764
40
0.4864782
50
359.9871987
51
1.9798623
0
ARC
8
DEFAULT_255_2_778
10
4.7598287
20
63.9565771
40
0.2875181
50
324.3905515
51
1.2138012
0
ARC
8
DEFAULT_255_2_778
10
4.7371637
20
63.9796255
40
0.319413
50
289.5183293
51
323.3964604
0
ARC
8
DEFAULT_255_2_778
10
4.6905644
20
64.0066529
40
0.2438258
50
266.971476
51
309.112994
0
ARC
8
DEFAULT_255_2_778
10
4.7233555
20
63.954846
40
0.1830855
50
311.3792121
51
2.3858502
0
ARC
8
DEFAULT_255_2_778
10
4.7140151
20
63.9749216
40
0.1926701
50
356.2938915
51
46.2362981
0
ARC
8
DEFAULT_255_2_778
10
4.6979647
20
63.9293138
40
0.2375495
50
51.0549636
51
90.1580998
0
ARC
8
DEFAULT_255_2_778
10
4.6739035
20
63.7218933
40
0.4455843
50
86.9889719
51
89.6169693
0
LINE
8
DEFAULT_255_2_778
10
4.9433823
20
63.2168677
11
4.7117823
21
63.6480677
0
LINE
8
DEFAULT_255_2_778
10
4.7117823
20
63.6480677
11
4.4612823
21
63.6480677
0
LINE
8
DEFAULT_255_2_778
10
4.4612823
20
63.6480677
11
4.4612823
21
63.2168677
0
LINE
8
DEFAULT_255_2_778
10
4.4612823
20
63.2168677
11
4.3199823
21
63.2168677
0
LINE
8
DEFAULT_255_2_778
10
4.3199823
20
63.2168677
11
4.3199823
21
64.2833677
0
LINE
8
DEFAULT_255_2_778
10
4.3199823
20
64.2833677
11
4.6729823
21
64.2833677
0
LINE
8
DEFAULT_255_2_778
10
4.8438823
20
63.6785677
11
5.0943823
21
63.2258677
0
LINE
8
DEFAULT_255_2_778
10
5.0943823
20
63.2258677
11
5.0943823
21
63.2170677
0
LINE
8
DEFAULT_255_2_778
10
5.0943823
20
63.2170677
11
4.9435823
21
63.2170677
0
LINE
8
DEFAULT_255_2_778
10
4.9435823
20
63.2170677
11
4.9433823
21
63.2168677
0
LINE
8
DEFAULT_255_2_778
10
4.4615823
20
64.1674677
11
4.4615823
21
63.7631677
0
LINE
8
DEFAULT_255_2_778
10
4.4615823
20
63.7631677
11
4.6776823
21
63.7631677
0
LINE
8
DEFAULT_255_2_778
10
4.6768823
20
64.1674677
11
4.4615823
21
64.1674677
0
LINE
8
DEFAULT_255_2_778
10
4.4615823
20
64.1674677
11
4.4615823
21
64.1674677
0
ARC
8
DEFAULT_255_2_778
10
5.6093987
20
63.7640792
40
0.5194442
50
69.7561446
51
91.4027862
0
ARC
8
DEFAULT_255_2_778
10
5.6780728
20
63.9666938
40
0.3056357
50
50.1587364
51
68.6920496
0
ARC
8
DEFAULT_255_2_778
10
5.6825974
20
63.9858501
40
0.2881627
50
358.7538712
51
48.4090087
0
ARC
8
DEFAULT_255_2_778
10
5.4845041
20
63.9627764
40
0.4864782
50
359.9871987
51
1.9798623
0
ARC
8
DEFAULT_255_2_778
10
5.6835287
20
63.9565771
40
0.2875181
50
324.3905515
51
1.2138012
0
ARC
8
DEFAULT_255_2_778
10
5.6608637
20
63.9796255
40
0.319413
50
289.5183293
51
323.3964604
0
ARC
8
DEFAULT_255_2_778
10
5.6142644
20
64.0066529
40
0.2438258
50
266.971476
51
309.112994
0
ARC
8
DEFAULT_255_2_778
10
5.6470555
20
63.954846
40
0.1830855
50
311.3792121
51
2.3858502
0
ARC
8
DEFAULT_255_2_778
10
5.6377151
20
63.9749216
40
0.1926701
50
356.2938915
51
46.2362981
0
ARC
8
DEFAULT_255_2_778
10
5.6216647
20
63.9293138
40
0.2375495
50
51.0549636
51
90.1580998
0
ARC
8
DEFAULT_255_2_778
10
5.5976035
20
63.7218933
40
0.4455843
50
86.9889719
51
89.6169693
0
LINE
8
DEFAULT_255_2_778
10
5.8670823
20
63.2168677
11
5.6354823
21
63.6480677
0
LINE
8
DEFAULT_255_2_778
10
5.6354823
20
63.6480677
11
5.3849823
21
63.6480677
0
LINE
8
DEFAULT_255_2_778
10
5.3849823
20
63.6480677
11
5.3849823
21
63.2168677
0
LINE
8
DEFAULT_255_2_778
10
5.3849823
20
63.2168677
11
5.2436823
21
63.2168677
0
LINE
8
DEFAULT_255_2_778
10
5.2436823
20
63.2168677
11
5.2436823
21
64.2833677
0
LINE
8
DEFAULT_255_2_778
10
5.2436823
20
64.2833677
11
5.5966823
21
64.2833677
0
LINE
8
DEFAULT_255_2_778
10
5.7675823
20
63.6785677
11
6.0180823
21
63.2258677
0
LINE
8
DEFAULT_255_2_778
10
6.0180823
20
63.2258677
11
6.0180823
21
63.2170677
0
LINE
8
DEFAULT_255_2_778
10
6.0180823
20
63.2170677
11
5.8672823
21
63.2170677
0
LINE
8
DEFAULT_255_2_778
10
5.8672823
20
63.2170677
11
5.8670823
21
63.2168677
0
LINE
8
DEFAULT_255_2_778
10
5.3852823
20
64.1674677
11
5.3852823
21
63.7631677
0
LINE
8
DEFAULT_255_2_778
10
5.3852823
20
63.7631677
11
5.6013823
21
63.7631677
0
LINE
8
DEFAULT_255_2_778
10
5.6005823
20
64.1674677
11
5.3852823
21
64.1674677
0
LINE
8
DEFAULT_255_2_778
10
5.3852823
20
64.1674677
11
5.3852823
21
64.1674677
0
ARC
8
DEFAULT_255_2_778
10
3.6902987
20
67.2642792
40
0.5194442
50
69.7561446
51
91.4027862
0
ARC
8
DEFAULT_255_2_778
10
3.7589728
20
67.4668938
40
0.3056357
50
50.1587364
51
68.6920496
0
ARC
8
DEFAULT_255_2_778
10
3.7634974
20
67.4860501
40
0.2881627
50
358.7538712
51
48.4090087
0
ARC
8
DEFAULT_255_2_778
10
3.5654041
20
67.4629764
40
0.4864782
50
359.9871987
51
1.9798623
0
ARC
8
DEFAULT_255_2_778
10
3.7644287
20
67.4567771
40
0.2875181
50
324.3905515
51
1.2138012
0
ARC
8
DEFAULT_255_2_778
10
3.7417637
20
67.4798255
40
0.319413
50
289.5183293
51
323.3964604
0
ARC
8
DEFAULT_255_2_778
10
3.6951644
20
67.5068529
40
0.2438258
50
266.971476
51
309.112994
0
ARC
8
DEFAULT_255_2_778
10
3.7279555
20
67.455046
40
0.1830855
50
311.3792121
51
2.3858502
0
ARC
8
DEFAULT_255_2_778
10
3.7186151
20
67.4751216
40
0.1926701
50
356.2938915
51
46.2362981
0
ARC
8
DEFAULT_255_2_778
10
3.7025647
20
67.4295138
40
0.2375495
50
51.0549636
51
90.1580998
0
ARC
8
DEFAULT_255_2_778
10
3.6785035
20
67.2220933
40
0.4455843
50
86.9889719
51
89.6169693
0
LINE
8
DEFAULT_255_2_778
10
3.9479823
20
66.7170677
11
3.7163823
21
67.1482677
0
LINE
8
DEFAULT_255_2_778
10
3.7163823
20
67.1482677
11
3.4658823
21
67.1482677
0
LINE
8
DEFAULT_255_2_778
10
3.4658823
20
67.1482677
11
3.4658823
21
66.7170677
0
LINE
8
DEFAULT_255_2_778
10
3.4658823
20
66.7170677
11
3.3245823
21
66.7170677
0
LINE
8
DEFAULT_255_2_778
10
3.3245823
20
66.7170677
11
3.3245823
21
67.7835677
0
LINE
8
DEFAULT_255_2_778
10
3.3245823
20
67.7835677
11
3.6775823
21
67.7835677
0
LINE
8
DEFAULT_255_2_778
10
3.8484823
20
67.1787677
11
4.0989823
21
66.7260677
0
LINE
8
DEFAULT_255_2_778
10
4.0989823
20
66.7260677
11
4.0989823
21
66.7172677
0
LINE
8
DEFAULT_255_2_778
10
4.0989823
20
66.7172677
11
3.9481823
21
66.7172677
0
LINE
8
DEFAULT_255_2_778
10
3.9481823
20
66.7172677
11
3.9479823
21
66.7170677
0
LINE
8
DEFAULT_255_2_778
10
3.4661823
20
67.6676677
11
3.4661823
21
67.2633677
0
LINE
8
DEFAULT_255_2_778
10
3.4661823
20
67.2633677
11
3.6822823
21
67.2633677
0
LINE
8
DEFAULT_255_2_778
10
3.6814823
20
67.6676677
11
3.4661823
21
67.6676677
0
LINE
8
DEFAULT_255_2_778
10
3.4661823
20
67.6676677
11
3.4661823
21
67.6676677
0
ARC
8
DEFAULT_255_2_778
10
4.6586163
20
67.047602
40
0.3410269
50
316.1798582
51
1.8104459
0
ARC
8
DEFAULT_255_2_778
10
4.6401921
20
67.0831702
40
0.3791673
50
272.5236893
51
314.2292295
0
ARC
8
DEFAULT_255_2_778
10
4.6075261
20
67.280245
40
0.5779859
50
274.1519146
51
274.8991933
0
ARC
8
DEFAULT_255_2_778
10
4.5983484
20
67.1377407
40
0.4357808
50
241.3476126
51
271.8047752
0
ARC
8
DEFAULT_255_2_778
10
4.5560528
20
67.0418794
40
0.3314956
50
227.7048638
51
239.818029
0
ARC
8
DEFAULT_255_2_778
10
4.5647225
20
67.0420789
40
0.3375359
50
177.9432519
51
226.6390221
0
ARC
8
DEFAULT_255_2_778
10
4.7444435
20
67.0617299
40
0.5170942
50
180.5489196
51
180.8351637
0
ARC
8
DEFAULT_255_2_778
10
4.6127401
20
67.047178
40
0.2465878
50
176.6526536
51
221.2416832
0
ARC
8
DEFAULT_255_2_778
10
4.5728505
20
67.0228318
40
0.2007025
50
223.5232064
51
224.733178
0
ARC
8
DEFAULT_255_2_778
10
4.59384
20
67.0583135
40
0.2408118
50
227.2163412
51
272.1649096
0
ARC
8
DEFAULT_255_2_778
10
4.6120324
20
67.2414274
40
0.4238513
50
268.7703889
51
270.0054848
0
ARC
8
DEFAULT_255_2_778
10
4.625512
20
67.079251
40
0.2620198
50
267.0600033
51
305.0293182
0
ARC
8
DEFAULT_255_2_778
10
4.659829
20
67.0157647
40
0.1905182
50
307.5382734
51
315.1393402
0
ARC
8
DEFAULT_255_2_778
10
4.6168028
20
67.0447683
40
0.2416734
50
317.4613705
51
2.9422229
0
ARC
8
DEFAULT_255_2_778
10
4.4435689
20
67.0607467
40
0.414604
50
359.5061369
51
0.0040462
0
LINE
8
DEFAULT_255_2_778
10
4.8581729
20
67.783576
11
4.9994729
21
67.783576
0
LINE
8
DEFAULT_255_2_778
10
4.9994729
20
67.783576
11
4.9994729
21
67.058376
0
LINE
8
DEFAULT_255_2_778
10
4.6493729
20
66.703776
11
4.6120729
21
66.702176
0
LINE
8
DEFAULT_255_2_778
10
4.2273729
20
67.056776
11
4.2273729
21
67.783576
0
LINE
8
DEFAULT_255_2_778
10
4.2273729
20
67.783576
11
4.3665729
21
67.783576
0
LINE
8
DEFAULT_255_2_778
10
4.3665729
20
67.783576
11
4.3665729
21
67.061576
0
LINE
8
DEFAULT_255_2_778
10
4.8581729
20
67.060776
11
4.8581729
21
67.783576
0
LINE
8
DEFAULT_255_2_778
10
4.8581729
20
67.783576
11
4.8581729
21
67.783576
0
LINE
8
DEFAULT_255_2_778
10
6.0413604
20
67.7835677
11
6.0413604
21
66.7170677
0
LINE
8
DEFAULT_255_2_778
10
6.0413604
20
66.7170677
11
5.9000604
21
66.7170677
0
LINE
8
DEFAULT_255_2_778
10
5.9000604
20
66.7170677
11
5.3632604
21
67.5388677
0
LINE
8
DEFAULT_255_2_778
10
5.3632604
20
67.5388677
11
5.3632604
21
66.7170677
0
LINE
8
DEFAULT_255_2_778
10
5.3632604
20
66.7170677
11
5.2219604
21
66.7170677
0
LINE
8
DEFAULT_255_2_778
10
5.2219604
20
66.7170677
11
5.2219604
21
67.7835677
0
LINE
8
DEFAULT_255_2_778
10
5.2219604
20
67.7835677
11
5.3632604
21
67.7835677
0
LINE
8
DEFAULT_255_2_778
10
5.3632604
20
67.7835677
11
5.9016604
21
66.9580677
0
LINE
8
DEFAULT_255_2_778
10
5.9016604
20
66.9580677
11
5.9016604
21
67.7835677
0
LINE
8
DEFAULT_255_2_778
10
5.9016604
20
67.7835677
11
6.0416604
21
67.7835677
0
LINE
8
DEFAULT_255_2_778
10
6.0416604
20
67.7835677
11
6.0413604
21
67.7835677
0
ARC
8
DEFAULT_255_2_778
10
3.6531597
20
70.8290745
40
0.4545841
50
65.0431829
51
91.6605822
0
ARC
8
DEFAULT_255_2_778
10
3.7068472
20
70.9631441
40
0.3104808
50
48.0528315
51
63.5862458
0
ARC
8
DEFAULT_255_2_778
10
3.7105185
20
70.9694954
40
0.3033065
50
357.7273178
51
47.7666625
0
ARC
8
DEFAULT_255_2_778
10
3.7011932
20
70.9427411
40
0.3127402
50
321.4375408
51
2.6989918
0
ARC
8
DEFAULT_255_2_778
10
3.7413003
20
70.9217643
40
0.2684407
50
310.738417
51
319.6018336
0
ARC
8
DEFAULT_255_2_778
10
3.6896321
20
70.9983959
40
0.3603869
50
275.0152141
51
309.0113636
0
ARC
8
DEFAULT_255_2_778
10
3.6406414
20
71.2947701
40
0.6603061
50
269.8043362
51
277.002163
0
ARC
8
DEFAULT_255_2_778
10
3.6525588
20
71.0253049
40
0.2763326
50
267.3508016
51
299.8994107
0
ARC
8
DEFAULT_255_2_778
10
3.6956618
20
70.9344193
40
0.1762365
50
302.4811362
51
311.5203952
0
ARC
8
DEFAULT_255_2_778
10
3.6789457
20
70.9432603
40
0.1940508
50
313.4857761
51
3.7251049
0
ARC
8
DEFAULT_255_2_778
10
3.672443
20
70.9649902
40
0.2003512
50
357.3902866
51
45.6539971
0
ARC
8
DEFAULT_255_2_778
10
3.6557797
20
70.9314124
40
0.2362939
50
48.4566876
51
91.9627964
0
LINE
8
DEFAULT_255_2_778
10
3.6381865
20
70.6344677
11
3.3870865
21
70.6344677
0
LINE
8
DEFAULT_255_2_778
10
3.3870865
20
70.6344677
11
3.3870865
21
70.2169677
0
LINE
8
DEFAULT_255_2_778
10
3.3870865
20
70.2169677
11
3.2465865
21
70.2169677
0
LINE
8
DEFAULT_255_2_778
10
3.2465865
20
70.2169677
11
3.2465865
21
71.2834677
0
LINE
8
DEFAULT_255_2_778
10
3.2465865
20
71.2834677
11
3.6399865
21
71.2834677
0
LINE
8
DEFAULT_255_2_778
10
3.6383865
20
70.6344677
11
3.6381865
21
70.6344677
0
LINE
8
DEFAULT_255_2_778
10
3.3870865
20
71.1675677
11
3.3870865
21
70.7492677
0
LINE
8
DEFAULT_255_2_778
10
3.3870865
20
70.7492677
11
3.6397865
21
70.7492677
0
LINE
8
DEFAULT_255_2_778
10
3.6476865
20
71.1675677
11
3.3870865
21
71.1675677
0
LINE
8
DEFAULT_255_2_778
10
3.3870865
20
71.1675677
11
3.3870865
21
71.1675677
0
LINE
8
DEFAULT_255_2_778
10
4.2541021
20
71.2834677
11
4.4227021
21
70.5532677
0
LINE
8
DEFAULT_255_2_778
10
4.4227021
20
70.5532677
11
4.4433021
21
70.4127677
0
LINE
8
DEFAULT_255_2_778
10
4.4433021
20
70.4127677
11
4.4732021
21
70.5394677
0
LINE
8
DEFAULT_255_2_778
10
4.4732021
20
70.5394677
11
4.6841021
21
71.2834677
0
LINE
8
DEFAULT_255_2_778
10
4.6841021
20
71.2834677
11
4.8026021
21
71.2834677
0
LINE
8
DEFAULT_255_2_778
10
4.8026021
20
71.2834677
11
5.0085021
21
70.5394677
0
LINE
8
DEFAULT_255_2_778
10
5.0085021
20
70.5394677
11
5.0378021
21
70.4106677
0
LINE
8
DEFAULT_255_2_778
10
5.0378021
20
70.4106677
11
5.0606021
21
70.5542677
0
LINE
8
DEFAULT_255_2_778
10
5.0606021
20
70.5542677
11
5.2262021
21
71.2837677
0
LINE
8
DEFAULT_255_2_778
10
5.2262021
20
71.2837677
11
5.3675021
21
71.2837677
0
LINE
8
DEFAULT_255_2_778
10
5.3675021
20
71.2837677
11
5.1090021
21
70.2172677
0
LINE
8
DEFAULT_255_2_778
10
5.1090021
20
70.2172677
11
4.9809021
21
70.2172677
0
LINE
8
DEFAULT_255_2_778
10
4.9809021
20
70.2172677
11
4.7613021
21
70.9942677
0
LINE
8
DEFAULT_255_2_778
10
4.7613021
20
70.9942677
11
4.7444021
21
71.0755677
0
LINE
8
DEFAULT_255_2_778
10
4.7444021
20
71.0755677
11
4.7275021
21
70.9942677
0
LINE
8
DEFAULT_255_2_778
10
4.7275021
20
70.9942677
11
4.4997021
21
70.2172677
0
LINE
8
DEFAULT_255_2_778
10
4.4997021
20
70.2172677
11
4.3716021
21
70.2172677
0
LINE
8
DEFAULT_255_2_778
10
4.3716021
20
70.2172677
11
4.1139021
21
71.2837677
0
LINE
8
DEFAULT_255_2_778
10
4.1139021
20
71.2837677
11
4.2544021
21
71.2837677
0
LINE
8
DEFAULT_255_2_778
10
4.2544021
20
71.2837677
11
4.2541021
21
71.2834677
0
ARC
8
DEFAULT_255_2_778
10
5.8884987
20
70.7641792
40
0.5194442
50
69.7561446
51
91.4027862
0
ARC
8
DEFAULT_255_2_778
10
5.9571728
20
70.9667938
40
0.3056357
50
50.1587364
51
68.6920496
0
ARC
8
DEFAULT_255_2_778
10
5.9616974
20
70.9859501
40
0.2881627
50
358.7538712
51
48.4090087
0
ARC
8
DEFAULT_255_2_778
10
5.7636041
20
70.9628764
40
0.4864782
50
359.9871987
51
1.9798623
0
ARC
8
DEFAULT_255_2_778
10
5.9626287
20
70.9566771
40
0.2875181
50
324.3905515
51
1.2138012
0
ARC
8
DEFAULT_255_2_778
10
5.9399637
20
70.9797255
40
0.319413
50
289.5183293
51
323.3964604
0
ARC
8
DEFAULT_255_2_778
10
5.8933644
20
71.0067529
40
0.2438258
50
266.971476
51
309.112994
0
ARC
8
DEFAULT_255_2_778
10
5.9261555
20
70.954946
40
0.1830855
50
311.3792121
51
2.3858502
0
ARC
8
DEFAULT_255_2_778
10
5.9168151
20
70.9750216
40
0.1926701
50
356.2938915
51
46.2362981
0
ARC
8
DEFAULT_255_2_778
10
5.9007647
20
70.9294138
40
0.2375495
50
51.0549636
51
90.1580998
0
ARC
8
DEFAULT_255_2_778
10
5.8767035
20
70.7219933
40
0.4455843
50
86.9889719
51
89.6169693
0
LINE
8
DEFAULT_255_2_778
10
6.1461823
20
70.2169677
11
5.9145823
21
70.6481677
0
LINE
8
DEFAULT_255_2_778
10
5.9145823
20
70.6481677
11
5.6640823
21
70.6481677
0
LINE
8
DEFAULT_255_2_778
10
5.6640823
20
70.6481677
11
5.6640823
21
70.2169677
0
LINE
8
DEFAULT_255_2_778
10
5.6640823
20
70.2169677
11
5.5227823
21
70.2169677
0
LINE
8
DEFAULT_255_2_778
10
5.5227823
20
70.2169677
11
5.5227823
21
71.2834677
0
LINE
8
DEFAULT_255_2_778
10
5.5227823
20
71.2834677
11
5.8757823
21
71.2834677
0
LINE
8
DEFAULT_255_2_778
10
6.0466823
20
70.6786677
11
6.2971823
21
70.2259677
0
LINE
8
DEFAULT_255_2_778
10
6.2971823
20
70.2259677
11
6.2971823
21
70.2171677
0
LINE
8
DEFAULT_255_2_778
10
6.2971823
20
70.2171677
11
6.1463823
21
70.2171677
0
LINE
8
DEFAULT_255_2_778
10
6.1463823
20
70.2171677
11
6.1461823
21
70.2169677
0
LINE
8
DEFAULT_255_2_778
10
5.6643823
20
71.1675677
11
5.6643823
21
70.7632677
0
LINE
8
DEFAULT_255_2_778
10
5.6643823
20
70.7632677
11
5.8804823
21
70.7632677
0
LINE
8
DEFAULT_255_2_778
10
5.8796823
20
71.1675677
11
5.6643823
21
71.1675677
0
LINE
8
DEFAULT_255_2_778
10
5.6643823
20
71.1675677
11
5.6643823
21
71.1675677
0
LINE
8
DEFAULT_255_2_778
10
6.9049604
20
43.7014677
11
6.9049604
21
42.6349677
0
LINE
8
DEFAULT_255_2_778
10
6.9049604
20
42.6349677
11
6.7636604
21
42.6349677
0
LINE
8
DEFAULT_255_2_778
10
6.7636604
20
42.6349677
11
6.2268604
21
43.4567677
0
LINE
8
DEFAULT_255_2_778
10
6.2268604
20
43.4567677
11
6.2268604
21
42.6349677
0
LINE
8
DEFAULT_255_2_778
10
6.2268604
20
42.6349677
11
6.0855604
21
42.6349677
0
LINE
8
DEFAULT_255_2_778
10
6.0855604
20
42.6349677
11
6.0855604
21
43.7014677
0
LINE
8
DEFAULT_255_2_778
10
6.0855604
20
43.7014677
11
6.2268604
21
43.7014677
0
LINE
8
DEFAULT_255_2_778
10
6.2268604
20
43.7014677
11
6.7652604
21
42.8759677
0
LINE
8
DEFAULT_255_2_778
10
6.7652604
20
42.8759677
11
6.7652604
21
43.7014677
0
LINE
8
DEFAULT_255_2_778
10
6.7652604
20
43.7014677
11
6.9052604
21
43.7014677
0
LINE
8
DEFAULT_255_2_778
10
6.9052604
20
43.7014677
11
6.9049604
21
43.7014677
0
LINE
8
DEFAULT_255_2_778
10
7.7575011
20
43.2429677
11
7.7575011
21
43.1278677
0
LINE
8
DEFAULT_255_2_778
10
7.7575011
20
43.1278677
11
7.2953011
21
43.1278677
0
LINE
8
DEFAULT_255_2_778
10
7.2953011
20
43.1278677
11
7.2953011
21
42.7500677
0
LINE
8
DEFAULT_255_2_778
10
7.2953011
20
42.7500677
11
7.8321011
21
42.7500677
0
LINE
8
DEFAULT_255_2_778
10
7.8321011
20
42.7500677
11
7.8321011
21
42.6349677
0
LINE
8
DEFAULT_255_2_778
10
7.8321011
20
42.6349677
11
7.1545011
21
42.6349677
0
LINE
8
DEFAULT_255_2_778
10
7.1545011
20
42.6349677
11
7.1545011
21
43.7014677
0
LINE
8
DEFAULT_255_2_778
10
7.1545011
20
43.7014677
11
7.8247011
21
43.7014677
0
LINE
8
DEFAULT_255_2_778
10
7.8247011
20
43.7014677
11
7.8247011
21
43.5858677
0
LINE
8
DEFAULT_255_2_778
10
7.8247011
20
43.5858677
11
7.2953011
21
43.5858677
0
LINE
8
DEFAULT_255_2_778
10
7.2953011
20
43.5858677
11
7.2953011
21
43.2429677
0
LINE
8
DEFAULT_255_2_778
10
7.2953011
20
43.2429677
11
7.7575011
21
43.2429677
0
LINE
8
DEFAULT_255_2_778
10
7.7575011
20
43.2429677
11
7.7575011
21
43.2429677
0
LINE
8
DEFAULT_255_2_778
10
8.7586146
20
43.7014354
11
8.7586146
21
43.5858354
0
LINE
8
DEFAULT_255_2_778
10
8.7586146
20
43.5858354
11
8.4157146
21
43.5858354
0
LINE
8
DEFAULT_255_2_778
10
8.4157146
20
43.5858354
11
8.4157146
21
42.6351354
0
LINE
8
DEFAULT_255_2_778
10
8.4157146
20
42.6351354
11
8.2757146
21
42.6351354
0
LINE
8
DEFAULT_255_2_778
10
8.2757146
20
42.6351354
11
8.2757146
21
43.5858354
0
LINE
8
DEFAULT_255_2_778
10
8.2757146
20
43.5858354
11
7.9336146
21
43.5858354
0
LINE
8
DEFAULT_255_2_778
10
7.9336146
20
43.5858354
11
7.9336146
21
43.7014354
0
LINE
8
DEFAULT_255_2_778
10
7.9336146
20
43.7014354
11
8.7583146
21
43.7014354
0
LINE
8
DEFAULT_255_2_778
10
8.7583146
20
43.7014354
11
8.7586146
21
43.7014354
0
LINE
8
DEFAULT_255_2_778
10
3.2749125
20
41.1386812
11
3.2749125
21
40.0670812
0
LINE
8
DEFAULT_255_2_778
10
3.2749125
20
40.0670812
11
3.1386125
21
40.0670812
0
LINE
8
DEFAULT_255_2_778
10
3.1386125
20
40.0670812
11
3.1386125
21
40.9701812
0
LINE
8
DEFAULT_255_2_778
10
3.1386125
20
40.9701812
11
2.8653125
21
40.8698812
0
LINE
8
DEFAULT_255_2_778
10
2.8653125
20
40.8698812
11
2.8653125
21
40.9928812
0
LINE
8
DEFAULT_255_2_778
10
2.8653125
20
40.9928812
11
3.2534125
21
41.1386812
0
LINE
8
DEFAULT_255_2_778
10
3.2534125
20
41.1386812
11
3.2746125
21
41.1386812
0
LINE
8
DEFAULT_255_2_778
10
3.2746125
20
41.1386812
11
3.2749125
21
41.1386812
0
ARC
8
DEFAULT_255_2_778
10
3.3800043
20
40.5105352
40
0.9607171
50
348.9183555
51
0.6987966
0
ARC
8
DEFAULT_255_2_778
10
3.9061567
20
40.4021028
40
0.4235667
50
326.5213186
51
349.6326065
0
ARC
8
DEFAULT_255_2_778
10
4.0328214
20
40.3341268
40
0.2807287
50
269.2250901
51
323.8316767
0
ARC
8
DEFAULT_255_2_778
10
4.0053726
20
40.5426158
40
0.4897637
50
269.9739601
51
272.7680648
0
ARC
8
DEFAULT_255_2_778
10
3.991217
20
40.3758597
40
0.323308
50
235.7848916
51
272.4699354
0
ARC
8
DEFAULT_255_2_778
10
3.9628451
20
40.3173693
40
0.2591583
50
215.7238851
51
233.7001402
0
ARC
8
DEFAULT_255_2_778
10
4.1130927
20
40.4110012
40
0.4359624
50
189.3810875
51
214.1844112
0
ARC
8
DEFAULT_255_2_778
10
4.5922174
20
40.5080969
40
0.9246754
50
180.2382416
51
190.477886
0
ARC
8
DEFAULT_255_2_778
10
4.5920978
20
40.6975418
40
0.9246295
50
168.3239624
51
180.7615685
0
ARC
8
DEFAULT_255_2_778
10
4.0884311
20
40.8057255
40
0.4095106
50
146.0453793
51
168.8856134
0
ARC
8
DEFAULT_255_2_778
10
3.9744404
20
40.866996
40
0.2810297
50
89.6098226
51
143.4255932
0
ARC
8
DEFAULT_255_2_778
10
4.0032628
20
40.6545258
40
0.4942264
50
89.9667058
51
93.1210735
0
ARC
8
DEFAULT_255_2_778
10
4.0168723
20
40.8096963
40
0.3393174
50
59.2308603
51
92.2501227
0
ARC
8
DEFAULT_255_2_778
10
4.0548244
20
40.8907201
40
0.2504393
50
36.1492775
51
57.2079485
0
ARC
8
DEFAULT_255_2_778
10
3.9174761
20
40.8046224
40
0.4122945
50
10.0317435
51
34.5511957
0
ARC
8
DEFAULT_255_2_778
10
3.4095665
20
40.6983897
40
0.9310837
50
359.9853743
51
11.0246147
0
ARC
8
DEFAULT_255_2_778
10
3.4429059
20
40.7194713
40
0.7623388
50
359.0966252
51
11.2198432
0
ARC
8
DEFAULT_255_2_778
10
3.9049868
20
40.8122366
40
0.2910417
50
11.0065487
51
30.1125065
0
ARC
8
DEFAULT_255_2_778
10
4.0149494
20
40.8708916
40
0.1665511
50
31.6363941
51
93.9246226
0
ARC
8
DEFAULT_255_2_778
10
3.9921382
20
40.8732373
40
0.1642118
50
86.0150483
51
148.6168234
0
ARC
8
DEFAULT_255_2_778
10
4.1552423
20
40.7907789
40
0.3467004
50
151.0208923
51
173.8521996
0
ARC
8
DEFAULT_255_2_778
10
4.6365967
20
40.7164385
40
0.8335478
50
172.3148449
51
179.9097059
0
ARC
8
DEFAULT_255_2_778
10
4.5515663
20
40.4889836
40
0.7486136
50
179.0762868
51
191.7778678
0
ARC
8
DEFAULT_255_2_778
10
4.1168264
20
40.3982271
40
0.3045016
50
191.7576489
51
210.0487537
0
ARC
8
DEFAULT_255_2_778
10
3.9968566
20
40.329475
40
0.1662299
50
210.2422646
51
272.8597277
0
ARC
8
DEFAULT_255_2_778
10
4.0147446
20
40.3269879
40
0.1638171
50
266.6423239
51
328.3186463
0
ARC
8
DEFAULT_255_2_778
10
3.8613381
20
40.4081109
40
0.337166
50
330.2790551
51
353.2962032
0
ARC
8
DEFAULT_255_2_778
10
3.3581833
20
40.4902592
40
0.8467787
50
351.749903
51
359.6950284
0
LINE
8
DEFAULT_255_2_778
10
4.34065
20
40.6979521
11
4.34065
21
40.5222521
0
LINE
8
DEFAULT_255_2_778
10
3.66755
20
40.5042521
11
3.66755
21
40.6852521
0
LINE
8
DEFAULT_255_2_778
10
4.34065
20
40.6981521
11
4.34065
21
40.6979521
0
LINE
8
DEFAULT_255_2_778
10
4.20515
20
40.4854521
11
4.20515
21
40.7074521
0
LINE
8
DEFAULT_255_2_778
10
3.80305
20
40.7177521
11
3.80305
21
40.5010521
0
LINE
8
DEFAULT_255_2_778
10
4.20495
20
40.4857521
11
4.20515
21
40.4854521
0
ARC
8
DEFAULT_255_2_778
10
4.2224043
20
40.5105352
40
0.9607171
50
348.9183555
51
0.6987966
0
ARC
8
DEFAULT_255_2_778
10
4.7485567
20
40.4021028
40
0.4235667
50
326.5213186
51
349.6326065
0
ARC
8
DEFAULT_255_2_778
10
4.8752214
20
40.3341268
40
0.2807287
50
269.2250901
51
323.8316767
0
ARC
8
DEFAULT_255_2_778
10
4.8477726
20
40.5426158
40
0.4897637
50
269.9739601
51
272.7680648
0
ARC
8
DEFAULT_255_2_778
10
4.833617
20
40.3758597
40
0.323308
50
235.7848916
51
272.4699354
0
ARC
8
DEFAULT_255_2_778
10
4.8052451
20
40.3173693
40
0.2591583
50
215.7238851
51
233.7001402
0
ARC
8
DEFAULT_255_2_778
10
4.9554927
20
40.4110012
40
0.4359624
50
189.3810875
51
214.1844112
0
ARC
8
DEFAULT_255_2_778
10
5.4346174
20
40.5080969
40
0.9246754
50
180.2382416
51
190.477886
0
ARC
8
DEFAULT_255_2_778
10
5.4344978
20
40.6975418
40
0.9246295
50
168.3239624
51
180.7615685
0
ARC
8
DEFAULT_255_2_778
10
4.9308311
20
40.8057255
40
0.4095106
50
146.0453793
51
168.8856134
0
ARC
8
DEFAULT_255_2_778
10
4.8168404
20
40.866996
40
0.2810297
50
89.6098226
51
143.4255932
0
ARC
8
DEFAULT_255_2_778
10
4.8456628
20
40.6545258
40
0.4942264
50
89.9667058
51
93.1210735
0
ARC
8
DEFAULT_255_2_778
10
4.8592723
20
40.8096963
40
0.3393174
50
59.2308603
51
92.2501227
0
ARC
8
DEFAULT_255_2_778
10
4.8972244
20
40.8907201
40
0.2504393
50
36.1492775
51
57.2079485
0
ARC
8
DEFAULT_255_2_778
10
4.7598761
20
40.8046224
40
0.4122945
50
10.0317435
51
34.5511957
0
ARC
8
DEFAULT_255_2_778
10
4.2519665
20
40.6983897
40
0.9310837
50
359.9853743
51
11.0246147
0
ARC
8
DEFAULT_255_2_778
10
4.2853059
20
40.7194713
40
0.7623388
50
359.0966252
51
11.2198432
0
ARC
8
DEFAULT_255_2_778
10
4.7473868
20
40.8122366
40
0.2910417
50
11.0065487
51
30.1125065
0
ARC
8
DEFAULT_255_2_778
10
4.8573494
20
40.8708916
40
0.1665511
50
31.6363941
51
93.9246226
0
ARC
8
DEFAULT_255_2_778
10
4.8345382
20
40.8732373
40
0.1642118
50
86.0150483
51
148.6168234
0
ARC
8
DEFAULT_255_2_778
10
4.9976423
20
40.7907789
40
0.3467004
50
151.0208923
51
173.8521996
0
ARC
8
DEFAULT_255_2_778
10
5.4789967
20
40.7164385
40
0.8335478
50
172.3148449
51
179.9097059
0
ARC
8
DEFAULT_255_2_778
10
5.3939663
20
40.4889836
40
0.7486136
50
179.0762868
51
191.7778678
0
ARC
8
DEFAULT_255_2_778
10
4.9592264
20
40.3982271
40
0.3045016
50
191.7576489
51
210.0487537
0
ARC
8
DEFAULT_255_2_778
10
4.8392566
20
40.329475
40
0.1662299
50
210.2422646
51
272.8597277
0
ARC
8
DEFAULT_255_2_778
10
4.8571446
20
40.3269879
40
0.1638171
50
266.6423239
51
328.3186463
0
ARC
8
DEFAULT_255_2_778
10
4.7037381
20
40.4081109
40
0.337166
50
330.2790551
51
353.2962032
0
ARC
8
DEFAULT_255_2_778
10
4.2005833
20
40.4902592
40
0.8467787
50
351.749903
51
359.6950284
0
LINE
8
DEFAULT_255_2_778
10
5.18305
20
40.6979521
11
5.18305
21
40.5222521
0
LINE
8
DEFAULT_255_2_778
10
4.50995
20
40.5042521
11
4.50995
21
40.6852521
0
LINE
8
DEFAULT_255_2_778
10
5.18305
20
40.6981521
11
5.18305
21
40.6979521
0
LINE
8
DEFAULT_255_2_778
10
5.04755
20
40.4854521
11
5.04755
21
40.7074521
0
LINE
8
DEFAULT_255_2_778
10
4.64545
20
40.7177521
11
4.64545
21
40.5010521
0
LINE
8
DEFAULT_255_2_778
10
5.04735
20
40.4857521
11
5.04755
21
40.4854521
0
LINE
8
DEFAULT_255_2_778
10
5.3918458
20
41.1337
11
5.5736458
21
41.1337
0
LINE
8
DEFAULT_255_2_778
10
5.5736458
20
41.1337
11
5.9223458
21
40.2635
0
LINE
8
DEFAULT_255_2_778
10
5.9223458
20
40.2635
11
6.2710458
21
41.1337
0
LINE
8
DEFAULT_255_2_778
10
6.2710458
20
41.1337
11
6.4533458
21
41.1337
0
LINE
8
DEFAULT_255_2_778
10
6.4533458
20
41.1337
11
6.4533458
21
40.0672
0
LINE
8
DEFAULT_255_2_778
10
6.4533458
20
40.0672
11
6.3128458
21
40.0672
0
LINE
8
DEFAULT_255_2_778
10
6.3128458
20
40.0672
11
6.3128458
21
40.4826
0
LINE
8
DEFAULT_255_2_778
10
6.3128458
20
40.4826
11
6.3260458
21
40.9308
0
LINE
8
DEFAULT_255_2_778
10
6.3260458
20
40.9308
11
5.9760458
21
40.0672
0
LINE
8
DEFAULT_255_2_778
10
5.9760458
20
40.0672
11
5.8683458
21
40.0672
0
LINE
8
DEFAULT_255_2_778
10
5.8683458
20
40.0672
11
5.5191458
21
40.9284
0
LINE
8
DEFAULT_255_2_778
10
5.5191458
20
40.9284
11
5.5331458
21
40.4823
0
LINE
8
DEFAULT_255_2_778
10
5.5331458
20
40.4823
11
5.5331458
21
40.0669
0
LINE
8
DEFAULT_255_2_778
10
5.5331458
20
40.0669
11
5.3926458
21
40.0669
0
LINE
8
DEFAULT_255_2_778
10
5.3926458
20
40.0669
11
5.3926458
21
41.1334
0
LINE
8
DEFAULT_255_2_778
10
5.3926458
20
41.1334
11
5.3918458
21
41.1337
0
ARC
8
DEFAULT_255_2_778
10
7.062217
20
40.5952077
40
0.538601
50
72.3274944
51
91.3112735
0
ARC
8
DEFAULT_255_2_778
10
7.138276
20
40.8458773
40
0.2766953
50
51.3493588
51
71.5762817
0
ARC
8
DEFAULT_255_2_778
10
7.1444089
20
40.8700022
40
0.254232
50
357.8269501
51
49.0323737
0
ARC
8
DEFAULT_255_2_778
10
6.9585277
20
40.8495193
40
0.4400641
50
359.993276
51
1.4118769
0
ARC
8
DEFAULT_255_2_778
10
7.1817017
20
40.8462968
40
0.2169131
50
323.4657521
51
0.8376016
0
ARC
8
DEFAULT_255_2_778
10
7.1353621
20
40.8844511
40
0.2768775
50
292.2925533
51
322.8302577
0
ARC
8
DEFAULT_255_2_778
10
7.1795092
20
40.3903569
40
0.2455773
50
36.5103885
51
75.6457803
0
ARC
8
DEFAULT_255_2_778
10
7.1642234
20
40.3816521
40
0.2630507
50
358.5656846
51
36.0534056
0
ARC
8
DEFAULT_255_2_778
10
7.1425089
20
40.3605397
40
0.2850532
50
312.2289417
51
2.9214012
0
ARC
8
DEFAULT_255_2_778
10
7.1126642
20
40.4174084
40
0.3475951
50
273.6012913
51
309.570486
0
ARC
8
DEFAULT_255_2_778
10
7.0724471
20
40.6833493
40
0.615983
50
269.8739248
51
275.7814585
0
ARC
8
DEFAULT_255_2_778
10
7.08656
20
40.4049256
40
0.2233119
50
266.7736022
51
309.5624877
0
ARC
8
DEFAULT_255_2_778
10
7.1076411
20
40.3635829
40
0.1782977
50
312.8033836
51
3.0171879
0
ARC
8
DEFAULT_255_2_778
10
7.0970219
20
40.3865974
40
0.1891614
50
355.8680618
51
42.4869457
0
ARC
8
DEFAULT_255_2_778
10
7.1023101
20
40.3609057
40
0.203862
50
48.8285056
51
90.0197885
0
ARC
8
DEFAULT_255_2_778
10
7.0765075
20
40.151434
40
0.4141338
50
86.4376347
51
90.057532
0
ARC
8
DEFAULT_255_2_778
10
7.0655935
20
40.9014002
40
0.2231241
50
267.07087
51
307.6194961
0
ARC
8
DEFAULT_255_2_778
10
7.1031065
20
40.8430637
40
0.154131
50
309.8118063
51
2.4928919
0
ARC
8
DEFAULT_255_2_778
10
7.1056361
20
40.8631683
40
0.1520473
50
354.943717
51
48.7981694
0
ARC
8
DEFAULT_255_2_778
10
7.0805436
20
40.7945277
40
0.2217898
50
55.6174811
51
89.0792105
0
ARC
8
DEFAULT_255_2_778
10
7.0504413
20
40.5362787
40
0.4811895
50
85.9880142
51
90.0892544
0
LINE
8
DEFAULT_255_2_778
10
7.0710917
20
40.0671677
11
6.7011917
21
40.0671677
0
LINE
8
DEFAULT_255_2_778
10
6.7011917
20
40.0671677
11
6.7011917
21
41.1336677
0
LINE
8
DEFAULT_255_2_778
10
6.7011917
20
41.1336677
11
7.0498917
21
41.1336677
0
LINE
8
DEFAULT_255_2_778
10
7.0710917
20
40.0673677
11
7.0710917
21
40.0671677
0
LINE
8
DEFAULT_255_2_778
10
7.0760917
20
40.5658677
11
6.8416917
21
40.5658677
0
LINE
8
DEFAULT_255_2_778
10
6.8416917
20
40.5658677
11
6.8416917
21
40.1819677
0
LINE
8
DEFAULT_255_2_778
10
6.8416917
20
40.1819677
11
7.0739917
21
40.1819677
0
LINE
8
DEFAULT_255_2_778
10
7.0760917
20
40.5655677
11
7.0760917
21
40.5658677
0
LINE
8
DEFAULT_255_2_778
10
6.8416917
20
41.0177677
11
6.8416917
21
40.6785677
0
LINE
8
DEFAULT_255_2_778
10
6.8416917
20
40.6785677
11
7.0541917
21
40.6785677
0
LINE
8
DEFAULT_255_2_778
10
7.0496917
20
41.0174677
11
6.8416917
21
41.0174677
0
LINE
8
DEFAULT_255_2_778
10
6.8416917
20
41.0174677
11
6.8416917
21
41.0177677
0
LINE
8
DEFAULT_255_2_778
10
7.7857531
20
41.1336677
11
7.7857531
21
40.0671677
0
LINE
8
DEFAULT_255_2_778
10
7.7857531
20
40.0671677
11
7.6452531
21
40.0671677
0
LINE
8
DEFAULT_255_2_778
10
7.6452531
20
40.0671677
11
7.6452531
21
41.1336677
0
LINE
8
DEFAULT_255_2_778
10
7.6452531
20
41.1336677
11
7.7857531
21
41.1336677
0
LINE
8
DEFAULT_255_2_778
10
7.7857531
20
41.1336677
11
7.7857531
21
41.1336677
0
LINE
8
DEFAULT_255_2_778
10
8.7586146
20
41.1336354
11
8.7586146
21
41.0180354
0
LINE
8
DEFAULT_255_2_778
10
8.7586146
20
41.0180354
11
8.4157146
21
41.0180354
0
LINE
8
DEFAULT_255_2_778
10
8.4157146
20
41.0180354
11
8.4157146
21
40.0673354
0
LINE
8
DEFAULT_255_2_778
10
8.4157146
20
40.0673354
11
8.2757146
21
40.0673354
0
LINE
8
DEFAULT_255_2_778
10
8.2757146
20
40.0673354
11
8.2757146
21
41.0180354
0
LINE
8
DEFAULT_255_2_778
10
8.2757146
20
41.0180354
11
7.9336146
21
41.0180354
0
LINE
8
DEFAULT_255_2_778
10
7.9336146
20
41.0180354
11
7.9336146
21
41.1336354
0
LINE
8
DEFAULT_255_2_778
10
7.9336146
20
41.1336354
11
8.7583146
21
41.1336354
0
LINE
8
DEFAULT_255_2_778
10
8.7583146
20
41.1336354
11
8.7586146
21
41.1336354
0
LINE
8
DEFAULT_255_2_778
10
4.9039011
20
46.0930677
11
4.9039011
21
45.9779677
0
LINE
8
DEFAULT_255_2_778
10
4.9039011
20
45.9779677
11
4.4417011
21
45.9779677
0
LINE
8
DEFAULT_255_2_778
10
4.4417011
20
45.9779677
11
4.4417011
21
45.6001677
0
LINE
8
DEFAULT_255_2_778
10
4.4417011
20
45.6001677
11
4.9785011
21
45.6001677
0
LINE
8
DEFAULT_255_2_778
10
4.9785011
20
45.6001677
11
4.9785011
21
45.4850677
0
LINE
8
DEFAULT_255_2_778
10
4.9785011
20
45.4850677
11
4.3009011
21
45.4850677
0
LINE
8
DEFAULT_255_2_778
10
4.3009011
20
45.4850677
11
4.3009011
21
46.5515677
0
LINE
8
DEFAULT_255_2_778
10
4.3009011
20
46.5515677
11
4.9711011
21
46.5515677
0
LINE
8
DEFAULT_255_2_778
10
4.9711011
20
46.5515677
11
4.9711011
21
46.4359677
0
LINE
8
DEFAULT_255_2_778
10
4.9711011
20
46.4359677
11
4.4417011
21
46.4359677
0
LINE
8
DEFAULT_255_2_778
10
4.4417011
20
46.4359677
11
4.4417011
21
46.0930677
0
LINE
8
DEFAULT_255_2_778
10
4.4417011
20
46.0930677
11
4.9039011
21
46.0930677
0
LINE
8
DEFAULT_255_2_778
10
4.9039011
20
46.0930677
11
4.9039011
21
46.0930677
0
LINE
8
DEFAULT_255_2_778
10
5.9051146
20
46.5515354
11
5.9051146
21
46.4359354
0
LINE
8
DEFAULT_255_2_778
10
5.9051146
20
46.4359354
11
5.5622146
21
46.4359354
0
LINE
8
DEFAULT_255_2_778
10
5.5622146
20
46.4359354
11
5.5622146
21
45.4852354
0
LINE
8
DEFAULT_255_2_778
10
5.5622146
20
45.4852354
11
5.4222146
21
45.4852354
0
LINE
8
DEFAULT_255_2_778
10
5.4222146
20
45.4852354
11
5.4222146
21
46.4359354
0
LINE
8
DEFAULT_255_2_778
10
5.4222146
20
46.4359354
11
5.0801146
21
46.4359354
0
LINE
8
DEFAULT_255_2_778
10
5.0801146
20
46.4359354
11
5.0801146
21
46.5515354
0
LINE
8
DEFAULT_255_2_778
10
5.0801146
20
46.5515354
11
5.9048146
21
46.5515354
0
LINE
8
DEFAULT_255_2_778
10
5.9048146
20
46.5515354
11
5.9051146
21
46.5515354
0
LINE
8
DEFAULT_255_2_778
10
6.8830604
20
46.5515677
11
6.8830604
21
45.4850677
0
LINE
8
DEFAULT_255_2_778
10
6.8830604
20
45.4850677
11
6.7417604
21
45.4850677
0
LINE
8
DEFAULT_255_2_778
10
6.7417604
20
45.4850677
11
6.7417604
21
45.9779677
0
LINE
8
DEFAULT_255_2_778
10
6.7417604
20
45.9779677
11
6.2038604
21
45.9779677
0
LINE
8
DEFAULT_255_2_778
10
6.2038604
20
45.9779677
11
6.2038604
21
45.4850677
0
LINE
8
DEFAULT_255_2_778
10
6.2038604
20
45.4850677
11
6.0633604
21
45.4850677
0
LINE
8
DEFAULT_255_2_778
10
6.0633604
20
45.4850677
11
6.0633604
21
46.5515677
0
LINE
8
DEFAULT_255_2_778
10
6.0633604
20
46.5515677
11
6.2038604
21
46.5515677
0
LINE
8
DEFAULT_255_2_778
10
6.2038604
20
46.5515677
11
6.2038604
21
46.0930677
0
LINE
8
DEFAULT_255_2_778
10
6.2038604
20
46.0930677
11
6.7414604
21
46.0930677
0
LINE
8
DEFAULT_255_2_778
10
6.7414604
20
46.0930677
11
6.7414604
21
46.5515677
0
LINE
8
DEFAULT_255_2_778
10
6.7414604
20
46.5515677
11
6.8827604
21
46.5515677
0
LINE
8
DEFAULT_255_2_778
10
6.8827604
20
46.5515677
11
6.8830604
21
46.5515677
0
LINE
8
DEFAULT_255_2_778
10
7.7355011
20
46.0930677
11
7.7355011
21
45.9779677
0
LINE
8
DEFAULT_255_2_778
10
7.7355011
20
45.9779677
11
7.2733011
21
45.9779677
0
LINE
8
DEFAULT_255_2_778
10
7.2733011
20
45.9779677
11
7.2733011
21
45.6001677
0
LINE
8
DEFAULT_255_2_778
10
7.2733011
20
45.6001677
11
7.8101011
21
45.6001677
0
LINE
8
DEFAULT_255_2_778
10
7.8101011
20
45.6001677
11
7.8101011
21
45.4850677
0
LINE
8
DEFAULT_255_2_778
10
7.8101011
20
45.4850677
11
7.1325011
21
45.4850677
0
LINE
8
DEFAULT_255_2_778
10
7.1325011
20
45.4850677
11
7.1325011
21
46.5515677
0
LINE
8
DEFAULT_255_2_778
10
7.1325011
20
46.5515677
11
7.8027011
21
46.5515677
0
LINE
8
DEFAULT_255_2_778
10
7.8027011
20
46.5515677
11
7.8027011
21
46.4359677
0
LINE
8
DEFAULT_255_2_778
10
7.8027011
20
46.4359677
11
7.2733011
21
46.4359677
0
LINE
8
DEFAULT_255_2_778
10
7.2733011
20
46.4359677
11
7.2733011
21
46.0930677
0
LINE
8
DEFAULT_255_2_778
10
7.2733011
20
46.0930677
11
7.7355011
21
46.0930677
0
LINE
8
DEFAULT_255_2_778
10
7.7355011
20
46.0930677
11
7.7355011
21
46.0930677
0
ARC
8
DEFAULT_255_2_778
10
8.3501987
20
46.0322792
40
0.5194442
50
69.7561446
51
91.4027862
0
ARC
8
DEFAULT_255_2_778
10
8.4188728
20
46.2348938
40
0.3056357
50
50.1587364
51
68.6920496
0
ARC
8
DEFAULT_255_2_778
10
8.4233974
20
46.2540501
40
0.2881627
50
358.7538712
51
48.4090087
0
ARC
8
DEFAULT_255_2_778
10
8.2253041
20
46.2309764
40
0.4864782
50
359.9871987
51
1.9798623
0
ARC
8
DEFAULT_255_2_778
10
8.4243287
20
46.2247771
40
0.2875181
50
324.3905515
51
1.2138012
0
ARC
8
DEFAULT_255_2_778
10
8.4016637
20
46.2478255
40
0.319413
50
289.5183293
51
323.3964604
0
ARC
8
DEFAULT_255_2_778
10
8.3550644
20
46.2748529
40
0.2438258
50
266.971476
51
309.112994
0
ARC
8
DEFAULT_255_2_778
10
8.3878555
20
46.223046
40
0.1830855
50
311.3792121
51
2.3858502
0
ARC
8
DEFAULT_255_2_778
10
8.3785151
20
46.2431216
40
0.1926701
50
356.2938915
51
46.2362981
0
ARC
8
DEFAULT_255_2_778
10
8.3624647
20
46.1975138
40
0.2375495
50
51.0549636
51
90.1580998
0
ARC
8
DEFAULT_255_2_778
10
8.3384035
20
45.9900933
40
0.4455843
50
86.9889719
51
89.6169693
0
LINE
8
DEFAULT_255_2_778
10
8.6078823
20
45.4850677
11
8.3762823
21
45.9162677
0
LINE
8
DEFAULT_255_2_778
10
8.3762823
20
45.9162677
11
8.1257823
21
45.9162677
0
LINE
8
DEFAULT_255_2_778
10
8.1257823
20
45.9162677
11
8.1257823
21
45.4850677
0
LINE
8
DEFAULT_255_2_778
10
8.1257823
20
45.4850677
11
7.9844823
21
45.4850677
0
LINE
8
DEFAULT_255_2_778
10
7.9844823
20
45.4850677
11
7.9844823
21
46.5515677
0
LINE
8
DEFAULT_255_2_778
10
7.9844823
20
46.5515677
11
8.3374823
21
46.5515677
0
LINE
8
DEFAULT_255_2_778
10
8.5083823
20
45.9467677
11
8.7588823
21
45.4940677
0
LINE
8
DEFAULT_255_2_778
10
8.7588823
20
45.4940677
11
8.7588823
21
45.4852677
0
LINE
8
DEFAULT_255_2_778
10
8.7588823
20
45.4852677
11
8.6080823
21
45.4852677
0
LINE
8
DEFAULT_255_2_778
10
8.6080823
20
45.4852677
11
8.6078823
21
45.4850677
0
LINE
8
DEFAULT_255_2_778
10
8.1260823
20
46.4356677
11
8.1260823
21
46.0313677
0
LINE
8
DEFAULT_255_2_778
10
8.1260823
20
46.0313677
11
8.3421823
21
46.0313677
0
LINE
8
DEFAULT_255_2_778
10
8.3413823
20
46.4356677
11
8.1260823
21
46.4356677
0
LINE
8
DEFAULT_255_2_778
10
8.1260823
20
46.4356677
11
8.1260823
21
46.4356677
0
LINE
8
DEFAULT_255_2_778
10
2.8025792
20
49.4016677
11
2.8025792
21
48.4502677
0
LINE
8
DEFAULT_255_2_778
10
2.8025792
20
48.4502677
11
3.3078792
21
48.4502677
0
LINE
8
DEFAULT_255_2_778
10
3.3078792
20
48.4502677
11
3.3078792
21
48.3351677
0
LINE
8
DEFAULT_255_2_778
10
3.3078792
20
48.3351677
11
2.6612792
21
48.3351677
0
LINE
8
DEFAULT_255_2_778
10
2.6612792
20
48.3351677
11
2.6612792
21
49.4016677
0
LINE
8
DEFAULT_255_2_778
10
2.6612792
20
49.4016677
11
2.8025792
21
49.4016677
0
LINE
8
DEFAULT_255_2_778
10
2.8025792
20
49.4016677
11
2.8025792
21
49.4016677
0
LINE
8
DEFAULT_255_2_778
10
4.2882604
20
49.4016677
11
4.2882604
21
48.3351677
0
LINE
8
DEFAULT_255_2_778
10
4.2882604
20
48.3351677
11
4.1469604
21
48.3351677
0
LINE
8
DEFAULT_255_2_778
10
4.1469604
20
48.3351677
11
3.6101604
21
49.1569677
0
LINE
8
DEFAULT_255_2_778
10
3.6101604
20
49.1569677
11
3.6101604
21
48.3351677
0
LINE
8
DEFAULT_255_2_778
10
3.6101604
20
48.3351677
11
3.4688604
21
48.3351677
0
LINE
8
DEFAULT_255_2_778
10
3.4688604
20
48.3351677
11
3.4688604
21
49.4016677
0
LINE
8
DEFAULT_255_2_778
10
3.4688604
20
49.4016677
11
3.6101604
21
49.4016677
0
LINE
8
DEFAULT_255_2_778
10
3.6101604
20
49.4016677
11
4.1485604
21
48.5761677
0
LINE
8
DEFAULT_255_2_778
10
4.1485604
20
48.5761677
11
4.1485604
21
49.4016677
0
LINE
8
DEFAULT_255_2_778
10
4.1485604
20
49.4016677
11
4.2885604
21
49.4016677
0
LINE
8
DEFAULT_255_2_778
10
4.2885604
20
49.4016677
11
4.2882604
21
49.4016677
0
LINE
8
DEFAULT_255_2_778
10
5.1867511
20
48.3351677
11
4.8088511
21
48.8309677
0
LINE
8
DEFAULT_255_2_778
10
4.8088511
20
48.8309677
11
4.6784511
21
48.6954677
0
LINE
8
DEFAULT_255_2_778
10
4.6784511
20
48.6954677
11
4.6784511
21
48.3351677
0
LINE
8
DEFAULT_255_2_778
10
4.6784511
20
48.3351677
11
4.5379511
21
48.3351677
0
LINE
8
DEFAULT_255_2_778
10
4.5379511
20
48.3351677
11
4.5379511
21
49.4016677
0
LINE
8
DEFAULT_255_2_778
10
4.5379511
20
49.4016677
11
4.6784511
21
49.4016677
0
LINE
8
DEFAULT_255_2_778
10
4.6784511
20
49.4016677
11
4.6784511
21
48.8743677
0
LINE
8
DEFAULT_255_2_778
10
4.6784511
20
48.8743677
11
5.1523511
21
49.4016677
0
LINE
8
DEFAULT_255_2_778
10
5.1523511
20
49.4016677
11
5.3221511
21
49.4016677
0
LINE
8
DEFAULT_255_2_778
10
5.3221511
20
49.4016677
11
4.9025511
21
48.9306677
0
LINE
8
DEFAULT_255_2_778
10
4.9025511
20
48.9306677
11
5.3552511
21
48.3351677
0
LINE
8
DEFAULT_255_2_778
10
5.3552511
20
48.3351677
11
5.1867511
21
48.3351677
0
LINE
8
DEFAULT_255_2_778
10
5.1867511
20
48.3351677
11
5.1867511
21
48.3351677
0
LINE
8
DEFAULT_255_2_778
10
5.9286417
20
49.4016406
11
5.4841417
21
48.2435406
0
LINE
8
DEFAULT_255_2_778
10
5.4841417
20
48.2435406
11
5.3677417
21
48.2435406
0
LINE
8
DEFAULT_255_2_778
10
5.3677417
20
48.2435406
11
5.8130417
21
49.4016406
0
LINE
8
DEFAULT_255_2_778
10
5.8130417
20
49.4016406
11
5.9286417
21
49.4016406
0
LINE
8
DEFAULT_255_2_778
10
5.9286417
20
49.4016406
11
5.9286417
21
49.4016406
0
LINE
8
DEFAULT_255_2_778
10
6.7871938
20
48.3351677
11
6.6852938
21
48.6134677
0
LINE
8
DEFAULT_255_2_778
10
6.6852938
20
48.6134677
11
6.2384938
21
48.6134677
0
LINE
8
DEFAULT_255_2_778
10
6.2384938
20
48.6134677
11
6.1381938
21
48.3351677
0
LINE
8
DEFAULT_255_2_778
10
6.1381938
20
48.3351677
11
5.9931938
21
48.3351677
0
LINE
8
DEFAULT_255_2_778
10
5.9931938
20
48.3351677
11
6.4003938
21
49.4016677
0
LINE
8
DEFAULT_255_2_778
10
6.4003938
20
49.4016677
11
6.5233938
21
49.4016677
0
LINE
8
DEFAULT_255_2_778
10
6.5233938
20
49.4016677
11
6.9313938
21
48.3351677
0
LINE
8
DEFAULT_255_2_778
10
6.9313938
20
48.3351677
11
6.7871938
21
48.3351677
0
LINE
8
DEFAULT_255_2_778
10
6.7871938
20
48.3351677
11
6.7871938
21
48.3351677
0
LINE
8
DEFAULT_255_2_778
10
6.4619938
20
49.2278677
11
6.2810938
21
48.7290677
0
LINE
8
DEFAULT_255_2_778
10
6.2810938
20
48.7290677
11
6.6434938
21
48.7290677
0
LINE
8
DEFAULT_255_2_778
10
6.6434938
20
48.7290677
11
6.4617938
21
49.2278677
0
LINE
8
DEFAULT_255_2_778
10
6.4617938
20
49.2278677
11
6.4619938
21
49.2278677
0
ARC
8
DEFAULT_255_2_778
10
7.437087
20
48.7077037
40
0.4153886
50
321.5902139
51
355.2795747
0
ARC
8
DEFAULT_255_2_778
10
7.5049259
20
48.6653453
40
0.3360339
50
311.1770585
51
320.0630521
0
ARC
8
DEFAULT_255_2_778
10
7.47532
20
48.7135184
40
0.3918985
50
271.2817675
51
309.7978393
0
ARC
8
DEFAULT_255_2_778
10
7.4471598
20
48.941923
40
0.6213034
50
269.9637446
51
273.4073333
0
ARC
8
DEFAULT_255_2_778
10
7.4330824
20
48.6965121
40
0.3761413
50
219.7446265
51
272.0849202
0
ARC
8
DEFAULT_255_2_778
10
7.5327596
20
48.7694053
40
0.4994479
50
184.8906267
51
218.8632611
0
ARC
8
DEFAULT_255_2_778
10
7.8289568
20
48.8166478
40
0.7988923
50
179.8657437
51
186.4556253
0
ARC
8
DEFAULT_255_2_778
10
7.6359865
20
48.9340169
40
0.606055
50
155.7826898
51
181.2099147
0
ARC
8
DEFAULT_255_2_778
10
7.4468262
20
49.0188913
40
0.3987261
50
122.2998778
51
155.7556576
0
ARC
8
DEFAULT_255_2_778
10
7.4507259
20
48.9963939
40
0.4199168
50
88.8072742
51
121.1092744
0
ARC
8
DEFAULT_255_2_778
10
7.4736913
20
49.0084594
40
0.4080084
50
57.797273
51
91.9979334
0
ARC
8
DEFAULT_255_2_778
10
7.5067634
20
49.0777388
40
0.331882
50
47.2684611
51
56.254476
0
ARC
8
DEFAULT_255_2_778
10
7.4619699
20
49.0413945
40
0.3890609
50
4.894602
51
46.0547715
0
ARC
8
DEFAULT_255_2_778
10
7.2582633
20
49.0000691
40
0.5960259
50
5.6761905
51
7.1825069
0
ARC
8
DEFAULT_255_2_778
10
7.337041
20
49.0178754
40
0.3752879
50
6.2942251
51
29.6554142
0
ARC
8
DEFAULT_255_2_778
10
7.4957826
20
49.1013034
40
0.1961533
50
31.4205974
51
46.5559212
0
ARC
8
DEFAULT_255_2_778
10
7.4762229
20
49.0639831
40
0.2369771
50
49.3282662
51
92.3316936
0
ARC
8
DEFAULT_255_2_778
10
7.4597781
20
48.8860231
40
0.4147967
50
89.0601879
51
90.0015764
0
ARC
8
DEFAULT_255_2_778
10
7.4492026
20
49.0487885
40
0.2522526
50
87.5998082
51
142.7658868
0
ARC
8
DEFAULT_255_2_778
10
7.5604606
20
48.9770455
40
0.384378
50
144.2864397
51
174.2714094
0
ARC
8
DEFAULT_255_2_778
10
7.8989573
20
48.9211025
40
0.7270973
50
172.5472932
51
180.2429201
0
ARC
8
DEFAULT_255_2_778
10
7.72905
20
48.8021682
40
0.5573269
50
178.6992471
51
199.7765182
0
ARC
8
DEFAULT_255_2_778
10
7.5268781
20
48.7365212
40
0.3449313
50
200.8779194
51
215.0115429
0
ARC
8
DEFAULT_255_2_778
10
7.4383028
20
48.6699907
40
0.2342425
50
214.1134259
51
272.193096
0
ARC
8
DEFAULT_255_2_778
10
7.4599019
20
48.7390508
40
0.3033943
50
267.6131663
51
297.4038818
0
ARC
8
DEFAULT_255_2_778
10
7.507287
20
48.6309288
40
0.1857551
50
299.7785073
51
310.2333926
0
ARC
8
DEFAULT_255_2_778
10
7.4611398
20
48.665057
40
0.2419753
50
313.3572163
51
347.5917622
0
ARC
8
DEFAULT_255_2_778
10
7.1781522
20
48.7539644
40
0.5380864
50
344.8196873
51
351.4558186
0
LINE
8
DEFAULT_255_2_778
10
7.7097667
20
48.6735198
11
7.8510667
21
48.6735198
0
LINE
8
DEFAULT_255_2_778
10
7.0300667
20
48.8185198
11
7.0300667
21
48.9212198
0
LINE
8
DEFAULT_255_2_778
10
7.8513667
20
49.0590198
11
7.7100667
21
49.0590198
0
LINE
8
DEFAULT_255_2_778
10
7.1718667
20
48.9180198
11
7.1718667
21
48.8148198
0
LINE
8
DEFAULT_255_2_778
10
7.7102667
20
48.6740198
11
7.7097667
21
48.6735198
0
LINE
8
DEFAULT_255_2_778
10
8.7586146
20
49.4016354
11
8.7586146
21
49.2860354
0
LINE
8
DEFAULT_255_2_778
10
8.7586146
20
49.2860354
11
8.4157146
21
49.2860354
0
LINE
8
DEFAULT_255_2_778
10
8.4157146
20
49.2860354
11
8.4157146
21
48.3353354
0
LINE
8
DEFAULT_255_2_778
10
8.4157146
20
48.3353354
11
8.2757146
21
48.3353354
0
LINE
8
DEFAULT_255_2_778
10
8.2757146
20
48.3353354
11
8.2757146
21
49.2860354
0
LINE
8
DEFAULT_255_2_778
10
8.2757146
20
49.2860354
11
7.9336146
21
49.2860354
0
LINE
8
DEFAULT_255_2_778
10
7.9336146
20
49.2860354
11
7.9336146
21
49.4016354
0
LINE
8
DEFAULT_255_2_778
10
7.9336146
20
49.4016354
11
8.7583146
21
49.4016354
0
LINE
8
DEFAULT_255_2_778
10
8.7583146
20
49.4016354
11
8.7586146
21
49.4016354
0
LINE
8
DEFAULT_255_2_778
10
51.9873459
20
42.4698527
11
48.4874459
21
42.4698527
0
LINE
8
DEFAULT_255_2_778
10
48.4874459
20
42.4698527
11
48.4874459
21
73.4697527
0
LINE
8
DEFAULT_255_2_778
10
48.4874459
20
73.4697527
11
51.9873459
21
73.4697527
0
LINE
8
DEFAULT_255_2_778
10
51.9873459
20
73.4697527
11
51.9873459
21
42.4698527
0
LINE
8
DEFAULT_255_2_778
10
51.3931
20
52.5120697
11
50.6941
21
52.5120697
0
LINE
8
DEFAULT_255_2_778
10
50.6941
20
52.5120697
11
49.8818
21
53.9108697
0
LINE
8
DEFAULT_255_2_778
10
49.8818
20
53.9108697
11
49.8818
21
52.5120697
0
LINE
8
DEFAULT_255_2_778
10
49.8818
20
52.5120697
11
49.0817
21
52.5120697
0
LINE
8
DEFAULT_255_2_778
10
49.0817
20
52.5120697
11
49.0817
21
55.6777697
0
LINE
8
DEFAULT_255_2_778
10
49.0817
20
55.6777697
11
49.7807
21
55.6777697
0
LINE
8
DEFAULT_255_2_778
10
49.7807
20
55.6777697
11
50.593
21
54.2788697
0
LINE
8
DEFAULT_255_2_778
10
50.593
20
54.2788697
11
50.593
21
55.6777697
0
LINE
8
DEFAULT_255_2_778
10
50.593
20
55.6777697
11
51.3931
21
55.6777697
0
LINE
8
DEFAULT_255_2_778
10
51.3931
20
55.6777697
11
51.3931
21
52.5120697
0
LINE
8
DEFAULT_255_2_778
10
50.6874438
20
60.3180781
11
49.7873438
21
60.3180781
0
LINE
8
DEFAULT_255_2_778
10
49.7873438
20
60.3180781
11
49.7873438
21
63.3716781
0
LINE
8
DEFAULT_255_2_778
10
49.7873438
20
63.3716781
11
50.6874438
21
63.3716781
0
LINE
8
DEFAULT_255_2_778
10
50.6874438
20
63.3716781
11
50.6874438
21
60.3180781
0
ARC
8
DEFAULT_255_2_778
10
45.4684003
20
7.4075037
40
0.4153886
50
321.5902139
51
355.2795747
0
ARC
8
DEFAULT_255_2_778
10
45.5362391
20
7.3651453
40
0.3360339
50
311.1770585
51
320.0630521
0
ARC
8
DEFAULT_255_2_778
10
45.5066332
20
7.4133184
40
0.3918985
50
271.2817675
51
309.7978393
0
ARC
8
DEFAULT_255_2_778
10
45.4784731
20
7.641723
40
0.6213034
50
269.9637446
51
273.4073333
0
ARC
8
DEFAULT_255_2_778
10
45.4643956
20
7.3963121
40
0.3761413
50
219.7446265
51
272.0849202
0
ARC
8
DEFAULT_255_2_778
10
45.5640728
20
7.4692053
40
0.4994479
50
184.8906267
51
218.8632611
0
ARC
8
DEFAULT_255_2_778
10
45.8602701
20
7.5164478
40
0.7988923
50
179.8657437
51
186.4556253
0
ARC
8
DEFAULT_255_2_778
10
45.6672998
20
7.6338169
40
0.606055
50
155.7826898
51
181.2099147
0
ARC
8
DEFAULT_255_2_778
10
45.4781394
20
7.7186913
40
0.3987261
50
122.2998778
51
155.7556576
0
ARC
8
DEFAULT_255_2_778
10
45.4820391
20
7.6961939
40
0.4199168
50
88.8072742
51
121.1092744
0
ARC
8
DEFAULT_255_2_778
10
45.5050045
20
7.7082594
40
0.4080084
50
57.797273
51
91.9979334
0
ARC
8
DEFAULT_255_2_778
10
45.5380767
20
7.7775388
40
0.331882
50
47.2684611
51
56.254476
0
ARC
8
DEFAULT_255_2_778
10
45.4935486
20
7.7414634
40
0.3886831
50
4.8595892
51
46.0554424
0
ARC
8
DEFAULT_255_2_778
10
45.2892877
20
7.7001973
40
0.5961813
50
5.6430051
51
7.1488303
0
ARC
8
DEFAULT_255_2_778
10
45.3683542
20
7.7176754
40
0.3752879
50
6.2942251
51
29.6554142
0
ARC
8
DEFAULT_255_2_778
10
45.5270958
20
7.8011034
40
0.1961533
50
31.4205974
51
46.5559212
0
ARC
8
DEFAULT_255_2_778
10
45.5075361
20
7.7637831
40
0.2369771
50
49.3282662
51
92.3316936
0
ARC
8
DEFAULT_255_2_778
10
45.4910913
20
7.5858231
40
0.4147967
50
89.0601879
51
90.0015764
0
ARC
8
DEFAULT_255_2_778
10
45.4805158
20
7.7485885
40
0.2522526
50
87.5998082
51
142.7658868
0
ARC
8
DEFAULT_255_2_778
10
45.5917739
20
7.6768455
40
0.384378
50
144.2864397
51
174.2714094
0
ARC
8
DEFAULT_255_2_778
10
45.9302705
20
7.6209025
40
0.7270973
50
172.5472932
51
180.2429201
0
ARC
8
DEFAULT_255_2_778
10
45.7603632
20
7.5019682
40
0.5573269
50
178.6992471
51
199.7765182
0
ARC
8
DEFAULT_255_2_778
10
45.5581913
20
7.4363212
40
0.3449313
50
200.8779194
51
215.0115429
0
ARC
8
DEFAULT_255_2_778
10
45.4696161
20
7.3697907
40
0.2342425
50
214.1134259
51
272.193096
0
ARC
8
DEFAULT_255_2_778
10
45.4912151
20
7.4388508
40
0.3033943
50
267.6131663
51
297.4038818
0
ARC
8
DEFAULT_255_2_778
10
45.5386003
20
7.3307288
40
0.1857551
50
299.7785073
51
310.2333926
0
ARC
8
DEFAULT_255_2_778
10
45.4924531
20
7.364857
40
0.2419753
50
313.3572163
51
347.5917622
0
ARC
8
DEFAULT_255_2_778
10
45.2094654
20
7.4537644
40
0.5380864
50
344.8196873
51
351.4558186
0
LINE
8
DEFAULT_255_2_778
10
45.7410799
20
7.3733198
11
45.8823799
21
7.3733198
0
LINE
8
DEFAULT_255_2_778
10
45.0613799
20
7.5183198
11
45.0613799
21
7.6210198
0
LINE
8
DEFAULT_255_2_778
10
45.8825799
20
7.7588198
11
45.7413799
21
7.7588198
0
LINE
8
DEFAULT_255_2_778
10
45.2031799
20
7.6178198
11
45.2031799
21
7.5146198
0
LINE
8
DEFAULT_255_2_778
10
45.7415799
20
7.3738198
11
45.7410799
21
7.3733198
0
ARC
8
DEFAULT_255_2_778
10
45.7472043
20
7.4783352
40
0.9607171
50
348.9183555
51
0.6987966
0
ARC
8
DEFAULT_255_2_778
10
46.2733567
20
7.3699028
40
0.4235667
50
326.5213186
51
349.6326065
0
ARC
8
DEFAULT_255_2_778
10
46.4000214
20
7.3019268
40
0.2807287
50
269.2250901
51
323.8316767
0
ARC
8
DEFAULT_255_2_778
10
46.3725726
20
7.5104158
40
0.4897637
50
269.9739601
51
272.7680648
0
ARC
8
DEFAULT_255_2_778
10
46.358417
20
7.3436597
40
0.323308
50
235.7848916
51
272.4699354
0
ARC
8
DEFAULT_255_2_778
10
46.3300451
20
7.2851693
40
0.2591583
50
215.7238851
51
233.7001402
0
ARC
8
DEFAULT_255_2_778
10
46.4802927
20
7.3788012
40
0.4359624
50
189.3810875
51
214.1844112
0
ARC
8
DEFAULT_255_2_778
10
46.9594174
20
7.4758969
40
0.9246754
50
180.2382416
51
190.477886
0
ARC
8
DEFAULT_255_2_778
10
46.9592978
20
7.6653418
40
0.9246295
50
168.3239624
51
180.7615685
0
ARC
8
DEFAULT_255_2_778
10
46.4556311
20
7.7735255
40
0.4095106
50
146.0453793
51
168.8856134
0
ARC
8
DEFAULT_255_2_778
10
46.3416404
20
7.834796
40
0.2810297
50
89.6098226
51
143.4255932
0
ARC
8
DEFAULT_255_2_778
10
46.3704628
20
7.6223258
40
0.4942264
50
89.9667058
51
93.1210735
0
ARC
8
DEFAULT_255_2_778
10
46.3840723
20
7.7774963
40
0.3393174
50
59.2308603
51
92.2501227
0
ARC
8
DEFAULT_255_2_778
10
46.4220244
20
7.8585201
40
0.2504393
50
36.1492775
51
57.2079485
0
ARC
8
DEFAULT_255_2_778
10
46.2846761
20
7.7724224
40
0.4122945
50
10.0317435
51
34.5511957
0
ARC
8
DEFAULT_255_2_778
10
45.7767665
20
7.6661897
40
0.9310837
50
359.9853743
51
11.0246147
0
ARC
8
DEFAULT_255_2_778
10
45.8101059
20
7.6872713
40
0.7623388
50
359.0966252
51
11.2198432
0
ARC
8
DEFAULT_255_2_778
10
46.2721868
20
7.7800366
40
0.2910417
50
11.0065487
51
30.1125065
0
ARC
8
DEFAULT_255_2_778
10
46.3821494
20
7.8386916
40
0.1665511
50
31.6363941
51
93.9246226
0
ARC
8
DEFAULT_255_2_778
10
46.3593382
20
7.8410373
40
0.1642118
50
86.0150483
51
148.6168234
0
ARC
8
DEFAULT_255_2_778
10
46.5224423
20
7.7585789
40
0.3467004
50
151.0208923
51
173.8521996
0
ARC
8
DEFAULT_255_2_778
10
47.0037967
20
7.6842385
40
0.8335478
50
172.3148449
51
179.9097059
0
ARC
8
DEFAULT_255_2_778
10
46.9187663
20
7.4567836
40
0.7486136
50
179.0762868
51
191.7778678
0
ARC
8
DEFAULT_255_2_778
10
46.4840264
20
7.3660271
40
0.3045016
50
191.7576489
51
210.0487537
0
ARC
8
DEFAULT_255_2_778
10
46.3640566
20
7.297275
40
0.1662299
50
210.2422646
51
272.8597277
0
ARC
8
DEFAULT_255_2_778
10
46.3819446
20
7.2947879
40
0.1638171
50
266.6423239
51
328.3186463
0
ARC
8
DEFAULT_255_2_778
10
46.2285381
20
7.3759109
40
0.337166
50
330.2790551
51
353.2962032
0
ARC
8
DEFAULT_255_2_778
10
45.7253833
20
7.4580592
40
0.8467787
50
351.749903
51
359.6950284
0
LINE
8
DEFAULT_255_2_778
10
46.70785
20
7.6657521
11
46.70785
21
7.4900521
0
LINE
8
DEFAULT_255_2_778
10
46.03475
20
7.4720521
11
46.03475
21
7.6530521
0
LINE
8
DEFAULT_255_2_778
10
46.70785
20
7.6659521
11
46.70785
21
7.6657521
0
LINE
8
DEFAULT_255_2_778
10
46.57235
20
7.4532521
11
46.57235
21
7.6752521
0
LINE
8
DEFAULT_255_2_778
10
46.17025
20
7.6855521
11
46.17025
21
7.4688521
0
LINE
8
DEFAULT_255_2_778
10
46.57215
20
7.4535521
11
46.57235
21
7.4532521
0
LINE
8
DEFAULT_255_2_778
10
45.1478354
20
36.1015677
11
45.4510354
21
35.2218677
0
LINE
8
DEFAULT_255_2_778
10
45.4510354
20
35.2218677
11
45.7558354
21
36.1015677
0
LINE
8
DEFAULT_255_2_778
10
45.7558354
20
36.1015677
11
45.9095354
21
36.1015677
0
LINE
8
DEFAULT_255_2_778
10
45.9095354
20
36.1015677
11
45.5140354
21
35.0350677
0
LINE
8
DEFAULT_255_2_778
10
45.5140354
20
35.0350677
11
45.3894354
21
35.0350677
0
LINE
8
DEFAULT_255_2_778
10
45.3894354
20
35.0350677
11
44.9946354
21
36.1015677
0
LINE
8
DEFAULT_255_2_778
10
44.9946354
20
36.1015677
11
45.1478354
21
36.1015677
0
LINE
8
DEFAULT_255_2_778
10
45.1478354
20
36.1015677
11
45.1478354
21
36.1015677
0
ARC
8
DEFAULT_255_2_778
10
45.7252043
20
35.4784352
40
0.9607171
50
348.9183555
51
0.6987966
0
ARC
8
DEFAULT_255_2_778
10
46.2513567
20
35.3700028
40
0.4235667
50
326.5213186
51
349.6326065
0
ARC
8
DEFAULT_255_2_778
10
46.3780214
20
35.3020268
40
0.2807287
50
269.2250901
51
323.8316767
0
ARC
8
DEFAULT_255_2_778
10
46.3505726
20
35.5105158
40
0.4897637
50
269.9739601
51
272.7680648
0
ARC
8
DEFAULT_255_2_778
10
46.336417
20
35.3437597
40
0.323308
50
235.7848916
51
272.4699354
0
ARC
8
DEFAULT_255_2_778
10
46.3080451
20
35.2852693
40
0.2591583
50
215.7238851
51
233.7001402
0
ARC
8
DEFAULT_255_2_778
10
46.4582927
20
35.3789012
40
0.4359624
50
189.3810875
51
214.1844112
0
ARC
8
DEFAULT_255_2_778
10
46.9374174
20
35.4759969
40
0.9246754
50
180.2382416
51
190.477886
0
ARC
8
DEFAULT_255_2_778
10
46.9372978
20
35.6654418
40
0.9246295
50
168.3239624
51
180.7615685
0
ARC
8
DEFAULT_255_2_778
10
46.4336311
20
35.7736255
40
0.4095106
50
146.0453793
51
168.8856134
0
ARC
8
DEFAULT_255_2_778
10
46.3196404
20
35.834896
40
0.2810297
50
89.6098226
51
143.4255932
0
ARC
8
DEFAULT_255_2_778
10
46.3484628
20
35.6224258
40
0.4942264
50
89.9667058
51
93.1210735
0
ARC
8
DEFAULT_255_2_778
10
46.3620723
20
35.7775963
40
0.3393174
50
59.2308603
51
92.2501227
0
ARC
8
DEFAULT_255_2_778
10
46.4000244
20
35.8586201
40
0.2504393
50
36.1492775
51
57.2079485
0
ARC
8
DEFAULT_255_2_778
10
46.2626761
20
35.7725224
40
0.4122945
50
10.0317435
51
34.5511957
0
ARC
8
DEFAULT_255_2_778
10
45.7547665
20
35.6662897
40
0.9310837
50
359.9853743
51
11.0246147
0
ARC
8
DEFAULT_255_2_778
10
45.7881059
20
35.6873713
40
0.7623388
50
359.0966252
51
11.2198432
0
ARC
8
DEFAULT_255_2_778
10
46.2501868
20
35.7801366
40
0.2910417
50
11.0065487
51
30.1125065
0
ARC
8
DEFAULT_255_2_778
10
46.3601494
20
35.8387916
40
0.1665511
50
31.6363941
51
93.9246226
0
ARC
8
DEFAULT_255_2_778
10
46.3373382
20
35.8411373
40
0.1642118
50
86.0150483
51
148.6168234
0
ARC
8
DEFAULT_255_2_778
10
46.5004423
20
35.7586789
40
0.3467004
50
151.0208923
51
173.8521996
0
ARC
8
DEFAULT_255_2_778
10
46.9817967
20
35.6843385
40
0.8335478
50
172.3148449
51
179.9097059
0
ARC
8
DEFAULT_255_2_778
10
46.8967663
20
35.4568836
40
0.7486136
50
179.0762868
51
191.7778678
0
ARC
8
DEFAULT_255_2_778
10
46.4620264
20
35.3661271
40
0.3045016
50
191.7576489
51
210.0487537
0
ARC
8
DEFAULT_255_2_778
10
46.3420566
20
35.297375
40
0.1662299
50
210.2422646
51
272.8597277
0
ARC
8
DEFAULT_255_2_778
10
46.3599446
20
35.2948879
40
0.1638171
50
266.6423239
51
328.3186463
0
ARC
8
DEFAULT_255_2_778
10
46.2065381
20
35.3760109
40
0.337166
50
330.2790551
51
353.2962032
0
ARC
8
DEFAULT_255_2_778
10
45.7033833
20
35.4581592
40
0.8467787
50
351.749903
51
359.6950284
0
LINE
8
DEFAULT_255_2_778
10
46.68585
20
35.6658521
11
46.68585
21
35.4901521
0
LINE
8
DEFAULT_255_2_778
10
46.01275
20
35.4721521
11
46.01275
21
35.6531521
0
LINE
8
DEFAULT_255_2_778
10
46.68585
20
35.6660521
11
46.68585
21
35.6658521
0
LINE
8
DEFAULT_255_2_778
10
46.55035
20
35.4533521
11
46.55035
21
35.6753521
0
LINE
8
DEFAULT_255_2_778
10
46.14825
20
35.6856521
11
46.14825
21
35.4689521
0
LINE
8
DEFAULT_255_2_778
10
46.55015
20
35.4536521
11
46.55035
21
35.4533521
0
ARC
8
DEFAULT_255_2_778
10
45.6368043
20
31.9785352
40
0.9607171
50
348.9183555
51
0.6987966
0
ARC
8
DEFAULT_255_2_778
10
46.1629567
20
31.8701028
40
0.4235667
50
326.5213186
51
349.6326065
0
ARC
8
DEFAULT_255_2_778
10
46.2896214
20
31.8021268
40
0.2807287
50
269.2250901
51
323.8316767
0
ARC
8
DEFAULT_255_2_778
10
46.2621726
20
32.0106158
40
0.4897637
50
269.9739601
51
272.7680648
0
ARC
8
DEFAULT_255_2_778
10
46.248017
20
31.8438597
40
0.323308
50
235.7848916
51
272.4699354
0
ARC
8
DEFAULT_255_2_778
10
46.2196451
20
31.7853693
40
0.2591583
50
215.7238851
51
233.7001402
0
ARC
8
DEFAULT_255_2_778
10
46.3698927
20
31.8790012
40
0.4359624
50
189.3810875
51
214.1844112
0
ARC
8
DEFAULT_255_2_778
10
46.8490174
20
31.9760969
40
0.9246754
50
180.2382416
51
190.477886
0
ARC
8
DEFAULT_255_2_778
10
46.8488978
20
32.1655418
40
0.9246295
50
168.3239624
51
180.7615685
0
ARC
8
DEFAULT_255_2_778
10
46.3452311
20
32.2737255
40
0.4095106
50
146.0453793
51
168.8856134
0
ARC
8
DEFAULT_255_2_778
10
46.2312404
20
32.334996
40
0.2810297
50
89.6098226
51
143.4255932
0
ARC
8
DEFAULT_255_2_778
10
46.2600628
20
32.1225258
40
0.4942264
50
89.9667058
51
93.1210735
0
ARC
8
DEFAULT_255_2_778
10
46.2736723
20
32.2776963
40
0.3393174
50
59.2308603
51
92.2501227
0
ARC
8
DEFAULT_255_2_778
10
46.3116244
20
32.3587201
40
0.2504393
50
36.1492775
51
57.2079485
0
ARC
8
DEFAULT_255_2_778
10
46.1742761
20
32.2726224
40
0.4122945
50
10.0317435
51
34.5511957
0
ARC
8
DEFAULT_255_2_778
10
45.6663665
20
32.1663897
40
0.9310837
50
359.9853743
51
11.0246147
0
ARC
8
DEFAULT_255_2_778
10
45.6997059
20
32.1874713
40
0.7623388
50
359.0966252
51
11.2198432
0
ARC
8
DEFAULT_255_2_778
10
46.1617868
20
32.2802366
40
0.2910417
50
11.0065487
51
30.1125065
0
ARC
8
DEFAULT_255_2_778
10
46.2717494
20
32.3388916
40
0.1665511
50
31.6363941
51
93.9246226
0
ARC
8
DEFAULT_255_2_778
10
46.2489382
20
32.3412373
40
0.1642118
50
86.0150483
51
148.6168234
0
ARC
8
DEFAULT_255_2_778
10
46.4120423
20
32.2587789
40
0.3467004
50
151.0208923
51
173.8521996
0
ARC
8
DEFAULT_255_2_778
10
46.8933967
20
32.1844385
40
0.8335478
50
172.3148449
51
179.9097059
0
ARC
8
DEFAULT_255_2_778
10
46.8083663
20
31.9569836
40
0.7486136
50
179.0762868
51
191.7778678
0
ARC
8
DEFAULT_255_2_778
10
46.3736264
20
31.8662271
40
0.3045016
50
191.7576489
51
210.0487537
0
ARC
8
DEFAULT_255_2_778
10
46.2536566
20
31.797475
40
0.1662299
50
210.2422646
51
272.8597277
0
ARC
8
DEFAULT_255_2_778
10
46.2715446
20
31.7949879
40
0.1638171
50
266.6423239
51
328.3186463
0
ARC
8
DEFAULT_255_2_778
10
46.1181381
20
31.8761109
40
0.337166
50
330.2790551
51
353.2962032
0
ARC
8
DEFAULT_255_2_778
10
45.6149833
20
31.9582592
40
0.8467787
50
351.749903
51
359.6950284
0
LINE
8
DEFAULT_255_2_778
10
46.59745
20
32.1659521
11
46.59745
21
31.9902521
0
LINE
8
DEFAULT_255_2_778
10
45.92435
20
31.9722521
11
45.92435
21
32.1532521
0
LINE
8
DEFAULT_255_2_778
10
46.59745
20
32.1661521
11
46.59745
21
32.1659521
0
LINE
8
DEFAULT_255_2_778
10
46.46195
20
31.9534521
11
46.46195
21
32.1754521
0
LINE
8
DEFAULT_255_2_778
10
46.05985
20
32.1857521
11
46.05985
21
31.9690521
0
LINE
8
DEFAULT_255_2_778
10
46.46175
20
31.9537521
11
46.46195
21
31.9534521
0
ARC
8
DEFAULT_255_2_778
10
45.4064959
20
25.9114119
40
1.1984021
50
318.0655437
51
324.7577583
0
ARC
8
DEFAULT_255_2_778
10
46.0132601
20
25.4789478
40
0.4533096
50
325.1468138
51
331.3843848
0
ARC
8
DEFAULT_255_2_778
10
46.1906967
20
25.3832264
40
0.2517041
50
331.1679819
51
359.7763204
0
ARC
8
DEFAULT_255_2_778
10
46.2508595
20
25.389542
40
0.1916785
50
357.817917
51
42.624055
0
ARC
8
DEFAULT_255_2_778
10
46.26517
20
25.3962619
40
0.1766617
50
44.1635531
51
92.5860806
0
ARC
8
DEFAULT_255_2_778
10
46.2445317
20
25.3637271
40
0.2094002
50
86.5318831
51
133.6099311
0
ARC
8
DEFAULT_255_2_778
10
46.2629486
20
25.3684013
40
0.2193447
50
137.9394577
51
183.4390085
0
ARC
8
DEFAULT_255_2_778
10
46.2234731
20
25.3678511
40
0.3152263
50
134.3292709
51
182.2921269
0
ARC
8
DEFAULT_255_2_778
10
46.237139
20
25.3373717
40
0.3467703
50
88.553645
51
132.4250713
0
ARC
8
DEFAULT_255_2_778
10
46.2569501
20
25.1391662
40
0.5449775
50
89.9948581
51
91.1626765
0
ARC
8
DEFAULT_255_2_778
10
46.2705878
20
25.3206545
40
0.3637431
50
59.3470716
51
92.140965
0
ARC
8
DEFAULT_255_2_778
10
46.3101116
20
25.4043662
40
0.2717162
50
47.9222691
51
57.5168713
0
ARC
8
DEFAULT_255_2_778
10
46.3130239
20
25.4095666
40
0.2659078
50
357.6026223
51
47.6371075
0
ARC
8
DEFAULT_255_2_778
10
46.2141767
20
25.411414
40
0.364753
50
330.4977337
51
357.962195
0
ARC
8
DEFAULT_255_2_778
10
45.7476107
20
25.6563496
40
0.891597
50
319.0286053
51
331.5637606
0
ARC
8
DEFAULT_255_2_778
10
45.2929156
20
26.0258111
40
1.4772824
50
317.2718089
51
319.7724473
0
LINE
8
DEFAULT_255_2_778
10
46.627599
20
24.7136437
11
46.627599
21
24.6030437
0
LINE
8
DEFAULT_255_2_778
10
46.627599
20
24.6030437
11
45.928899
21
24.6030437
0
LINE
8
DEFAULT_255_2_778
10
45.928899
20
24.6030437
11
45.928899
21
24.7004437
0
LINE
8
DEFAULT_255_2_778
10
45.928899
20
24.7004437
11
46.297999
21
25.1105437
0
LINE
8
DEFAULT_255_2_778
10
46.043999
20
25.3552437
11
45.908499
21
25.3552437
0
LINE
8
DEFAULT_255_2_778
10
46.378099
20
25.0234437
11
46.092399
21
24.7136437
0
LINE
8
DEFAULT_255_2_778
10
46.092399
20
24.7136437
11
46.627899
21
24.7136437
0
LINE
8
DEFAULT_255_2_778
10
46.627899
20
24.7136437
11
46.627599
21
24.7136437
0
ARC
8
DEFAULT_255_2_778
10
46.2363651
20
21.9262921
40
0.2240441
50
267.7565651
51
309.3411485
0
ARC
8
DEFAULT_255_2_778
10
46.2652398
20
21.8776549
40
0.1683388
50
312.2360072
51
2.6778708
0
ARC
8
DEFAULT_255_2_778
10
46.2333712
20
21.8984252
40
0.2004395
50
356.3084103
51
36.5573574
0
ARC
8
DEFAULT_255_2_778
10
46.2666171
20
21.897737
40
0.1753299
50
43.2241694
51
92.4710064
0
ARC
8
DEFAULT_255_2_778
10
46.2466996
20
21.7194983
40
0.3536214
50
87.9972198
51
90.0169868
0
ARC
8
DEFAULT_255_2_778
10
46.2369741
20
21.8793974
40
0.1939612
50
87.1568853
51
132.3163649
0
ARC
8
DEFAULT_255_2_778
10
46.2292545
20
21.897604
40
0.1754238
50
134.4558711
51
182.477895
0
ARC
8
DEFAULT_255_2_778
10
46.1904363
20
21.8961061
40
0.2720096
50
131.2480679
51
181.2821217
0
ARC
8
DEFAULT_255_2_778
10
46.2340007
20
21.8474062
40
0.3373487
50
87.8605101
51
131.3577218
0
ARC
8
DEFAULT_255_2_778
10
46.2600597
20
21.8205599
40
0.3642089
50
60.0835171
51
92.1187166
0
ARC
8
DEFAULT_255_2_778
10
46.3015489
20
21.909872
40
0.2662434
50
47.00934
51
58.2362767
0
ARC
8
DEFAULT_255_2_778
10
46.281709
20
21.8993696
40
0.2875481
50
357.102918
51
45.5444852
0
ARC
8
DEFAULT_255_2_778
10
46.0972695
20
21.8825791
40
0.4716254
50
0.0049405
51
0.2742167
0
ARC
8
DEFAULT_255_2_778
10
46.335036
20
21.8858796
40
0.2338815
50
323.8521676
51
359.2013873
0
ARC
8
DEFAULT_255_2_778
10
46.3004124
20
21.9038301
40
0.2724929
50
291.6839349
51
325.0988232
0
ARC
8
DEFAULT_255_2_778
10
46.3291526
20
21.3984443
40
0.2622368
50
37.5374133
51
74.0772883
0
ARC
8
DEFAULT_255_2_778
10
46.3285309
20
21.4087611
40
0.2565868
50
358.2264232
51
35.6257059
0
ARC
8
DEFAULT_255_2_778
10
46.294565
20
21.3871104
40
0.2907531
50
312.5801764
51
2.7025711
0
ARC
8
DEFAULT_255_2_778
10
46.2629108
20
21.4396409
40
0.3510642
50
267.4668636
51
310.5829005
0
ARC
8
DEFAULT_255_2_778
10
46.2322425
20
21.4521126
40
0.3635087
50
232.1384017
51
272.3889815
0
ARC
8
DEFAULT_255_2_778
10
46.2089244
20
21.4087924
40
0.3151021
50
229.2395254
51
230.6511281
0
ARC
8
DEFAULT_255_2_778
10
46.1782177
20
21.374922
40
0.2694011
50
177.9157629
51
229.4829773
0
ARC
8
DEFAULT_255_2_778
10
46.2191652
20
21.377135
40
0.1740358
50
177.502151
51
226.9196875
0
ARC
8
DEFAULT_255_2_778
10
46.2368388
20
21.4082632
40
0.2090102
50
229.2099758
51
272.8949346
0
ARC
8
DEFAULT_255_2_778
10
46.261012
20
21.405404
40
0.2063341
50
266.2159679
51
310.4729844
0
ARC
8
DEFAULT_255_2_778
10
46.2891469
20
21.3601293
40
0.1538383
50
313.4481892
51
314.7204192
0
ARC
8
DEFAULT_255_2_778
10
46.2526609
20
21.3848582
40
0.1972668
50
317.1971667
51
3.7964943
0
ARC
8
DEFAULT_255_2_778
10
46.270431
20
21.4092275
40
0.1794204
50
356.3866281
51
47.1747072
0
ARC
8
DEFAULT_255_2_778
10
46.2462206
20
21.35489
40
0.2365096
50
51.8263037
51
89.732018
0
ARC
8
DEFAULT_255_2_778
10
46.2212044
20
21.1478472
40
0.4443184
50
86.6295197
51
89.1759218
0
LINE
8
DEFAULT_255_2_778
10
46.1256948
20
21.5918198
11
46.1256948
21
21.7024198
0
LINE
8
DEFAULT_255_2_778
10
46.1256948
20
21.7024198
11
46.2275948
21
21.7024198
0
LINE
8
DEFAULT_255_2_778
10
46.0539948
20
21.8900198
11
45.9184948
21
21.8900198
0
LINE
8
DEFAULT_255_2_778
10
45.9089948
20
21.3847198
11
46.0452948
21
21.3847198
0
LINE
8
DEFAULT_255_2_778
10
46.2275948
20
21.5921198
11
46.1256948
21
21.5921198
0
LINE
8
DEFAULT_255_2_778
10
46.1256948
20
21.5921198
11
46.1256948
21
21.5918198
0
LINE
8
DEFAULT_255_2_778
10
45.1478354
20
18.6014677
11
45.4510354
21
17.7217677
0
LINE
8
DEFAULT_255_2_778
10
45.4510354
20
17.7217677
11
45.7558354
21
18.6014677
0
LINE
8
DEFAULT_255_2_778
10
45.7558354
20
18.6014677
11
45.9095354
21
18.6014677
0
LINE
8
DEFAULT_255_2_778
10
45.9095354
20
18.6014677
11
45.5140354
21
17.5349677
0
LINE
8
DEFAULT_255_2_778
10
45.5140354
20
17.5349677
11
45.3894354
21
17.5349677
0
LINE
8
DEFAULT_255_2_778
10
45.3894354
20
17.5349677
11
44.9946354
21
18.6014677
0
LINE
8
DEFAULT_255_2_778
10
44.9946354
20
18.6014677
11
45.1478354
21
18.6014677
0
LINE
8
DEFAULT_255_2_778
10
45.1478354
20
18.6014677
11
45.1478354
21
18.6014677
0
LINE
8
DEFAULT_255_2_778
10
46.4623125
20
18.6064812
11
46.4623125
21
17.5348812
0
LINE
8
DEFAULT_255_2_778
10
46.4623125
20
17.5348812
11
46.3260125
21
17.5348812
0
LINE
8
DEFAULT_255_2_778
10
46.3260125
20
17.5348812
11
46.3260125
21
18.4379812
0
LINE
8
DEFAULT_255_2_778
10
46.3260125
20
18.4379812
11
46.0527125
21
18.3376812
0
LINE
8
DEFAULT_255_2_778
10
46.0527125
20
18.3376812
11
46.0527125
21
18.4606812
0
LINE
8
DEFAULT_255_2_778
10
46.0527125
20
18.4606812
11
46.4408125
21
18.6064812
0
LINE
8
DEFAULT_255_2_778
10
46.4408125
20
18.6064812
11
46.4620125
21
18.6064812
0
LINE
8
DEFAULT_255_2_778
10
46.4620125
20
18.6064812
11
46.4623125
21
18.6064812
0
LINE
8
DEFAULT_255_2_778
10
46.5009636
20
15.1695677
11
46.5009636
21
14.4612677
0
LINE
8
DEFAULT_255_2_778
10
46.5009636
20
14.4612677
11
46.6488636
21
14.4612677
0
LINE
8
DEFAULT_255_2_778
10
46.6488636
20
14.4612677
11
46.6488636
21
14.3506677
0
LINE
8
DEFAULT_255_2_778
10
46.6488636
20
14.3506677
11
46.5009636
21
14.3506677
0
LINE
8
DEFAULT_255_2_778
10
46.5009636
20
14.3506677
11
46.5009636
21
14.1030677
0
LINE
8
DEFAULT_255_2_778
10
46.5009636
20
14.1030677
11
46.3646636
21
14.1030677
0
LINE
8
DEFAULT_255_2_778
10
46.3646636
20
14.1030677
11
46.3646636
21
14.3506677
0
LINE
8
DEFAULT_255_2_778
10
46.3646636
20
14.3506677
11
45.8791636
21
14.3506677
0
LINE
8
DEFAULT_255_2_778
10
45.8791636
20
14.3506677
11
45.8791636
21
14.4305677
0
LINE
8
DEFAULT_255_2_778
10
45.8791636
20
14.4305677
11
46.3567636
21
15.1695677
0
LINE
8
DEFAULT_255_2_778
10
46.3567636
20
15.1695677
11
46.5009636
21
15.1695677
0
LINE
8
DEFAULT_255_2_778
10
46.5009636
20
15.1695677
11
46.5009636
21
15.1695677
0
LINE
8
DEFAULT_255_2_778
10
46.3485636
20
14.9549677
11
46.0328636
21
14.4612677
0
LINE
8
DEFAULT_255_2_778
10
46.0328636
20
14.4612677
11
46.3646636
21
14.4612677
0
LINE
8
DEFAULT_255_2_778
10
46.3646636
20
14.4612677
11
46.3646636
21
14.9843677
0
LINE
8
DEFAULT_255_2_778
10
46.3646636
20
14.9843677
11
46.3485636
21
14.9549677
0
LINE
8
DEFAULT_255_2_778
10
46.3485636
20
14.9549677
11
46.3485636
21
14.9549677
0
ARC
8
DEFAULT_255_2_778
10
46.3000991
20
10.9545999
40
0.3449621
50
89.0189914
51
119.9449467
0
ARC
8
DEFAULT_255_2_778
10
46.3194036
20
11.0053137
40
0.2945027
50
42.2194959
51
92.6075709
0
ARC
8
DEFAULT_255_2_778
10
46.2621233
20
10.9711507
40
0.3601213
50
1.0860672
51
40.1204052
0
ARC
8
DEFAULT_255_2_778
10
46.0362696
20
10.9432953
40
0.586936
50
359.9625273
51
3.3875025
0
ARC
8
DEFAULT_255_2_778
10
46.2224967
20
10.9293501
40
0.400938
50
331.0484612
51
1.9383429
0
ARC
8
DEFAULT_255_2_778
10
46.317866
20
10.8865084
40
0.2968753
50
316.8074522
51
329.3734699
0
ARC
8
DEFAULT_255_2_778
10
46.3089059
20
10.9053702
40
0.3164094
50
269.3476073
51
315.4277404
0
ARC
8
DEFAULT_255_2_778
10
46.2857448
20
11.1059861
40
0.5173746
50
269.9845411
51
272.1664844
0
ARC
8
DEFAULT_255_2_778
10
46.2714013
20
10.9260506
40
0.337738
50
230.1101475
51
272.410352
0
ARC
8
DEFAULT_255_2_778
10
46.2649292
20
10.8978837
40
0.3122503
50
182.6197682
51
227.7060559
0
ARC
8
DEFAULT_255_2_778
10
46.2960773
20
10.9006019
40
0.2157421
50
184.5169186
51
225.9612303
0
ARC
8
DEFAULT_255_2_778
10
46.2755887
20
10.901091
40
0.2024129
50
230.2305473
51
272.7514403
0
ARC
8
DEFAULT_255_2_778
10
46.2940546
20
10.8815655
40
0.1828635
50
267.257555
51
319.7903905
0
ARC
8
DEFAULT_255_2_778
10
46.226246
20
10.9220581
40
0.261106
50
322.6118423
51
1.1976058
0
ARC
8
DEFAULT_255_2_778
10
46.0272322
20
10.9414244
40
0.4602731
50
358.2683031
51
0.0108305
0
ARC
8
DEFAULT_255_2_778
10
46.2407988
20
10.9534911
40
0.2469971
50
357.2199925
51
40.2894049
0
ARC
8
DEFAULT_255_2_778
10
46.2826211
20
10.9806303
40
0.1976478
50
42.1284352
51
92.3533563
0
ARC
8
DEFAULT_255_2_778
10
46.2616886
20
10.9554675
40
0.2230125
50
86.705369
51
124.5210997
0
LINE
8
DEFAULT_255_2_778
10
46.0993052
20
11.1098114
11
45.9908052
21
11.1376114
0
LINE
8
DEFAULT_255_2_778
10
45.9908052
20
11.1376114
11
46.0451052
21
11.6694114
0
LINE
8
DEFAULT_255_2_778
10
46.0451052
20
11.6694114
11
46.5914052
21
11.6694114
0
LINE
8
DEFAULT_255_2_778
10
46.5914052
20
11.6694114
11
46.5914052
21
11.5443114
0
LINE
8
DEFAULT_255_2_778
10
46.5914052
20
11.5443114
11
46.1602052
21
11.5443114
0
LINE
8
DEFAULT_255_2_778
10
46.1602052
20
11.5443114
11
46.1279052
21
11.2535114
0
LINE
8
DEFAULT_255_2_778
10
45.9530052
20
10.8836114
11
46.0810052
21
10.8836114
0
LINE
8
DEFAULT_255_2_778
10
46.1353052
20
11.1392114
11
46.0993052
21
11.1098114
0
LINE
8
DEFAULT_255_2_778
10
46.0993052
20
11.1098114
11
46.0993052
21
11.1098114
0
LINE
8
DEFAULT_255_2_778
10
46.3742125
20
29.1064812
11
46.3742125
21
28.0348812
0
LINE
8
DEFAULT_255_2_778
10
46.3742125
20
28.0348812
11
46.2379125
21
28.0348812
0
LINE
8
DEFAULT_255_2_778
10
46.2379125
20
28.0348812
11
46.2379125
21
28.9379812
0
LINE
8
DEFAULT_255_2_778
10
46.2379125
20
28.9379812
11
45.9646125
21
28.8376812
0
LINE
8
DEFAULT_255_2_778
10
45.9646125
20
28.8376812
11
45.9646125
21
28.9606812
0
LINE
8
DEFAULT_255_2_778
10
45.9646125
20
28.9606812
11
46.3527125
21
29.1064812
0
LINE
8
DEFAULT_255_2_778
10
46.3527125
20
29.1064812
11
46.3739125
21
29.1064812
0
LINE
8
DEFAULT_255_2_778
10
46.3739125
20
29.1064812
11
46.3742125
21
29.1064812
0
LINE
8
DEFAULT_255_2_778
10
52.0201417
20
3.9700527
11
48.4874417
21
3.9700527
0
LINE
8
DEFAULT_255_2_778
10
48.4874417
20
3.9700527
11
48.4874417
21
34.9699527
0
LINE
8
DEFAULT_255_2_778
10
48.4874417
20
34.9699527
11
52.0201417
21
34.9699527
0
LINE
8
DEFAULT_255_2_778
10
52.0201417
20
34.9699527
11
52.0201417
21
3.9700527
0
LINE
8
DEFAULT_255_2_778
10
49.7727979
20
21.0739875
11
49.1324979
21
21.0739875
0
LINE
8
DEFAULT_255_2_778
10
49.1324979
20
21.0739875
11
49.1324979
21
19.0234875
0
ARC
8
DEFAULT_255_2_778
10
50.8220722
20
19.0729781
40
1.6902989
50
181.6778144
51
193.0224073
0
ARC
8
DEFAULT_255_2_778
10
50.1987637
20
18.9234328
40
1.0493364
50
192.735864
51
212.3734343
0
ARC
8
DEFAULT_255_2_778
10
50.02378
20
18.8288772
40
0.8510333
50
213.3047821
51
252.9890333
0
ARC
8
DEFAULT_255_2_778
10
50.1965267
20
19.3293464
40
1.3802719
50
252.2096841
51
266.0760169
0
ARC
8
DEFAULT_255_2_778
10
50.2516814
20
19.9044155
40
1.9578299
50
265.6173773
51
270.0765722
0
ARC
8
DEFAULT_255_2_778
10
50.2670543
20
19.3965421
40
1.4500108
50
269.4959404
51
282.034673
0
ARC
8
DEFAULT_255_2_778
10
50.3915043
20
18.8416058
40
0.8813433
50
281.6440533
51
305.3820824
0
ARC
8
DEFAULT_255_2_778
10
50.4311116
20
18.7545964
40
0.787678
50
306.6979601
51
340.5293531
0
ARC
8
DEFAULT_255_2_778
10
49.9622064
20
18.9347263
40
1.2898802
50
339.928282
51
354.0999606
0
ARC
8
DEFAULT_255_2_778
10
49.2925666
20
19.0176118
40
1.9645401
50
353.7029653
51
0.1713645
0
LINE
8
DEFAULT_255_2_778
10
51.2570979
20
19.0234875
11
51.2570979
21
21.0739875
0
LINE
8
DEFAULT_255_2_778
10
51.2570979
20
21.0739875
11
50.5744979
21
21.0739875
0
LINE
8
DEFAULT_255_2_778
10
50.5744979
20
21.0739875
11
50.5744979
21
19.1768875
0
ARC
8
DEFAULT_255_2_778
10
49.2142782
20
19.1647709
40
1.3602738
50
350.71306
51
0.5103672
0
ARC
8
DEFAULT_255_2_778
10
49.9082449
20
19.0452554
40
0.6561431
50
333.0593099
51
351.2332754
0
ARC
8
DEFAULT_255_2_778
10
50.1935508
20
18.897389
40
0.3348159
50
266.8234865
51
333.4967841
0
ARC
8
DEFAULT_255_2_778
10
50.1564579
20
18.902625
40
0.3400434
50
202.2589488
51
273.1254645
0
ARC
8
DEFAULT_255_2_778
10
50.5067413
20
19.0665991
40
0.7265865
50
187.2704455
51
203.7629058
0
ARC
8
DEFAULT_255_2_778
10
51.1894885
20
19.1677929
40
1.4167197
50
179.6321892
51
187.8357007
0
LINE
8
DEFAULT_255_2_778
10
49.7727979
20
19.1768875
11
49.7727979
21
21.0739875
0
LINE
8
DEFAULT_255_2_778
10
49.7727979
20
21.0739875
11
49.7727979
21
21.0739875
0
LINE
8
DEFAULT_255_2_778
10
49.2962407
20
16.2978104
11
49.7997407
21
16.2978104
0
LINE
8
DEFAULT_255_2_778
10
49.7997407
20
16.2978104
11
49.7997407
21
13.9917104
0
LINE
8
DEFAULT_255_2_778
10
49.7997407
20
13.9917104
11
50.7080407
21
13.9917104
0
LINE
8
DEFAULT_255_2_778
10
50.7080407
20
13.9917104
11
50.7080407
21
16.2978104
0
LINE
8
DEFAULT_255_2_778
10
50.7080407
20
16.2978104
11
51.2115407
21
16.2978104
0
LINE
8
DEFAULT_255_2_778
10
51.2115407
20
16.2978104
11
51.2115407
21
17.1979104
0
LINE
8
DEFAULT_255_2_778
10
51.2115407
20
17.1979104
11
49.2962407
21
17.1979104
0
LINE
8
DEFAULT_255_2_778
10
49.2962407
20
17.1979104
11
49.2962407
21
16.2978104
0
ARC
8
DEFAULT_255_2_778
10
47.018812
20
23.3106463
40
3.6164844
50
355.5612975
51
0.1967418
0
ARC
8
DEFAULT_255_2_778
10
48.6141976
20
23.1827697
40
2.0159911
50
348.7868922
51
355.6756111
0
ARC
8
DEFAULT_255_2_778
10
49.6061276
20
22.9806246
40
1.0037022
50
337.3192593
51
349.0949683
0
ARC
8
DEFAULT_255_2_778
10
50.1272008
20
22.755836
40
0.4362954
50
313.8100178
51
338.1704597
0
ARC
8
DEFAULT_255_2_778
10
50.2554885
20
22.6295104
40
0.2563756
50
269.1253701
51
312.664342
0
ARC
8
DEFAULT_255_2_778
10
50.2314293
20
22.6626108
40
0.2901465
50
270.0279554
51
273.9814269
0
ARC
8
DEFAULT_255_2_778
10
50.2341745
20
22.6272374
40
0.2547864
50
208.3775837
51
269.4144747
0
ARC
8
DEFAULT_255_2_778
10
50.5734844
20
22.8494976
40
0.6598501
50
195.6807701
51
211.3559461
0
ARC
8
DEFAULT_255_2_778
10
51.3104589
20
23.0684021
40
1.428608
50
187.4928289
51
196.1447992
0
ARC
8
DEFAULT_255_2_778
10
52.5943947
20
23.2459504
40
2.7247469
50
182.1920992
51
187.6737594
0
ARC
8
DEFAULT_255_2_778
10
54.1268447
20
23.3184738
40
4.258872
50
179.9382393
51
182.3784827
0
ARC
8
DEFAULT_255_2_778
10
54.5808812
20
23.3353082
40
4.7129221
50
176.3842691
51
180.1488486
0
ARC
8
DEFAULT_255_2_778
10
52.6057284
20
23.4641551
40
2.7335784
50
170.9864834
51
176.4687025
0
ARC
8
DEFAULT_255_2_778
10
51.3132236
20
23.674323
40
1.424117
50
162.2983275
51
171.1908343
0
ARC
8
DEFAULT_255_2_778
10
50.5759795
20
23.915375
40
0.6485081
50
146.5958956
51
162.7817568
0
ARC
8
DEFAULT_255_2_778
10
50.2544822
20
24.1412572
40
0.2560238
50
90.6506082
51
149.1862726
0
ARC
8
DEFAULT_255_2_778
10
50.2500401
20
24.1214846
40
0.2757842
50
28.1691865
51
89.6811052
0
ARC
8
DEFAULT_255_2_778
10
49.9059214
20
23.8972982
40
0.6858808
50
15.8639053
51
31.109507
0
ARC
8
DEFAULT_255_2_778
10
49.1847406
20
23.6820998
40
1.4384534
50
7.4877285
51
16.2568526
0
ARC
8
DEFAULT_255_2_778
10
47.9514943
20
23.510921
40
2.6835057
50
2.2233315
51
7.6801046
0
ARC
8
DEFAULT_255_2_778
10
46.5201024
20
23.4426464
40
4.1164883
50
359.9401516
51
2.3999962
0
ARC
8
DEFAULT_255_2_778
10
45.6487574
20
23.4387428
40
4.987831
50
359.3426991
51
359.9954488
0
ARC
8
DEFAULT_255_2_778
10
45.2035592
20
23.4438238
40
5.4330581
50
358.7263959
51
359.342979
0
ARC
8
DEFAULT_255_2_778
10
50.2620612
20
23.0729092
40
1.2501155
50
253.999842
51
270.6102161
0
ARC
8
DEFAULT_255_2_778
10
50.1814995
20
22.7653353
40
0.9322798
50
207.5472736
51
253.5488084
0
ARC
8
DEFAULT_255_2_778
10
50.6971816
20
23.065878
40
1.5287497
50
195.4556756
51
208.5958855
0
ARC
8
DEFAULT_255_2_778
10
51.5078659
20
23.2985184
40
2.3721282
50
187.4710569
51
195.6533939
0
ARC
8
DEFAULT_255_2_778
10
52.6722093
20
23.4554812
40
3.5469986
50
181.5069566
51
187.5394856
0
ARC
8
DEFAULT_255_2_778
10
53.7037028
20
23.4962626
40
4.5792281
50
179.9824592
51
181.6776315
0
ARC
8
DEFAULT_255_2_778
10
52.0839278
20
23.5104221
40
2.9594803
50
172.9841657
51
180.2469885
0
ARC
8
DEFAULT_255_2_778
10
51.0412045
20
23.642387
40
1.9084493
50
162.7008121
51
173.0926894
0
ARC
8
DEFAULT_255_2_778
10
50.3763504
20
23.8547065
40
1.2105447
50
145.6970463
51
162.9380958
0
ARC
8
DEFAULT_255_2_778
10
50.1335687
20
24.0092772
40
0.9229242
50
101.0525545
51
145.1297366
0
ARC
8
DEFAULT_255_2_778
10
50.2643554
20
23.4755743
40
1.4720313
50
89.5710793
51
102.066358
0
ARC
8
DEFAULT_255_2_778
10
50.2885473
20
23.7124705
40
1.2351643
50
74.3357273
51
90.6110361
0
ARC
8
DEFAULT_255_2_778
10
50.3742414
20
24.0392889
40
0.8973647
50
25.593323
51
73.9698983
0
ARC
8
DEFAULT_255_2_778
10
49.8367997
20
23.7466172
40
1.5088377
50
13.7402971
51
26.8006329
0
ARC
8
DEFAULT_255_2_778
10
48.9821052
20
23.5303102
40
2.390461
50
5.407439
51
13.9106786
0
ARC
8
DEFAULT_255_2_778
10
47.767108
20
23.4080111
40
3.6115837
50
359.8263383
51
5.5225591
0
ARC
8
DEFAULT_255_2_778
10
47.6666182
20
23.3856277
40
3.7120744
50
354.4731779
51
0.176528
0
ARC
8
DEFAULT_255_2_778
10
48.914286
20
23.2607347
40
2.4581815
50
346.356449
51
354.5698457
0
ARC
8
DEFAULT_255_2_778
10
49.7879132
20
23.0439528
40
1.5580785
50
333.8968201
51
346.5253421
0
ARC
8
DEFAULT_255_2_778
10
50.3005816
20
22.7860398
40
0.9842402
50
310.2366182
51
334.2483275
0
ARC
8
DEFAULT_255_2_778
10
50.3588923
20
22.7469428
40
0.9169309
50
278.3017209
51
309.0331103
0
ARC
8
DEFAULT_255_2_778
10
50.2805582
20
23.1555497
40
1.3326952
50
269.7771626
51
279.0978026
0
LINE
8
DEFAULT_255_2_778
10
50.635275
20
23.3230645
11
50.635275
21
23.3230645
0
LINE
8
DEFAULT_255_2_778
10
50.275375
20
21.8228645
11
50.275375
21
21.8228645
0
ENDSEC
0
EOF