0
SECTION
2
HEADER
9
$MEASUREMENT
70
1
0
ENDSEC
0
SECTION
2
TABLES
0
TABLE
2
LTYPE
0
LTYPE
72
65
70
64
2
CONTINUOUS
3
______
73
0
40
0
0
ENDTAB
0
TABLE
2
LAYER
0
LAYER
2
DEFAULT_255_2_778
70
0
62
255
6
CONTINUOUS
0
ENDTAB
0
ENDSEC
0
SECTION
2
ENTITIES
0
ARC
8
DEFAULT_255_2_778
10
8.7318503
20
8.2002543
40
3.7139349
50
253.4439315
51
270.0487121
0
ARC
8
DEFAULT_255_2_778
10
8.7413958
20
8.2104083
40
3.7263932
50
218.3650874
51
253.3477361
0
ARC
8
DEFAULT_255_2_778
10
8.7216744
20
8.2015406
40
3.7054301
50
192.920861
51
218.4468478
0
ARC
8
DEFAULT_255_2_778
10
8.7405759
20
8.2024992
40
3.7240688
50
179.9658207
51
192.8702101
0
ARC
8
DEFAULT_255_2_778
10
8.7304136
20
8.2078803
40
3.7139071
50
163.4438368
51
180.0487436
0
ARC
8
DEFAULT_255_2_778
10
8.7406385
20
8.1982909
40
3.7264459
50
128.2593257
51
163.347307
0
ARC
8
DEFAULT_255_2_778
10
8.7317064
20
8.2181052
40
3.7053602
50
102.8837307
51
128.3405951
0
ARC
8
DEFAULT_255_2_778
10
8.7327942
20
8.1987196
40
3.7245018
50
89.9659458
51
102.8335486
0
ARC
8
DEFAULT_255_2_778
10
8.7368572
20
8.2025368
40
3.7206844
50
64.8026866
51
90.0284796
0
ARC
8
DEFAULT_255_2_778
10
8.7342224
20
8.1995485
40
3.7245104
50
34.8622681
51
64.7855811
0
ARC
8
DEFAULT_255_2_778
10
8.7038917
20
8.1761911
40
3.7627492
50
32.251298
51
34.8901071
0
ARC
8
DEFAULT_255_2_778
10
11.4673054
20
9.9136525
40
0.4985465
50
3.1435495
51
32.8549177
0
ARC
8
DEFAULT_255_2_778
10
11.4657014
20
9.9134223
40
0.5001606
50
359.9993963
51
3.1597982
0
ARC
8
DEFAULT_255_2_778
10
11.4858724
20
9.9095579
40
0.4800052
50
303.0720305
51
0.460654
0
ARC
8
DEFAULT_255_2_778
10
11.4774282
20
9.926294
40
0.4986419
50
273.1327426
51
302.8357135
0
ARC
8
DEFAULT_255_2_778
10
11.4771812
20
9.9280964
40
0.5004551
50
270.0002116
51
273.1497041
0
ARC
8
DEFAULT_255_2_778
10
11.473309
20
9.9077184
40
0.4800926
50
213.0740871
51
270.4623503
0
ARC
8
DEFAULT_255_2_778
10
11.091639
20
9.6666354
40
0.029378
50
223.1283541
51
225.3909255
0
ARC
8
DEFAULT_255_2_778
10
11.1133805
20
9.6838043
40
0.0570305
50
209.7320987
51
220.7838519
0
ARC
8
DEFAULT_255_2_778
10
11.0563905
20
9.6519389
40
0.0082817
50
25.6222411
51
89.8801436
0
ARC
8
DEFAULT_255_2_778
10
8.7459986
20
8.2165615
40
2.724361
50
31.9992043
51
89.7880486
0
ARC
8
DEFAULT_255_2_778
10
8.7561073
20
8.2589991
40
2.6819047
50
90.0006536
51
90.4507702
0
ARC
8
DEFAULT_255_2_778
10
8.7348428
20
8.199592
40
2.7412287
50
89.9965504
51
109.938826
0
ARC
8
DEFAULT_255_2_778
10
8.7414666
20
8.191704
40
2.7509052
50
110.0124914
51
169.0887682
0
ARC
8
DEFAULT_255_2_778
10
8.752387
20
8.195693
40
2.7608796
50
169.2129527
51
179.9662201
0
ARC
8
DEFAULT_255_2_778
10
8.7324739
20
8.1971616
40
2.7409661
50
179.9966741
51
199.9397938
0
ARC
8
DEFAULT_255_2_778
10
8.7406196
20
8.203899
40
2.7509236
50
200.0138478
51
259.0889479
0
ARC
8
DEFAULT_255_2_778
10
8.7366367
20
8.2148224
40
2.7609021
50
259.2130188
51
269.9661979
0
ARC
8
DEFAULT_255_2_778
10
8.7415697
20
7.2944673
40
1.8405582
50
269.7957323
51
280.5196582
0
ARC
8
DEFAULT_255_2_778
10
8.7174157
20
7.2720456
40
1.823136
50
281.3946723
51
309.4077232
0
ARC
8
DEFAULT_255_2_778
10
7.7362413
20
8.5851319
40
3.4613963
50
308.1580494
51
313.3848787
0
ARC
8
DEFAULT_255_2_778
10
6.1119255
20
10.3159874
40
5.8350476
50
313.3020433
51
316.0065395
0
ARC
8
DEFAULT_255_2_778
10
2.2040891
20
14.0957594
40
11.2717606
50
315.9813792
51
317.3973365
0
ARC
8
DEFAULT_255_2_778
10
-17.6303247
20
32.3483051
40
38.226526
50
317.383915
51
317.8262168
0
ARC
8
DEFAULT_255_2_778
10
198.5956893
20
-164.9838268
40
254.508564
50
137.57512
51
137.5842018
0
ARC
8
DEFAULT_255_2_778
10
23.5234626
20
-4.8370259
40
17.2384341
50
135.3984593
51
137.9294578
0
ARC
8
DEFAULT_255_2_778
10
17.8959178
20
0.6455684
40
9.3819787
50
133.4653401
51
135.106182
0
ARC
8
DEFAULT_255_2_778
10
11.7757522
20
7.0958409
40
0.4902962
50
91.968015
51
132.9142798
0
ARC
8
DEFAULT_255_2_778
10
11.7764295
20
7.0902559
40
0.4959013
50
90.418099
51
92.0240645
0
ARC
8
DEFAULT_255_2_778
10
11.7763844
20
7.0950183
40
0.4911387
50
89.9968372
51
90.4168843
0
ARC
8
DEFAULT_255_2_778
10
11.7770739
20
7.0952566
40
0.4909009
50
43.859157
51
90.0773155
0
ARC
8
DEFAULT_255_2_778
10
11.7671504
20
7.0850454
40
0.5051318
50
43.5415381
51
43.9143743
0
ARC
8
DEFAULT_255_2_778
10
11.7738611
20
7.0991573
40
0.490578
50
1.9852423
51
42.8867301
0
ARC
8
DEFAULT_255_2_778
10
11.7691819
20
7.0985341
40
0.4952763
50
0.4315306
51
2.0385488
0
ARC
8
DEFAULT_255_2_778
10
11.7669201
20
7.0985052
40
0.4975383
50
0.0030731
51
0.4328922
0
ARC
8
DEFAULT_255_2_778
10
11.773555
20
7.0978692
40
0.4909038
50
313.8570827
51
0.0773445
0
ARC
8
DEFAULT_255_2_778
10
11.7724477
20
7.0982181
40
0.4919227
50
313.5390212
51
313.9219211
0
ARC
8
DEFAULT_255_2_778
10
17.1834198
20
1.3796872
40
7.38083
50
133.4089316
51
136.0636382
0
ARC
8
DEFAULT_255_2_778
10
38.4779368
20
-18.8059782
40
36.7220301
50
136.4372813
51
137.4308376
0
ARC
8
DEFAULT_255_2_778
10
-0.2142658
20
16.9258065
40
15.9457258
50
316.8537757
51
316.9256778
0
ARC
8
DEFAULT_255_2_778
10
-66.2347388
20
77.7986932
40
105.7462248
50
317.1534046
51
317.2522458
0
ARC
8
DEFAULT_255_2_778
10
5.9356754
20
10.6468162
40
7.1684077
50
309.2477813
51
318.3972511
0
ARC
8
DEFAULT_255_2_778
10
8.6834063
20
7.3255221
40
2.8580426
50
288.717137
51
308.714737
0
ARC
8
DEFAULT_255_2_778
10
8.7851753
20
7.1103901
40
2.6217735
50
276.6680925
51
288.1193849
0
ARC
8
DEFAULT_255_2_778
10
8.7389826
20
7.4895651
40
3.0037477
50
269.9127366
51
276.7034052
0
LINE
8
DEFAULT_255_2_778
10
8.7344078
20
4.4858207
11
8.7350078
21
4.4863207
0
ARC
8
DEFAULT_255_2_778
10
11.9731018
20
5.1145819
40
0.4875283
50
179.9915758
51
270.0084183
0
ARC
8
DEFAULT_255_2_778
10
9.5691582
20
7.7021026
40
0.4920925
50
179.9951878
51
268.6160856
0
ARC
8
DEFAULT_255_2_778
10
9.5967198
20
7.7021061
40
0.5196542
50
179.6860397
51
179.9958275
0
ARC
8
DEFAULT_255_2_778
10
9.5716118
20
7.6906152
40
0.4947462
50
91.660742
51
178.339258
0
ARC
8
DEFAULT_255_2_778
10
11.9729596
20
7.6975397
40
0.4876139
50
359.9898827
51
89.9983738
0
ARC
8
DEFAULT_255_2_778
10
11.9729812
20
5.1140459
40
0.4875922
50
269.9990839
51
0.0009044
0
ARC
8
DEFAULT_255_2_778
10
9.5100847
20
4.5723951
40
4.7698428
50
269.9856347
51
270.0431076
0
ARC
8
DEFAULT_255_2_778
10
9.5056307
20
7.4825899
40
7.6800384
50
259.1305586
51
270.024307
0
ARC
8
DEFAULT_255_2_778
10
9.4958747
20
7.4179715
40
7.6147402
50
244.3892937
51
259.1109637
0
ARC
8
DEFAULT_255_2_778
10
9.5496455
20
7.521135
40
7.7310115
50
200.8151884
51
244.3604268
0
ARC
8
DEFAULT_255_2_778
10
9.4463348
20
7.4705952
40
7.6164915
50
187.5233022
51
200.7359813
0
ARC
8
DEFAULT_255_2_778
10
9.5421169
20
7.4827746
40
7.7130436
50
179.9867843
51
187.5198392
0
ARC
8
DEFAULT_255_2_778
10
9.5105216
20
7.4879335
40
7.6814489
50
169.1299433
51
180.0252103
0
ARC
8
DEFAULT_255_2_778
10
9.4389544
20
7.4990522
40
7.6090696
50
154.3779545
51
169.1105382
0
ARC
8
DEFAULT_255_2_778
10
9.5432346
20
7.443673
40
7.7270448
50
111.0293603
51
154.3420704
0
ARC
8
DEFAULT_255_2_778
10
9.4989329
20
7.5337422
40
7.6270824
50
97.6037792
51
110.9615256
0
ARC
8
DEFAULT_255_2_778
10
9.5118262
20
7.434007
40
7.7276467
50
89.9863039
51
97.6006856
0
ARC
8
DEFAULT_255_2_778
10
9.5169823
20
7.4611413
40
7.700513
50
79.1545705
51
90.0246194
0
ARC
8
DEFAULT_255_2_778
10
9.5281354
20
7.532483
40
7.6283473
50
64.4356577
51
79.1360209
0
ARC
8
DEFAULT_255_2_778
10
9.4843544
20
7.4465722
40
7.7247406
50
21.0946482
51
64.4176912
0
ARC
8
DEFAULT_255_2_778
10
9.5902376
20
7.4995541
40
7.6068926
50
7.6208622
51
21.0093622
0
ARC
8
DEFAULT_255_2_778
10
9.4888654
20
7.4864416
40
7.7091083
50
359.9859682
51
7.6175395
0
ARC
8
DEFAULT_255_2_778
10
9.5118099
20
7.4813065
40
7.6861642
50
349.133315
51
0.0242052
0
ARC
8
DEFAULT_255_2_778
10
9.5761492
20
7.4715995
40
7.621149
50
334.3963588
51
349.1137943
0
ARC
8
DEFAULT_255_2_778
10
9.4751724
20
7.523919
40
7.7348207
50
290.8261925
51
334.3700945
0
ARC
8
DEFAULT_255_2_778
10
9.5275107
20
7.4170277
40
7.616313
50
277.5267382
51
290.7440799
0
ARC
8
DEFAULT_255_2_778
10
9.5154546
20
7.5119647
40
7.7120112
50
269.9867671
51
277.5231469
0
ARC
8
DEFAULT_255_2_778
10
9.5101836
20
7.4702259
40
7.1919286
50
89.972198
51
101.3835897
0
ARC
8
DEFAULT_255_2_778
10
9.4990209
20
7.5391494
40
7.1221582
50
101.4049945
51
116.9184764
0
ARC
8
DEFAULT_255_2_778
10
9.5395757
20
7.4620381
40
7.2092746
50
116.9284169
51
160.3690366
0
ARC
8
DEFAULT_255_2_778
10
9.4624812
20
7.500957
40
7.1235941
50
160.4555484
51
173.7701003
0
ARC
8
DEFAULT_255_2_778
10
9.5718949
20
7.4884243
40
7.2337217
50
173.7654644
51
180.0100645
0
ARC
8
DEFAULT_255_2_778
10
9.5199122
20
7.4838697
40
7.1817395
50
179.9738007
51
191.4039733
0
ARC
8
DEFAULT_255_2_778
10
9.4651613
20
7.4757103
40
7.1264568
50
191.4267047
51
206.9476546
0
ARC
8
DEFAULT_255_2_778
10
9.5539627
20
7.5221561
40
7.2266645
50
206.9568522
51
250.4650863
0
ARC
8
DEFAULT_255_2_778
10
9.5082135
20
7.4281754
40
7.1228055
50
250.5591238
51
263.8743599
0
ARC
8
DEFAULT_255_2_778
10
9.5193009
20
7.5274086
40
7.222655
50
263.8709091
51
270.0093014
0
ARC
8
DEFAULT_255_2_778
10
9.5237735
20
7.4916329
40
7.18688
50
269.9736909
51
281.3956776
0
ARC
8
DEFAULT_255_2_778
10
9.5324177
20
7.4346901
40
7.1293525
50
281.4179962
51
296.9318737
0
ARC
8
DEFAULT_255_2_778
10
9.4893601
20
7.5179757
40
7.2231075
50
296.937151
51
340.5734764
0
ARC
8
DEFAULT_255_2_778
10
9.5830848
20
7.4720723
40
7.1194615
50
340.6709945
51
353.9112733
0
ARC
8
DEFAULT_255_2_778
10
9.4815995
20
7.483383
40
7.221574
50
353.9074453
51
0.0092876
0
ARC
8
DEFAULT_255_2_778
10
9.5410917
20
7.4879156
40
7.1620825
50
359.9731047
51
11.4322734
0
ARC
8
DEFAULT_255_2_778
10
9.5955626
20
7.4959083
40
7.1071088
50
11.4561562
51
27.0132045
0
ARC
8
DEFAULT_255_2_778
10
9.4866667
20
7.4360874
40
7.2312959
50
27.0435863
51
69.6661352
0
ARC
8
DEFAULT_255_2_778
10
9.5260698
20
7.5180082
40
7.1407929
50
69.7341847
51
83.2887878
0
ARC
8
DEFAULT_255_2_778
10
9.5150161
20
7.424722
40
7.2347316
50
83.2881855
51
90.0106335
0
LINE
8
DEFAULT_255_2_778
10
11.4855734
20
5.1146536
11
11.4855734
21
7.2101536
0
LINE
8
DEFAULT_255_2_778
10
11.4855734
20
7.2101536
11
9.5572734
21
7.2101536
0
LINE
8
DEFAULT_255_2_778
10
9.5572734
20
8.1851536
11
11.9729734
21
8.1851536
0
LINE
8
DEFAULT_255_2_778
10
12.4605734
20
7.6974536
11
12.4605734
21
5.1140536
0
LINE
8
DEFAULT_255_2_778
10
11.9729734
20
4.6264536
11
11.9731734
21
4.6270536
0
LINE
8
DEFAULT_255_2_778
10
9.5136734
20
-0.2000464
11
9.5136734
21
-0.1974464
0
LINE
8
DEFAULT_255_2_778
10
9.5136734
20
14.6594536
11
9.5136734
21
14.6621536
0
ARC
8
DEFAULT_255_2_778
10
7.9382738
20
7.4809032
40
7.6809503
50
259.1295898
51
270.0251573
0
ARC
8
DEFAULT_255_2_778
10
7.9272467
20
7.4097944
40
7.6090384
50
244.3777426
51
259.1101545
0
ARC
8
DEFAULT_255_2_778
10
7.9826435
20
7.5142132
40
7.7271463
50
200.9044285
51
244.3421892
0
ARC
8
DEFAULT_255_2_778
10
7.8923628
20
7.4698776
40
7.6269942
50
187.5573261
51
200.8352841
0
ARC
8
DEFAULT_255_2_778
10
7.9922423
20
7.4827287
40
7.7276961
50
179.9864694
51
187.5543869
0
ARC
8
DEFAULT_255_2_778
10
7.9604121
20
7.4879912
40
7.6958665
50
169.1509925
51
180.025593
0
ARC
8
DEFAULT_255_2_778
10
7.8817953
20
7.5005993
40
7.6162822
50
154.7263176
51
169.1328272
0
ARC
8
DEFAULT_255_2_778
10
7.9715184
20
7.453738
40
7.717425
50
111.4155451
51
154.6961084
0
ARC
8
DEFAULT_255_2_778
10
7.9256411
20
7.5450122
40
7.6157073
50
98.0783048
51
111.3449536
0
ARC
8
DEFAULT_255_2_778
10
7.9395306
20
7.4424911
40
7.719163
50
89.9842956
51
98.0734416
0
ARC
8
DEFAULT_255_2_778
10
7.9449461
20
7.4612137
40
7.7004406
50
79.1545196
51
90.0245518
0
ARC
8
DEFAULT_255_2_778
10
7.9559976
20
7.5320356
40
7.6288046
50
64.4362653
51
79.1359555
0
ARC
8
DEFAULT_255_2_778
10
7.9122636
20
7.4460968
40
7.7252028
50
21.0971047
51
64.4186959
0
ARC
8
DEFAULT_255_2_778
10
8.0190226
20
7.499504
40
7.6063842
50
7.6217549
51
21.0112368
0
ARC
8
DEFAULT_255_2_778
10
7.9179505
20
7.4864389
40
7.7082962
50
359.9859871
51
7.6183675
0
ARC
8
DEFAULT_255_2_778
10
7.9401049
20
7.4813076
40
7.6861421
50
349.1332757
51
0.0241975
0
ARC
8
DEFAULT_255_2_778
10
8.0045344
20
7.4715853
40
7.6210357
50
334.3960688
51
349.1137386
0
ARC
8
DEFAULT_255_2_778
10
7.9034694
20
7.52398
40
7.7348194
50
290.8248995
51
334.3695896
0
ARC
8
DEFAULT_255_2_778
10
7.9555335
20
7.417685
40
7.6169669
50
277.5262195
51
290.7431072
0
ARC
8
DEFAULT_255_2_778
10
7.9434301
20
7.5129473
40
7.7129938
50
269.9867498
51
277.5226666
0
ARC
8
DEFAULT_255_2_778
10
7.9382358
20
7.4668531
40
7.1926013
50
89.9728319
51
101.2046837
0
ARC
8
DEFAULT_255_2_778
10
7.9267551
20
7.5379248
40
7.1206538
50
101.2251888
51
116.6312445
0
ARC
8
DEFAULT_255_2_778
10
7.9675952
20
7.4600737
40
7.2085521
50
116.6440481
51
160.5179541
0
ARC
8
DEFAULT_255_2_778
10
7.8921354
20
7.4982513
40
7.1246884
50
160.6050076
51
173.8951826
0
ARC
8
DEFAULT_255_2_778
10
8.0023689
20
7.4857832
40
7.2356227
50
173.8898437
51
180.0097368
0
ARC
8
DEFAULT_255_2_778
10
7.9629727
20
7.4812031
40
7.1962271
50
179.9733236
51
191.3801671
0
ARC
8
DEFAULT_255_2_778
10
7.9009898
20
7.4714613
40
7.133541
50
191.4016929
51
206.9038794
0
ARC
8
DEFAULT_255_2_778
10
7.9743472
20
7.5086224
40
7.2157739
50
206.903444
51
250.57172
0
ARC
8
DEFAULT_255_2_778
10
7.9285962
20
7.4165615
40
7.113748
50
250.6725909
51
263.9141187
0
ARC
8
DEFAULT_255_2_778
10
7.9404468
20
7.522399
40
7.2202455
50
263.909651
51
270.009519
0
ARC
8
DEFAULT_255_2_778
10
7.9449354
20
7.4839162
40
7.1817633
50
269.9737604
51
281.4041247
0
ARC
8
DEFAULT_255_2_778
10
7.9531171
20
7.4290594
40
7.1263724
50
281.42685
51
296.9481487
0
ARC
8
DEFAULT_255_2_778
10
7.9066002
20
7.5179437
40
7.2266863
50
296.9575439
51
340.4658855
0
ARC
8
DEFAULT_255_2_778
10
8.0003806
20
7.4722936
40
7.1230493
50
340.5597188
51
353.874561
0
ARC
8
DEFAULT_255_2_778
10
7.901082
20
7.4833853
40
7.2229645
50
353.8711291
51
0.0092675
0
ARC
8
DEFAULT_255_2_778
10
7.9472124
20
7.4879849
40
7.1768348
50
359.9726066
51
11.4078934
0
ARC
8
DEFAULT_255_2_778
10
8.0092457
20
7.4976349
40
7.1141189
50
11.4305277
51
26.9688221
0
ARC
8
DEFAULT_255_2_778
10
7.9162375
20
7.4474193
40
7.2197863
50
26.9892576
51
70.1439946
0
ARC
8
DEFAULT_255_2_778
10
7.9547896
20
7.5256793
40
7.1330908
50
70.2217363
51
83.6129642
0
ARC
8
DEFAULT_255_2_778
10
7.9429312
20
7.4232552
40
7.2361984
50
83.6098707
51
90.0101733
0
LINE
8
DEFAULT_255_2_778
10
7.9416464
20
-0.2000464
11
7.9416464
21
-0.2000464
0
LINE
8
DEFAULT_255_2_778
10
7.9416464
20
14.6594536
11
7.9416464
21
14.6594536
0
ARC
8
DEFAULT_255_2_778
10
8.7755872
20
8.6575369
40
7.685984
50
259.133186
51
270.0242475
0
ARC
8
DEFAULT_255_2_778
10
8.7658233
20
8.5929073
40
7.620673
50
244.3956406
51
259.1136713
0
ARC
8
DEFAULT_255_2_778
10
8.818252
20
8.6939956
40
7.7344924
50
200.8242717
51
244.3690139
0
ARC
8
DEFAULT_255_2_778
10
8.7120277
20
8.6419828
40
7.6167243
50
187.526075
51
200.7426385
0
ARC
8
DEFAULT_255_2_778
10
8.8071986
20
8.6540727
40
7.7126589
50
179.9867695
51
187.5225128
0
ARC
8
DEFAULT_255_2_778
10
8.7768073
20
8.6592288
40
7.6822682
50
169.1314108
51
180.0251728
0
ARC
8
DEFAULT_255_2_778
10
8.7053627
20
8.6703309
40
7.6100122
50
154.3814299
51
169.1120727
0
ARC
8
DEFAULT_255_2_778
10
8.8086346
20
8.6155921
40
7.726801
50
111.0325677
51
154.3465411
0
ARC
8
DEFAULT_255_2_778
10
8.7640246
20
8.7061266
40
7.6262931
50
97.604432
51
110.9638605
0
ARC
8
DEFAULT_255_2_778
10
8.77699
20
8.6058798
40
7.7273741
50
89.9862837
51
97.6013577
0
ARC
8
DEFAULT_255_2_778
10
8.7821043
20
8.6469708
40
7.6862835
50
79.1333745
51
90.0243341
0
ARC
8
DEFAULT_255_2_778
10
8.792032
20
8.7124425
40
7.6201148
50
64.3948441
51
79.1138759
0
ARC
8
DEFAULT_255_2_778
10
8.7395361
20
8.6114215
40
7.7339028
50
20.8199937
51
64.3675623
0
ARC
8
DEFAULT_255_2_778
10
8.8440499
20
8.6626325
40
7.618019
50
7.5244779
51
20.7393724
0
ARC
8
DEFAULT_255_2_778
10
8.7481801
20
8.6504399
40
7.7146599
50
359.9867336
51
7.5210134
0
ARC
8
DEFAULT_255_2_778
10
8.7807773
20
8.6452697
40
7.6820633
50
349.1308538
51
0.0252385
0
ARC
8
DEFAULT_255_2_778
10
8.8525241
20
8.6341105
40
7.6094998
50
334.3798795
51
349.1115025
0
ARC
8
DEFAULT_255_2_778
10
8.7489685
20
8.6890492
40
7.7266309
50
291.0314024
51
334.3445867
0
ARC
8
DEFAULT_255_2_778
10
8.7935724
20
8.5984085
40
7.6260265
50
277.6043413
51
290.9630068
0
ARC
8
DEFAULT_255_2_778
10
8.7806872
20
8.6980928
40
7.7265392
50
269.9863012
51
277.6012302
0
ARC
8
DEFAULT_255_2_778
10
8.7754124
20
8.6299512
40
7.2011033
50
89.9727293
51
101.3725263
0
ARC
8
DEFAULT_255_2_778
10
8.7644076
20
8.6978672
40
7.1323511
50
101.3934398
51
116.898411
0
ARC
8
DEFAULT_255_2_778
10
8.8021346
20
8.6255161
40
7.2139428
50
116.9056619
51
159.6199007
0
ARC
8
DEFAULT_255_2_778
10
8.7266452
20
8.6644591
40
7.1296244
50
159.7020029
51
172.9693644
0
ARC
8
DEFAULT_255_2_778
10
8.839872
20
8.6503038
40
7.2437324
50
172.967862
51
180.0130521
0
ARC
8
DEFAULT_255_2_778
10
8.8032397
20
8.6450549
40
7.2071007
50
179.9713904
51
191.2056549
0
ARC
8
DEFAULT_255_2_778
10
8.722188
20
8.6315209
40
7.1249644
50
191.225557
51
206.1851118
0
ARC
8
DEFAULT_255_2_778
10
8.8011004
20
8.673713
40
7.2143974
50
206.2092559
51
250.173677
0
ARC
8
DEFAULT_255_2_778
10
8.7651193
20
8.6021717
40
7.1348993
50
250.2506372
51
263.6254584
0
ARC
8
DEFAULT_255_2_778
10
8.7775334
20
8.7088576
40
7.242304
50
263.6215634
51
270.0103357
0
ARC
8
DEFAULT_255_2_778
10
8.782142
20
8.6479365
40
7.1813837
50
269.9736542
51
281.4048872
0
ARC
8
DEFAULT_255_2_778
10
8.7904476
20
8.5924565
40
7.1253574
50
281.4276362
51
296.9507258
0
ARC
8
DEFAULT_255_2_778
10
8.7436444
20
8.6817133
40
7.2261329
50
296.9607711
51
340.5309232
0
ARC
8
DEFAULT_255_2_778
10
8.8367461
20
8.6364635
40
7.1232825
50
340.6244834
51
353.8951896
0
ARC
8
DEFAULT_255_2_778
10
8.7377023
20
8.6474948
40
7.2229376
50
353.8917334
51
0.0091922
0
ARC
8
DEFAULT_255_2_778
10
8.7806238
20
8.6519557
40
7.1800168
50
359.9736498
51
11.4946272
0
ARC
8
DEFAULT_255_2_778
10
8.8332329
20
8.659716
40
7.1269169
50
11.5177732
51
27.0176079
0
ARC
8
DEFAULT_255_2_778
10
8.7443203
20
8.6132791
40
7.2272208
50
27.0253712
51
70.4810886
0
ARC
8
DEFAULT_255_2_778
10
8.7909714
20
8.7093747
40
7.1210706
50
70.576537
51
83.879431
0
ARC
8
DEFAULT_255_2_778
10
8.7800022
20
8.6109794
40
7.2200744
50
83.8761322
51
90.0092236
0
LINE
8
DEFAULT_255_2_778
10
8.7788399
20
0.9715536
11
8.7788399
21
0.9715536
0
LINE
8
DEFAULT_255_2_778
10
8.7788399
20
15.8310536
11
8.7788399
21
15.8310536
0
ENDSEC
0
EOF