0
SECTION
2
HEADER
9
$MEASUREMENT
70
1
0
ENDSEC
0
SECTION
2
TABLES
0
TABLE
2
LTYPE
0
LTYPE
72
65
70
64
2
CONTINUOUS
3
______
73
0
40
0
0
ENDTAB
0
TABLE
2
LAYER
0
LAYER
2
DEFAULT_255_2_778
70
0
62
255
6
CONTINUOUS
0
ENDTAB
0
ENDSEC
0
SECTION
2
ENTITIES
0
ARC
8
DEFAULT_255_2_778
10
6.4267111
20
3.7342929
40
0.939558
50
89.7608026
51
124.616161
0
ARC
8
DEFAULT_255_2_778
10
6.3965692
20
3.7725725
40
0.8909372
50
124.4193474
51
179.8925819
0
ARC
8
DEFAULT_255_2_778
10
6.4102151
20
0.7434142
40
0.9045999
50
180.3655524
51
260.0688654
0
ARC
8
DEFAULT_255_2_778
10
6.4299858
20
0.8023281
40
0.9660857
50
259.5164735
51
270.0384168
0
ARC
8
DEFAULT_255_2_778
10
9.4167119
20
0.7807432
40
0.9445048
50
269.8253954
51
307.8770357
0
ARC
8
DEFAULT_255_2_778
10
9.4541817
20
0.7403846
40
0.8896562
50
307.5680866
51
359.8234229
0
ARC
8
DEFAULT_255_2_778
10
9.4333943
20
3.7607685
40
0.910536
50
0.8353183
51
81.5730847
0
ARC
8
DEFAULT_255_2_778
10
9.4141856
20
3.7101694
40
0.9634734
50
80.884067
51
90.0209362
0
ARC
8
DEFAULT_255_2_778
10
8.7816393
20
1.3979492
40
0.3528218
50
269.4631682
51
359.2844146
0
ARC
8
DEFAULT_255_2_778
10
7.0680042
20
1.3983228
40
0.353203
50
180.7754208
51
270.6536435
0
ARC
8
DEFAULT_255_2_778
10
7.0662242
20
3.1125744
40
0.3514165
50
89.0527776
51
179.3040486
0
ARC
8
DEFAULT_255_2_778
10
8.7828088
20
3.1126362
40
0.3513432
50
0.58816
51
90.8276761
0
ARC
8
DEFAULT_255_2_778
10
7.2331793
20
11.7974567
40
0.9395944
50
89.7588707
51
124.6154936
0
ARC
8
DEFAULT_255_2_778
10
7.2030453
20
11.8358149
40
0.8909133
50
124.4219296
51
179.8953073
0
ARC
8
DEFAULT_255_2_778
10
7.2166354
20
8.8065431
40
0.9045197
50
180.3610815
51
260.073102
0
ARC
8
DEFAULT_255_2_778
10
7.2364848
20
8.865741
40
0.9662984
50
259.5188685
51
270.0384685
0
ARC
8
DEFAULT_255_2_778
10
10.2231179
20
8.8441593
40
0.9447209
50
269.8250685
51
307.8694135
0
ARC
8
DEFAULT_255_2_778
10
10.2607574
20
8.803562
40
0.8895803
50
307.560783
51
359.8248638
0
ARC
8
DEFAULT_255_2_778
10
10.239895
20
11.8241582
40
0.9105355
50
0.8359677
51
81.5777364
0
ARC
8
DEFAULT_255_2_778
10
10.2205871
20
11.7732424
40
0.9638003
50
80.8856179
51
90.021015
0
ARC
8
DEFAULT_255_2_778
10
9.5875821
20
9.4613041
40
0.3527773
50
269.4561528
51
359.3078886
0
ARC
8
DEFAULT_255_2_778
10
7.8739879
20
9.4618072
40
0.3532865
50
180.77272
51
270.6399141
0
ARC
8
DEFAULT_255_2_778
10
7.8721867
20
11.1762099
40
0.3514798
50
89.0631454
51
179.2936693
0
ARC
8
DEFAULT_255_2_778
10
9.5887087
20
11.1763361
40
0.3513434
50
0.5881818
51
90.8276624
0
ARC
8
DEFAULT_255_2_778
10
15.1298084
20
3.1130992
40
0.351097
50
89.000382
51
179.3564327
0
ARC
8
DEFAULT_255_2_778
10
12.7632723
20
3.0694879
40
0.3946549
50
90.0056185
51
92.5882461
0
ARC
8
DEFAULT_255_2_778
10
12.7579218
20
3.0499041
40
0.414024
50
91.7261412
51
158.9868065
0
ARC
8
DEFAULT_255_2_778
10
12.6324465
20
3.1200433
40
0.272513
50
163.2971023
51
179.9580535
0
ARC
8
DEFAULT_255_2_778
10
12.0558525
20
3.7655811
40
0.9050928
50
99.9567553
51
179.2680804
0
ARC
8
DEFAULT_255_2_778
10
12.081059
20
3.7002952
40
0.9738478
50
89.9661975
51
100.75332
0
ARC
8
DEFAULT_255_2_778
10
1.1854233
20
0.7751274
40
0.9391936
50
235.0533487
51
270.2507484
0
ARC
8
DEFAULT_255_2_778
10
1.1564718
20
0.7377057
40
0.8919385
50
180.0361576
51
235.2008033
0
ARC
8
DEFAULT_255_2_778
10
1.1689909
20
3.7666494
40
0.9044875
50
99.3738464
51
179.5316528
0
ARC
8
DEFAULT_255_2_778
10
1.188953
20
3.7069773
40
0.9666656
50
89.9655915
51
99.9651787
0
ARC
8
DEFAULT_255_2_778
10
1.8255002
20
3.1122908
40
0.3518924
50
89.1315761
51
179.3076626
0
ARC
8
DEFAULT_255_2_778
10
1.8265785
20
1.3980981
40
0.3529811
50
180.8206055
51
270.690706
0
ARC
8
DEFAULT_255_2_778
10
16.2871109
20
6.7966294
40
0.9107976
50
278.4440606
51
359.2648043
0
ARC
8
DEFAULT_255_2_778
10
16.2681981
20
6.8476696
40
0.9641269
50
269.9783348
51
279.1104294
0
ARC
8
DEFAULT_255_2_778
10
15.6373526
20
11.1765743
40
0.3514001
50
0.5981552
51
90.7694688
0
ARC
8
DEFAULT_255_2_778
10
13.9212712
20
11.1763273
40
0.3516594
50
89.0936932
51
179.3620431
0
ARC
8
DEFAULT_255_2_778
10
13.9225782
20
9.4617981
40
0.3529808
50
180.8206066
51
270.6907445
0
ARC
8
DEFAULT_255_2_778
10
13.2779009
20
8.8385622
40
0.9389285
50
235.0372476
51
270.2521857
0
ARC
8
DEFAULT_255_2_778
10
13.2494069
20
8.8016757
40
0.8923734
50
180.0342137
51
235.1793968
0
ARC
8
DEFAULT_255_2_778
10
13.2614909
20
11.8300494
40
0.9044875
50
99.3738464
51
179.5316528
0
ARC
8
DEFAULT_255_2_778
10
13.281453
20
11.7703773
40
0.9666656
50
89.9655915
51
99.9651787
0
ARC
8
DEFAULT_255_2_778
10
16.2679262
20
11.7920555
40
0.9449911
50
52.131637
51
90.1632548
0
ARC
8
DEFAULT_255_2_778
10
16.3073414
20
11.8337486
40
0.8878999
50
0.2383845
51
52.4879751
0
ARC
8
DEFAULT_255_2_778
10
4.1919389
20
6.7966961
40
0.9108705
50
278.4463961
51
359.2606696
0
ARC
8
DEFAULT_255_2_778
10
4.1730954
20
6.8473935
40
0.9638507
50
269.9784892
51
279.1117438
0
ARC
8
DEFAULT_255_2_778
10
3.5416526
20
11.1765743
40
0.3514001
50
0.5981574
51
90.7694633
0
ARC
8
DEFAULT_255_2_778
10
1.8255839
20
11.176006
40
0.3519759
50
89.1454165
51
179.3103085
0
ARC
8
DEFAULT_255_2_778
10
1.8265782
20
9.4617981
40
0.3529808
50
180.8206066
51
270.6907445
0
LINE
8
DEFAULT_255_2_778
10
1.1892336
20
7.8996428
11
1.1882766
21
7.8996423
0
ARC
8
DEFAULT_255_2_778
10
1.184223
20
8.8364094
40
0.9367758
50
234.7503407
51
270.2479275
0
ARC
8
DEFAULT_255_2_778
10
1.1567737
20
8.8012705
40
0.8922403
50
180.0274673
51
234.8875256
0
ARC
8
DEFAULT_255_2_778
10
1.1689909
20
11.8300494
40
0.9044875
50
99.3738464
51
179.5316528
0
ARC
8
DEFAULT_255_2_778
10
1.188953
20
11.7703773
40
0.9666656
50
89.9655915
51
99.9651787
0
ARC
8
DEFAULT_255_2_778
10
4.1751262
20
11.7920555
40
0.9449911
50
52.131637
51
90.1632548
0
ARC
8
DEFAULT_255_2_778
10
4.2145414
20
11.8337486
40
0.8878999
50
0.2383845
51
52.4879751
0
LINE
8
DEFAULT_255_2_778
10
9.4138336
20
4.6738428
11
6.4306336
21
4.6738428
0
LINE
8
DEFAULT_255_2_778
10
5.5056336
20
3.7742428
11
5.5056336
21
0.7376428
0
LINE
8
DEFAULT_255_2_778
10
6.4306336
20
-0.1637572
11
9.4138336
21
-0.1637572
0
LINE
8
DEFAULT_255_2_778
10
10.3438336
20
0.7376428
11
10.3438336
21
3.7740428
0
LINE
8
DEFAULT_255_2_778
10
9.4138336
20
4.6736428
11
9.4138336
21
4.6738428
0
LINE
8
DEFAULT_255_2_778
10
8.7783336
20
1.0451428
11
8.7743336
21
1.0472428
0
LINE
8
DEFAULT_255_2_778
10
8.7743336
20
1.0472428
11
8.7743336
21
1.0451428
0
LINE
8
DEFAULT_255_2_778
10
8.7743336
20
1.0451428
11
7.0765336
21
1.0451428
0
LINE
8
DEFAULT_255_2_778
10
7.0765336
20
1.0451428
11
7.0765336
21
1.0472428
0
LINE
8
DEFAULT_255_2_778
10
7.0765336
20
1.0472428
11
7.0720336
21
1.0451428
0
LINE
8
DEFAULT_255_2_778
10
6.7148336
20
1.3935428
11
6.7148336
21
3.1168428
0
LINE
8
DEFAULT_255_2_778
10
7.0720336
20
3.4639428
11
8.7777336
21
3.4639428
0
LINE
8
DEFAULT_255_2_778
10
9.1341336
20
3.1162428
11
9.1344336
21
1.3935428
0
LINE
8
DEFAULT_255_2_778
10
10.2200336
20
12.7370428
11
7.2371336
21
12.7370428
0
LINE
8
DEFAULT_255_2_778
10
6.3121336
20
11.8374428
11
6.3121336
21
8.8008428
0
LINE
8
DEFAULT_255_2_778
10
7.2371336
20
7.8994428
11
10.2202336
21
7.8994428
0
LINE
8
DEFAULT_255_2_778
10
11.1503336
20
8.8008428
11
11.1503336
21
11.8374428
0
LINE
8
DEFAULT_255_2_778
10
10.2202336
20
12.7370428
11
10.2200336
21
12.7370428
0
LINE
8
DEFAULT_255_2_778
10
9.5842336
20
9.1085428
11
9.5802336
21
9.1106428
0
LINE
8
DEFAULT_255_2_778
10
9.5802336
20
9.1106428
11
9.5802336
21
9.1085428
0
LINE
8
DEFAULT_255_2_778
10
9.5802336
20
9.1085428
11
7.8824336
21
9.1085428
0
LINE
8
DEFAULT_255_2_778
10
7.8824336
20
9.1085428
11
7.8824336
21
9.1106428
0
LINE
8
DEFAULT_255_2_778
10
7.8824336
20
9.1106428
11
7.8779336
21
9.1085428
0
LINE
8
DEFAULT_255_2_778
10
7.5207336
20
9.4570428
11
7.5207336
21
11.1805428
0
LINE
8
DEFAULT_255_2_778
10
7.8779336
20
11.5276428
11
9.5836336
21
11.5276428
0
LINE
8
DEFAULT_255_2_778
10
9.9400336
20
11.1799428
11
9.9403336
21
9.4570428
0
LINE
8
DEFAULT_255_2_778
10
17.1978336
20
-0.1640572
11
15.9887336
21
-0.1640572
0
LINE
8
DEFAULT_255_2_778
10
15.9887336
20
-0.1640572
11
15.9887336
21
3.4641428
0
LINE
8
DEFAULT_255_2_778
10
15.9887336
20
3.4641428
11
15.1359336
21
3.4641428
0
LINE
8
DEFAULT_255_2_778
10
14.7787336
20
3.1170428
11
14.7787336
21
-0.1640572
0
LINE
8
DEFAULT_255_2_778
10
14.7787336
20
-0.1640572
11
13.5696336
21
-0.1640572
0
LINE
8
DEFAULT_255_2_778
10
13.5696336
20
-0.1640572
11
13.5696336
21
3.4641428
0
LINE
8
DEFAULT_255_2_778
10
13.5696336
20
3.4641428
11
12.7632336
21
3.4641428
0
LINE
8
DEFAULT_255_2_778
10
12.3599336
20
3.1202428
11
12.3599336
21
-0.1640572
0
LINE
8
DEFAULT_255_2_778
10
12.3599336
20
-0.1640572
11
11.1508336
21
-0.1640572
0
LINE
8
DEFAULT_255_2_778
10
11.1508336
20
-0.1640572
11
11.1508336
21
3.7771428
0
LINE
8
DEFAULT_255_2_778
10
12.0816336
20
4.6741428
11
17.1978336
21
4.6741428
0
LINE
8
DEFAULT_255_2_778
10
17.1978336
20
4.6741428
11
17.1978336
21
-0.1640572
0
LINE
8
DEFAULT_255_2_778
10
4.6994336
20
-0.1640572
11
1.1895336
21
-0.1640572
0
LINE
8
DEFAULT_255_2_778
10
0.2645336
20
0.7371428
11
0.2645336
21
3.7740428
0
LINE
8
DEFAULT_255_2_778
10
1.1895336
20
4.6736428
11
4.6994336
21
4.6736428
0
LINE
8
DEFAULT_255_2_778
10
4.6994336
20
4.6736428
11
4.6994336
21
3.4554428
0
LINE
8
DEFAULT_255_2_778
10
4.6994336
20
3.4554428
11
1.8308336
21
3.4641428
0
LINE
8
DEFAULT_255_2_778
10
1.4736336
20
3.1165428
11
1.4736336
21
1.3930428
0
LINE
8
DEFAULT_255_2_778
10
1.8308336
20
1.0451428
11
1.8348336
21
1.0472428
0
LINE
8
DEFAULT_255_2_778
10
1.8348336
20
1.0472428
11
1.8348336
21
1.0451428
0
LINE
8
DEFAULT_255_2_778
10
1.8348336
20
1.0451428
11
4.6994336
21
1.0451428
0
LINE
8
DEFAULT_255_2_778
10
4.6994336
20
1.0451428
11
4.6994336
21
-0.1640572
0
LINE
8
DEFAULT_255_2_778
10
17.1978336
20
11.8374428
11
17.1978336
21
6.7849428
0
LINE
8
DEFAULT_255_2_778
10
16.2678336
20
5.8835428
11
12.3599336
21
5.8835428
0
LINE
8
DEFAULT_255_2_778
10
12.3599336
20
5.8835428
11
12.3599336
21
7.0926428
0
LINE
8
DEFAULT_255_2_778
10
12.3599336
20
7.0926428
11
15.9887336
21
7.0926428
0
LINE
8
DEFAULT_255_2_778
10
15.9887336
20
7.0926428
11
15.9887336
21
11.1802428
0
LINE
8
DEFAULT_255_2_778
10
15.6326336
20
11.5279428
11
13.9268336
21
11.5279428
0
LINE
8
DEFAULT_255_2_778
10
13.5696336
20
11.1802428
11
13.5696336
21
9.4567428
0
LINE
8
DEFAULT_255_2_778
10
13.9268336
20
9.1088428
11
13.9308336
21
9.1109428
0
LINE
8
DEFAULT_255_2_778
10
13.9308336
20
9.1109428
11
13.9308336
21
9.1088428
0
LINE
8
DEFAULT_255_2_778
10
13.9308336
20
9.1088428
11
15.1822336
21
9.1088428
0
LINE
8
DEFAULT_255_2_778
10
15.1822336
20
9.1088428
11
15.1822336
21
7.8996428
0
LINE
8
DEFAULT_255_2_778
10
15.1822336
20
7.8996428
11
13.2820336
21
7.8996428
0
LINE
8
DEFAULT_255_2_778
10
12.3570336
20
8.8011428
11
12.3570336
21
11.8374428
0
LINE
8
DEFAULT_255_2_778
10
13.2820336
20
12.7370428
11
16.2652336
21
12.7370428
0
LINE
8
DEFAULT_255_2_778
10
17.1952336
20
11.8374428
11
17.1978336
21
11.8374428
0
LINE
8
DEFAULT_255_2_778
10
5.1027336
20
11.8374428
11
5.1027336
21
6.7849428
0
LINE
8
DEFAULT_255_2_778
10
4.1727336
20
5.8835428
11
0.2645336
21
5.8835428
0
LINE
8
DEFAULT_255_2_778
10
0.2645336
20
5.8835428
11
0.2645336
21
7.0926428
0
LINE
8
DEFAULT_255_2_778
10
0.2645336
20
7.0926428
11
3.8930336
21
7.0926428
0
LINE
8
DEFAULT_255_2_778
10
3.8930336
20
7.0926428
11
3.8930336
21
11.1802428
0
LINE
8
DEFAULT_255_2_778
10
3.5369336
20
11.5279428
11
1.8308336
21
11.5279428
0
LINE
8
DEFAULT_255_2_778
10
1.4736336
20
11.1802428
11
1.4736336
21
9.4567428
0
LINE
8
DEFAULT_255_2_778
10
1.8308336
20
9.1088428
11
1.8348336
21
9.1109428
0
LINE
8
DEFAULT_255_2_778
10
1.8348336
20
9.1109428
11
1.8348336
21
9.1088428
0
LINE
8
DEFAULT_255_2_778
10
1.8348336
20
9.1088428
11
3.0863336
21
9.1088428
0
LINE
8
DEFAULT_255_2_778
10
3.0863336
20
9.1088428
11
3.0863336
21
7.8996428
0
LINE
8
DEFAULT_255_2_778
10
3.0863336
20
7.8996428
11
1.1892336
21
7.8996428
0
LINE
8
DEFAULT_255_2_778
10
0.2645336
20
8.8008428
11
0.2645336
21
11.8374428
0
LINE
8
DEFAULT_255_2_778
10
1.1895336
20
12.7370428
11
4.1724336
21
12.7370428
0
LINE
8
DEFAULT_255_2_778
10
5.1024336
20
11.8374428
11
5.1027336
21
11.8374428
0
ENDSEC
0
EOF