0
SECTION
2
HEADER
9
$MEASUREMENT
70
1
0
ENDSEC
0
SECTION
2
TABLES
0
TABLE
2
LTYPE
0
LTYPE
72
65
70
64
2
CONTINUOUS
3
______
73
0
40
0
0
ENDTAB
0
TABLE
2
LAYER
0
LAYER
2
DEFAULT_255_2_778
70
0
62
255
6
CONTINUOUS
0
ENDTAB
0
ENDSEC
0
SECTION
2
ENTITIES
0
ARC
8
DEFAULT_255_2_778
10
13.6030747
20
2.0725935
40
2.7911416
50
179.8301758
51
190.2109808
0
ARC
8
DEFAULT_255_2_778
10
13.1477811
20
1.9894471
40
2.3283198
50
190.1834671
51
203.5582701
0
ARC
8
DEFAULT_255_2_778
10
12.8762784
20
1.871093
40
2.0321418
50
203.5589713
51
221.7034374
0
ARC
8
DEFAULT_255_2_778
10
12.8217792
20
1.8362119
40
1.9682738
50
222.0007856
51
270.3075773
0
ARC
8
DEFAULT_255_2_778
10
12.8320136
20
1.9489789
40
2.0810125
50
270.0091323
51
276.6885374
0
ARC
8
DEFAULT_255_2_778
10
12.8466581
20
1.8866348
40
2.0174002
50
276.4816831
51
304.2694415
0
ARC
8
DEFAULT_255_2_778
10
12.9172692
20
1.768638
40
1.8801451
50
304.5159562
51
324.2275894
0
ARC
8
DEFAULT_255_2_778
10
12.8088202
20
1.8427306
40
2.0114494
50
324.3210495
51
338.6836053
0
ARC
8
DEFAULT_255_2_778
10
12.487806
20
1.9679077
40
2.3560064
50
338.6855749
51
349.8204594
0
ARC
8
DEFAULT_255_2_778
10
11.9699215
20
2.0621012
40
2.8823862
50
349.7969367
51
358.6267527
0
ARC
8
DEFAULT_255_2_778
10
11.5651353
20
2.0805523
40
3.2875101
50
358.4743426
51
0.0054749
0
ARC
8
DEFAULT_255_2_778
10
12.4311829
20
14.6923477
40
2.4214749
50
359.8158822
51
12.6973959
0
ARC
8
DEFAULT_255_2_778
10
12.7425346
20
14.7628096
40
2.1022499
50
12.6891388
51
29.9379045
0
ARC
8
DEFAULT_255_2_778
10
12.8605588
20
14.8279634
40
1.9674598
50
30.0089956
51
59.652253
0
ARC
8
DEFAULT_255_2_778
10
12.8359867
20
14.780012
40
2.0212578
50
59.737921
51
90.1032207
0
ARC
8
DEFAULT_255_2_778
10
12.8698968
20
14.7351
40
2.0665077
50
91.0412054
51
163.0836395
0
ARC
8
DEFAULT_255_2_778
10
12.7564594
20
14.7814882
40
1.9445141
50
163.418767
51
180.0183217
0
LINE
8
DEFAULT_255_2_778
10
10.8119453
20
14.7808664
11
10.8119453
21
2.0808664
0
LINE
8
DEFAULT_255_2_778
10
14.8526453
20
2.0808664
11
14.8526453
21
14.6845664
0
LINE
8
DEFAULT_255_2_778
10
10.8119453
20
14.7808664
11
10.8119453
21
14.7808664
0
ARC
8
DEFAULT_255_2_778
10
8.312644
20
2.0726916
40
2.7923467
50
179.8299921
51
190.2087495
0
ARC
8
DEFAULT_255_2_778
10
7.8584804
20
1.9899273
40
2.3307047
50
190.1851425
51
203.4013211
0
ARC
8
DEFAULT_255_2_778
10
7.5857567
20
1.8717028
40
2.0334587
50
203.3961756
51
221.5834597
0
ARC
8
DEFAULT_255_2_778
10
7.5299322
20
1.8359443
40
1.9679961
50
221.8834605
51
270.3108608
0
ARC
8
DEFAULT_255_2_778
10
7.5402735
20
1.9491057
40
2.0811287
50
270.0092512
51
276.6941618
0
ARC
8
DEFAULT_255_2_778
10
7.5549211
20
1.8867374
40
2.0174912
50
276.4874865
51
304.2730446
0
ARC
8
DEFAULT_255_2_778
10
7.6255292
20
1.7687596
40
1.8802541
50
304.5195586
51
324.2297602
0
ARC
8
DEFAULT_255_2_778
10
7.5170699
20
1.8428539
40
2.0115679
50
324.323204
51
338.6847824
0
ARC
8
DEFAULT_255_2_778
10
7.1960252
20
1.9680314
40
2.3561533
50
338.6868403
51
349.8209256
0
ARC
8
DEFAULT_255_2_778
10
6.6781614
20
2.0622144
40
2.8825107
50
349.7974516
51
358.6267825
0
ARC
8
DEFAULT_255_2_778
10
6.2735894
20
2.0806629
40
3.2874203
50
358.4743216
51
0.005475
0
ARC
8
DEFAULT_255_2_778
10
7.1395629
20
8.2460592
40
2.4214592
50
359.8158608
51
12.6974596
0
ARC
8
DEFAULT_255_2_778
10
7.4509419
20
8.3165258
40
2.1022063
50
12.6892467
51
29.9384058
0
ARC
8
DEFAULT_255_2_778
10
7.5689442
20
8.3816643
40
1.9674431
50
30.0095988
51
59.653635
0
ARC
8
DEFAULT_255_2_778
10
7.5442664
20
8.3335149
40
2.0214655
50
59.7395089
51
90.1036475
0
ARC
8
DEFAULT_255_2_778
10
7.5782276
20
8.2888568
40
2.0664627
50
91.0430734
51
163.0845997
0
ARC
8
DEFAULT_255_2_778
10
7.4648514
20
8.3351968
40
1.9445418
50
163.4189477
51
180.0182614
0
ARC
8
DEFAULT_255_2_778
10
2.1789536
20
1.8926257
40
1.9503482
50
179.9972396
51
180.1189399
0
ARC
8
DEFAULT_255_2_778
10
2.2451676
20
1.8926854
40
2.0165623
50
135.0053524
51
179.9990262
0
ARC
8
DEFAULT_255_2_778
10
2.2448288
20
1.8925936
40
2.0163876
50
89.9989186
51
134.996703
0
ARC
8
DEFAULT_255_2_778
10
2.2449609
20
1.958632
40
1.9503492
50
89.8810601
51
90.0027604
0
ARC
8
DEFAULT_255_2_778
10
2.2721523
20
1.8833735
40
2.0257357
50
89.9997671
51
90.6545816
0
ARC
8
DEFAULT_255_2_778
10
2.2720033
20
1.8884678
40
2.0206413
50
30.2159544
51
89.9955403
0
ARC
8
DEFAULT_255_2_778
10
2.2742308
20
1.8890831
40
2.0184069
50
6.9979194
51
30.2326837
0
ARC
8
DEFAULT_255_2_778
10
2.2699886
20
1.8884378
40
2.0226961
50
359.9996939
51
7.0014232
0
ARC
8
DEFAULT_255_2_778
10
2.2735522
20
1.8880604
40
2.0191324
50
332.6623531
51
0.010404
0
ARC
8
DEFAULT_255_2_778
10
2.2674689
20
1.8912482
40
2.0260002
50
329.7786396
51
332.6612754
0
ARC
8
DEFAULT_255_2_778
10
2.2721178
20
1.8883883
40
2.0205434
50
270.0013776
51
329.7823588
0
ARC
8
DEFAULT_255_2_778
10
2.2721582
20
1.8946199
40
2.026775
50
269.3455879
51
270.0002329
0
ARC
8
DEFAULT_255_2_778
10
2.2445801
20
1.8292905
40
1.9613185
50
269.9974728
51
270.1293979
0
ARC
8
DEFAULT_255_2_778
10
2.2446207
20
1.8838544
40
2.0158825
50
224.9932944
51
269.996388
0
ARC
8
DEFAULT_255_2_778
10
2.2448842
20
1.8841523
40
2.0162796
50
180.0026309
51
224.9939871
0
ARC
8
DEFAULT_255_2_778
10
2.1909886
20
1.8841463
40
1.9623841
50
179.8706365
51
180.0025265
0
LINE
8
DEFAULT_255_2_778
10
5.5203096
20
8.334577
11
5.5203096
21
2.080977
0
LINE
8
DEFAULT_255_2_778
10
9.5610096
20
2.080977
11
9.5610096
21
8.238277
0
LINE
8
DEFAULT_255_2_778
10
5.5203096
20
8.334577
11
5.5203096
21
8.334577
0
LINE
8
DEFAULT_255_2_778
10
0.2286096
20
1.888577
11
0.2286096
21
1.888577
0
ENDSEC
0
EOF