0
SECTION
2
HEADER
9
$MEASUREMENT
70
1
0
ENDSEC
0
SECTION
2
TABLES
0
TABLE
2
LTYPE
0
LTYPE
72
65
70
64
2
CONTINUOUS
3
______
73
0
40
0
0
ENDTAB
0
TABLE
2
LAYER
0
LAYER
2
DEFAULT_255_2_778
70
0
62
255
6
CONTINUOUS
0
ENDTAB
0
ENDSEC
0
SECTION
2
ENTITIES
0
ARC
8
DEFAULT_255_2_778
10
20.8572485
20
114.8863835
40
20.7249804
50
173.886013
51
180.011755
0
ARC
8
DEFAULT_255_2_778
10
20.501686
20
114.9237827
40
20.3674571
50
166.8527399
51
173.8840907
0
ARC
8
DEFAULT_255_2_778
10
20.3358695
20
114.9613545
40
20.1974409
50
158.3761194
51
166.8495381
0
ARC
8
DEFAULT_255_2_778
10
20.3476891
20
114.9546487
40
20.2109
50
147.2481015
51
158.3707948
0
ARC
8
DEFAULT_255_2_778
10
20.4344182
20
114.8989904
40
20.3139522
50
117.5455429
51
147.2484141
0
ARC
8
DEFAULT_255_2_778
10
20.368849
20
115.0105666
40
20.1847022
50
108.1855724
51
117.5269853
0
ARC
8
DEFAULT_255_2_778
10
20.3846018
20
114.9577633
40
20.2397843
50
100.3371356
51
108.1812872
0
ARC
8
DEFAULT_255_2_778
10
20.4264294
20
114.7242745
40
20.4769889
50
93.8756307
51
100.3350412
0
ARC
8
DEFAULT_255_2_778
10
20.4504369
20
114.3942384
40
20.8078931
50
89.9949565
51
93.8801608
0
ARC
8
DEFAULT_255_2_778
10
115.2832206
20
114.4771515
40
20.7249804
50
83.886013
51
90.011755
0
ARC
8
DEFAULT_255_2_778
10
115.3206198
20
114.832714
40
20.3674571
50
76.8527399
51
83.8840907
0
ARC
8
DEFAULT_255_2_778
10
115.3581916
20
114.9985305
40
20.1974409
50
68.3761194
51
76.8495381
0
ARC
8
DEFAULT_255_2_778
10
115.3514858
20
114.9867109
40
20.2109
50
57.2481015
51
68.3707948
0
ARC
8
DEFAULT_255_2_778
10
115.2958275
20
114.8999818
40
20.3139522
50
27.5455429
51
57.2484141
0
ARC
8
DEFAULT_255_2_778
10
115.4074037
20
114.965551
40
20.1847022
50
18.1855724
51
27.5269853
0
ARC
8
DEFAULT_255_2_778
10
115.3546004
20
114.9497982
40
20.2397843
50
10.3371356
51
18.1812872
0
ARC
8
DEFAULT_255_2_778
10
115.1211116
20
114.9079706
40
20.4769889
50
3.8756307
51
10.3350412
0
ARC
8
DEFAULT_255_2_778
10
114.7910755
20
114.8839631
40
20.8078931
50
359.9949565
51
3.8801608
0
ARC
8
DEFAULT_255_2_778
10
114.8739886
20
20.0511794
40
20.7249804
50
353.886013
51
0.011755
0
ARC
8
DEFAULT_255_2_778
10
115.2295511
20
20.0137802
40
20.3674571
50
346.8527399
51
353.8840907
0
ARC
8
DEFAULT_255_2_778
10
115.3953676
20
19.9762084
40
20.1974409
50
338.3761194
51
346.8495381
0
ARC
8
DEFAULT_255_2_778
10
115.383548
20
19.9829142
40
20.2109
50
327.2481015
51
338.3707948
0
ARC
8
DEFAULT_255_2_778
10
115.2968189
20
20.0385725
40
20.3139522
50
297.5455429
51
327.2484141
0
ARC
8
DEFAULT_255_2_778
10
115.3623881
20
19.9269963
40
20.1847022
50
288.1855724
51
297.5269853
0
ARC
8
DEFAULT_255_2_778
10
115.3466353
20
19.9797996
40
20.2397843
50
280.3371356
51
288.1812872
0
ARC
8
DEFAULT_255_2_778
10
115.3048077
20
20.2132884
40
20.4769889
50
273.8756307
51
280.3350412
0
ARC
8
DEFAULT_255_2_778
10
115.2808002
20
20.5433245
40
20.8078931
50
269.9949565
51
273.8801608
0
ARC
8
DEFAULT_255_2_778
10
20.4480165
20
20.4604114
40
20.7249804
50
263.886013
51
270.011755
0
ARC
8
DEFAULT_255_2_778
10
20.4106173
20
20.1048489
40
20.3674571
50
256.8527399
51
263.8840907
0
ARC
8
DEFAULT_255_2_778
10
20.3730455
20
19.9390324
40
20.1974409
50
248.3761194
51
256.8495381
0
ARC
8
DEFAULT_255_2_778
10
20.3797513
20
19.950852
40
20.2109
50
237.2481015
51
248.3707948
0
ARC
8
DEFAULT_255_2_778
10
20.4354096
20
20.0375811
40
20.3139522
50
207.5455429
51
237.2484141
0
ARC
8
DEFAULT_255_2_778
10
20.3238334
20
19.9720119
40
20.1847022
50
198.1855724
51
207.5269853
0
ARC
8
DEFAULT_255_2_778
10
20.3766367
20
19.9877647
40
20.2397843
50
190.3371356
51
198.1812872
0
ARC
8
DEFAULT_255_2_778
10
20.6101255
20
20.0295923
40
20.4769889
50
183.8756307
51
190.3350412
0
ARC
8
DEFAULT_255_2_778
10
20.9401616
20
20.0535998
40
20.8078931
50
179.9949565
51
183.8801608
0
LINE
8
DEFAULT_255_2_778
10
20.4522686
20
135.2021314
11
115.2789686
21
135.2021314
0
LINE
8
DEFAULT_255_2_778
10
135.5989686
20
114.8821314
11
135.5989686
21
20.0554314
0
LINE
8
DEFAULT_255_2_778
10
115.2789686
20
-0.2645686
11
20.4522686
21
-0.2645686
0
LINE
8
DEFAULT_255_2_778
10
0.1322686
20
20.0554314
11
0.1322686
21
114.8821314
0
ARC
8
DEFAULT_255_2_778
10
73.9018499
20
59.7012975
40
41.524986
50
313.0747286
51
321.1893351
0
ARC
8
DEFAULT_255_2_778
10
71.6154758
20
61.5612131
40
44.4722804
50
321.1683305
51
326.9911683
0
ARC
8
DEFAULT_255_2_778
10
69.3859106
20
63.0153859
40
47.1341515
50
326.9852686
51
332.0794677
0
ARC
8
DEFAULT_255_2_778
10
67.1785324
20
64.1889005
40
49.6340805
50
332.0756375
51
336.7423407
0
ARC
8
DEFAULT_255_2_778
10
65.0441684
20
65.1079648
40
51.9579105
50
336.7405868
51
341.3012024
0
ARC
8
DEFAULT_255_2_778
10
63.0615901
20
65.7810059
40
54.0516149
50
341.2991725
51
345.797587
0
ARC
8
DEFAULT_255_2_778
10
61.3658675
20
66.2123751
40
55.8013434
50
345.7953878
51
350.287687
0
ARC
8
DEFAULT_255_2_778
10
60.0735079
20
66.4359003
40
57.112889
50
350.2853808
51
354.8540568
0
ARC
8
DEFAULT_255_2_778
10
59.2739468
20
66.5103632
40
57.9159065
50
354.8516352
51
359.6808775
0
ARC
8
DEFAULT_255_2_778
10
59.0782686
20
66.5146394
40
58.1116053
50
359.6777361
51
0.0000438
0
ARC
8
DEFAULT_255_2_778
10
59.0378801
20
66.5145815
40
58.151994
50
0.0001008
51
1.7093002
0
ARC
8
DEFAULT_255_2_778
10
59.0429113
20
66.5148555
40
58.1469568
50
1.7091782
51
3.3452394
0
ARC
8
DEFAULT_255_2_778
10
59.1072063
20
66.5187196
40
58.082546
50
3.3451351
51
4.9872157
0
ARC
8
DEFAULT_255_2_778
10
59.2355896
20
66.5300727
40
57.9536618
50
4.987068
51
6.7526349
0
ARC
8
DEFAULT_255_2_778
10
59.4189028
20
66.5518521
40
57.7690594
50
6.7525617
51
8.4476311
0
ARC
8
DEFAULT_255_2_778
10
59.6450549
20
66.585526
40
57.5404141
50
8.4475459
51
10.1536176
0
ARC
8
DEFAULT_255_2_778
10
74.163087
20
60.769726
40
22.0474901
50
344.3438742
51
350.5504992
0
ARC
8
DEFAULT_255_2_778
10
74.5009004
20
60.6763348
40
21.6970071
50
336.2628408
51
344.3406075
0
ARC
8
DEFAULT_255_2_778
10
74.0611855
20
60.9202586
40
22.1977606
50
313.3243158
51
336.1433728
0
ARC
8
DEFAULT_255_2_778
10
72.9052265
20
62.0672725
40
23.8253882
50
304.9186576
51
313.4540357
0
ARC
8
DEFAULT_255_2_778
10
72.4702076
20
62.6657296
40
24.5651168
50
303.0219138
51
304.9516283
0
LINE
8
DEFAULT_255_2_778
10
116.2843078
20
76.7292077
11
68.9239078
21
76.7292077
0
LINE
8
DEFAULT_255_2_778
10
68.9239078
20
76.7292077
11
68.9239078
21
57.1500077
0
LINE
8
DEFAULT_255_2_778
10
68.9239078
20
57.1500077
11
95.9114078
21
57.1500077
0
LINE
8
DEFAULT_255_2_778
10
85.8572078
20
42.0688077
11
102.2614078
21
29.3688077
0
ARC
8
DEFAULT_255_2_778
10
69.2736947
20
67.9886094
40
50.8344657
50
206.9127622
51
212.6429302
0
ARC
8
DEFAULT_255_2_778
10
69.2082278
20
67.9476215
40
50.7572304
50
212.6438323
51
219.514039
0
ARC
8
DEFAULT_255_2_778
10
69.2382045
20
67.9736622
40
50.7969254
50
219.5151854
51
229.5915253
0
ARC
8
DEFAULT_255_2_778
10
69.2543475
20
67.9900162
40
50.8198424
50
229.5896191
51
244.0645333
0
ARC
8
DEFAULT_255_2_778
10
69.2260542
20
67.9350662
40
50.7580523
50
244.0661259
51
251.3632108
0
ARC
8
DEFAULT_255_2_778
10
69.2388825
20
67.9757318
40
50.8006851
50
251.364158
51
257.3425006
0
ARC
8
DEFAULT_255_2_778
10
69.261622
20
68.0721354
40
50.8997285
50
257.3413044
51
258.7274927
0
ARC
8
DEFAULT_255_2_778
10
69.2612594
20
68.0689707
40
50.896554
50
258.7271967
51
260.3240524
0
ARC
8
DEFAULT_255_2_778
10
69.2519155
20
68.0141432
40
50.8409362
50
260.3240477
51
262.1165788
0
ARC
8
DEFAULT_255_2_778
10
69.2458726
20
67.9705232
40
50.7968995
50
262.1165821
51
264.1653526
0
ARC
8
DEFAULT_255_2_778
10
69.2436853
20
67.950071
40
50.776331
50
264.1654619
51
265.0948599
0
ARC
8
DEFAULT_255_2_778
10
69.2424923
20
67.9360321
40
50.7622415
50
265.0948467
51
266.9377852
0
ARC
8
DEFAULT_255_2_778
10
69.2420872
20
67.9288482
40
50.7550461
50
266.9378086
51
269.0442702
0
ARC
8
DEFAULT_255_2_778
10
69.2420737
20
67.9284276
40
50.7546252
50
269.0442775
51
270.0000232
0
ARC
8
DEFAULT_255_2_778
10
69.2415601
20
67.9529754
40
50.7791731
50
270.0006027
51
277.5914656
0
ARC
8
DEFAULT_255_2_778
10
69.2359616
20
67.9980681
40
50.8246102
50
277.591006
51
295.5047053
0
ARC
8
DEFAULT_255_2_778
10
69.2620717
20
67.939547
40
50.7605493
50
295.5065481
51
302.0492851
0
ARC
8
DEFAULT_255_2_778
10
69.2524307
20
67.9539324
40
50.7778582
50
302.0498922
51
307.3456919
0
ARC
8
DEFAULT_255_2_778
10
69.196907
20
68.0269401
40
50.8695805
50
307.3455259
51
310.5406138
0
ARC
8
DEFAULT_255_2_778
10
70.6419819
20
65.130389
40
27.6286115
50
297.2996146
51
303.4155696
0
ARC
8
DEFAULT_255_2_778
10
70.0898636
20
66.1930014
40
28.8260961
50
291.9770194
51
297.3061005
0
ARC
8
DEFAULT_255_2_778
10
69.7216185
20
67.09998
40
29.8049783
50
287.0640629
51
291.9809859
0
ARC
8
DEFAULT_255_2_778
10
69.4910602
20
67.8484408
40
30.588145
50
281.9529918
51
287.0655231
0
ARC
8
DEFAULT_255_2_778
10
69.3747387
20
68.3909412
40
31.1429741
50
276.7189101
51
281.955646
0
ARC
8
DEFAULT_255_2_778
10
69.3426518
20
68.6476746
40
31.4016983
50
271.683932
51
276.7222475
0
ARC
8
DEFAULT_255_2_778
10
69.3415832
20
68.6641969
40
31.4182451
50
270.0001324
51
271.6849946
0
ARC
8
DEFAULT_255_2_778
10
69.3415287
20
68.6249394
40
31.3789875
50
268.2296722
51
270.0002321
0
ARC
8
DEFAULT_255_2_778
10
69.3393183
20
68.5552094
40
31.3092224
50
266.4518598
51
268.2297732
0
ARC
8
DEFAULT_255_2_778
10
69.3156165
20
68.2611576
40
31.0142679
50
259.0899517
51
266.4619434
0
ARC
8
DEFAULT_255_2_778
10
69.1932559
20
67.6268648
40
30.3682808
50
252.308075
51
259.0901364
0
ARC
8
DEFAULT_255_2_778
10
69.0049919
20
67.0310169
40
29.7434009
50
246.2700616
51
252.3047665
0
ARC
8
DEFAULT_255_2_778
10
68.8263209
20
66.6197857
40
29.2950363
50
240.9967102
51
246.2662958
0
ARC
8
DEFAULT_255_2_778
10
68.7126585
20
66.4119664
40
29.0581689
50
236.2452529
51
240.9940383
0
ARC
8
DEFAULT_255_2_778
10
68.6941491
20
66.3824714
40
29.0233616
50
231.844984
51
236.2432799
0
ARC
8
DEFAULT_255_2_778
10
68.7905889
20
66.504045
40
29.1785396
50
227.8127772
51
231.8435555
0
ARC
8
DEFAULT_255_2_778
10
69.0043515
20
66.7394745
40
29.4965355
50
224.2665929
51
227.8122248
0
ARC
8
DEFAULT_255_2_778
10
69.3407618
20
67.0665721
40
29.9657524
50
220.7705692
51
224.2654855
0
ARC
8
DEFAULT_255_2_778
10
69.8142266
20
67.4746003
40
30.5907771
50
217.5236891
51
220.7702409
0
ARC
8
DEFAULT_255_2_778
10
70.3895175
20
67.9169614
40
31.3164786
50
214.7162796
51
217.5244828
0
ARC
8
DEFAULT_255_2_778
10
71.0743483
20
68.3908772
40
32.1492988
50
211.8934329
51
214.7154423
0
ARC
8
DEFAULT_255_2_778
10
71.8978748
20
68.9034189
40
33.1192961
50
209.2450268
51
211.8935395
0
ARC
8
DEFAULT_255_2_778
10
72.8044744
20
69.4117235
40
34.158669
50
206.9082821
51
209.2460335
0
ARC
8
DEFAULT_255_2_778
10
73.8432612
20
69.9379307
40
35.3231305
50
204.419893
51
206.9068527
0
ARC
8
DEFAULT_255_2_778
10
75.0173772
20
70.4719171
40
36.6129715
50
202.2376708
51
204.4211643
0
ARC
8
DEFAULT_255_2_778
10
76.2762368
20
70.9864254
40
37.9729148
50
200.0884797
51
202.2374074
0
LINE
8
DEFAULT_255_2_778
10
102.2614678
20
29.3688355
11
85.8572678
21
42.0688355
0
LINE
8
DEFAULT_255_2_778
10
40.6134678
20
57.9438355
11
23.9447678
21
44.9792355
0
ARC
8
DEFAULT_255_2_778
10
76.4703618
20
69.4259834
40
37.650383
50
195.7944
51
197.7563138
0
ARC
8
DEFAULT_255_2_778
10
74.0725838
20
68.748691
40
35.1587844
50
193.5424532
51
195.7959012
0
ARC
8
DEFAULT_255_2_778
10
71.9969838
20
68.2483173
40
33.0237225
50
191.1558967
51
193.5417121
0
ARC
8
DEFAULT_255_2_778
10
70.1867646
20
67.8931247
40
31.1789861
50
188.1299766
51
191.1591286
0
ARC
8
DEFAULT_255_2_778
10
68.6415515
20
67.6734017
40
29.6182296
50
184.2428456
51
188.1319267
0
ARC
8
DEFAULT_255_2_778
10
67.737949
20
67.6032559
40
28.7119139
50
180.0043533
51
184.2366565
0
ARC
8
DEFAULT_255_2_778
10
67.8587744
20
67.5954573
40
28.8327397
50
174.2044387
51
179.9888379
0
ARC
8
DEFAULT_255_2_778
10
69.0878539
20
67.474503
40
30.0677509
50
171.009075
51
174.211633
0
ARC
8
DEFAULT_255_2_778
10
70.6534755
20
67.2262038
40
31.6529396
50
168.131355
51
171.0080322
0
ARC
8
DEFAULT_255_2_778
10
72.5375839
20
66.8320647
40
33.5778311
50
165.8380312
51
168.1344076
0
ARC
8
DEFAULT_255_2_778
10
74.4921021
20
66.3407711
40
35.5931493
50
164.0052916
51
165.8409895
0
ARC
8
DEFAULT_255_2_778
10
76.5960746
20
65.737409
40
37.7819266
50
162.2458524
51
164.004901
0
ARC
8
DEFAULT_255_2_778
10
65.7695413
20
69.3155804
40
46.7592925
50
153.4404249
51
155.5380687
0
ARC
8
DEFAULT_255_2_778
10
67.0199288
20
68.7466363
40
48.1330344
50
155.5379465
51
157.7318486
0
ARC
8
DEFAULT_255_2_778
10
68.1072142
20
68.3003761
40
49.3083373
50
157.7307325
51
159.7943923
0
ARC
8
DEFAULT_255_2_778
10
69.0175428
20
67.9651289
40
50.2784346
50
159.7941674
51
161.9633013
0
ARC
8
DEFAULT_255_2_778
10
69.769462
20
67.7197983
40
51.0693642
50
161.9627843
51
164.1654195
0
ARC
8
DEFAULT_255_2_778
10
70.3041292
20
67.5672469
40
51.6253679
50
164.1644508
51
166.093556
0
ARC
8
DEFAULT_255_2_778
10
70.6851817
20
67.4730338
40
52.0178943
50
166.0936985
51
168.5300701
0
ARC
8
DEFAULT_255_2_778
10
70.9110652
20
67.426637
40
52.2484928
50
168.5294643
51
170.9815888
0
ARC
8
DEFAULT_255_2_778
10
70.9494834
20
67.4200552
40
52.2874677
50
170.9810646
51
173.4709503
0
ARC
8
DEFAULT_255_2_778
10
70.8333425
20
67.4330094
40
52.1706071
50
173.4705815
51
175.888139
0
ARC
8
DEFAULT_255_2_778
10
70.5957331
20
67.4497296
40
51.9324103
50
175.8877414
51
178.4441997
0
ARC
8
DEFAULT_255_2_778
10
70.3370339
20
67.4574156
40
51.673598
50
178.4449307
51
179.9994605
0
ARC
8
DEFAULT_255_2_778
10
70.1045207
20
67.4572837
40
51.4410849
50
179.9993112
51
181.7066075
0
ARC
8
DEFAULT_255_2_778
10
69.834666
20
67.4490812
40
51.1711055
50
181.7064259
51
183.5970266
0
ARC
8
DEFAULT_255_2_778
10
69.5452041
20
67.430853
40
50.8810702
50
183.5969909
51
185.5367186
0
ARC
8
DEFAULT_255_2_778
10
69.2666819
20
67.403946
40
50.6012513
50
185.536822
51
187.3996641
0
ARC
8
DEFAULT_255_2_778
10
69.0272292
20
67.3730187
40
50.3598097
50
187.3998567
51
189.0830041
0
ARC
8
DEFAULT_255_2_778
10
68.8112874
20
67.3384064
40
50.1411117
50
189.0829029
51
190.9987308
0
ARC
8
DEFAULT_255_2_778
10
68.6337922
20
67.3041434
40
49.96034
50
190.9989948
51
192.6131678
0
ARC
8
DEFAULT_255_2_778
10
68.5053575
20
67.2754403
40
49.8287372
50
192.6132086
51
194.2429726
0
ARC
8
DEFAULT_255_2_778
10
68.4204021
20
67.2539745
40
49.7411119
50
194.2430832
51
195.7476138
0
ARC
8
DEFAULT_255_2_778
10
68.3722041
20
67.2404561
40
49.6910541
50
195.7476944
51
197.4068961
0
ARC
8
DEFAULT_255_2_778
10
68.3672309
20
67.2389953
40
49.6858716
50
197.4070043
51
199.0296844
0
ARC
8
DEFAULT_255_2_778
10
68.4062094
20
67.2524824
40
49.7271173
50
199.0297314
51
200.4278958
0
ARC
8
DEFAULT_255_2_778
10
68.4868782
20
67.2826367
40
49.8132378
50
200.4280134
51
201.951372
0
ARC
8
DEFAULT_255_2_778
10
68.6108031
20
67.3326278
40
49.9468661
50
201.9514194
51
203.3869287
0
ARC
8
DEFAULT_255_2_778
10
68.7788388
20
67.4054046
40
50.1299849
50
203.3870407
51
204.8738821
0
ARC
8
DEFAULT_255_2_778
10
68.9772922
20
67.4973395
40
50.3486987
50
204.8738055
51
206.1420393
0
ARC
8
DEFAULT_255_2_778
10
69.1219521
20
67.5679032
40
50.5096509
50
206.1415951
51
206.5650845
0
LINE
8
DEFAULT_255_2_778
10
40.6135602
20
77.2583744
11
23.9447602
21
90.2229744
0
LINE
8
DEFAULT_255_2_778
10
23.9447602
20
44.9792744
11
40.6135602
21
57.9437744
0
ARC
8
DEFAULT_255_2_778
10
66.8350434
20
68.8782019
40
27.5281232
50
152.7364692
51
162.2766343
0
ARC
8
DEFAULT_255_2_778
10
68.9276333
20
67.7188016
40
29.9194343
50
133.7539989
51
152.5985511
0
ARC
8
DEFAULT_255_2_778
10
70.1767284
20
66.5452595
40
31.6310607
50
106.3315288
51
133.9182225
0
ARC
8
DEFAULT_255_2_778
10
69.3590589
20
69.2348205
40
28.820111
50
90.6524502
51
106.2750952
0
ARC
8
DEFAULT_255_2_778
10
69.2853712
20
70.5498848
40
27.5043555
50
90.0001627
51
90.5301522
0
ARC
8
DEFAULT_255_2_778
10
69.286057
20
70.7271722
40
27.3270682
50
88.0280424
51
90.0016017
0
ARC
8
DEFAULT_255_2_778
10
69.2942736
20
70.9699483
40
27.084153
50
86.1837526
51
88.0277414
0
ARC
8
DEFAULT_255_2_778
10
69.3034755
20
71.1155867
40
26.9382252
50
85.4560167
51
86.1826642
0
ARC
8
DEFAULT_255_2_778
10
69.326934
20
71.3769307
40
26.6758443
50
80.9374102
51
85.4617728
0
ARC
8
DEFAULT_255_2_778
10
69.3727984
20
71.6725575
40
26.3766837
50
77.0108231
51
80.9346443
0
ARC
8
DEFAULT_255_2_778
10
69.3991813
20
71.7901294
40
26.2561903
50
73.4969237
51
77.0092552
0
ARC
8
DEFAULT_255_2_778
10
69.3931894
20
71.7714855
40
26.2757681
50
70.261238
51
73.4959448
0
ARC
8
DEFAULT_255_2_778
10
69.347362
20
71.6445931
40
26.4106819
50
67.3084771
51
70.2606326
0
ARC
8
DEFAULT_255_2_778
10
69.261145
20
71.4385695
40
26.634018
50
64.7177362
51
67.3083356
0
ARC
8
DEFAULT_255_2_778
10
69.1322453
20
71.1661421
40
26.9354012
50
62.1658953
51
64.7172995
0
ARC
8
DEFAULT_255_2_778
10
68.9522129
20
70.8253875
40
27.3207911
50
59.7333781
51
62.1656845
0
ARC
8
DEFAULT_255_2_778
10
68.7189288
20
70.425857
40
27.7834422
50
57.3814022
51
59.7331477
0
ARC
8
DEFAULT_255_2_778
10
68.4463612
20
69.9993372
40
28.2896162
50
55.3790529
51
57.3820817
0
ARC
8
DEFAULT_255_2_778
10
68.123922
20
69.533065
40
28.8565171
50
53.2220741
51
55.3781903
0
ARC
8
DEFAULT_255_2_778
10
67.733316
20
69.0103318
40
29.5090684
50
51.2169772
51
53.2222831
0
ARC
8
DEFAULT_255_2_778
10
67.2941065
20
68.4636675
40
30.210315
50
49.3043189
51
51.2170559
0
ARC
8
DEFAULT_255_2_778
10
66.8023474
20
67.8917831
40
30.9645555
50
47.4784092
51
49.3044088
0
ARC
8
DEFAULT_255_2_778
10
66.4426227
20
67.4967311
40
31.4988442
50
46.8775273
51
47.4818249
0
ARC
8
DEFAULT_255_2_778
10
71.6729095
20
72.6323834
40
44.5540469
50
46.1727562
51
55.7602679
0
ARC
8
DEFAULT_255_2_778
10
70.3529286
20
70.7358117
40
46.8646273
50
55.7308075
51
61.7614787
0
ARC
8
DEFAULT_255_2_778
10
69.5858396
20
69.3181009
40
48.4765531
50
61.7555523
51
66.9699663
0
ARC
8
DEFAULT_255_2_778
10
69.0906585
20
68.1591654
40
49.736843
50
66.9672894
51
71.9774472
0
ARC
8
DEFAULT_255_2_778
10
68.8022329
20
67.2794637
40
50.6626184
50
71.9750702
51
76.9157717
0
ARC
8
DEFAULT_255_2_778
10
68.6746167
20
66.7398008
40
51.2171609
50
76.9133861
51
81.8083048
0
ARC
8
DEFAULT_255_2_778
10
68.6475045
20
66.5653029
40
51.3937415
50
81.8061062
51
86.6579701
0
ARC
8
DEFAULT_255_2_778
10
68.6536757
20
66.6795657
40
51.2793132
50
86.6574109
51
89.9989072
0
ARC
8
DEFAULT_255_2_778
10
68.654413
20
66.8413677
40
51.1175111
50
89.9997301
51
91.4385517
0
ARC
8
DEFAULT_255_2_778
10
68.6515472
20
66.9579605
40
51.000883
50
91.4386215
51
92.6421546
0
ARC
8
DEFAULT_255_2_778
10
68.6461034
20
67.0757712
40
50.8829467
50
92.6421465
51
93.850134
0
ARC
8
DEFAULT_255_2_778
10
68.6177669
20
67.4347682
40
50.5228574
50
93.8454084
51
98.8921415
0
ARC
8
DEFAULT_255_2_778
10
68.5205354
20
68.0587011
40
49.8913938
50
98.8925796
51
103.5845303
0
ARC
8
DEFAULT_255_2_778
10
68.3846679
20
68.6247208
40
49.3092964
50
103.5855529
51
107.8990488
0
ARC
8
DEFAULT_255_2_778
10
68.2451309
20
69.0599533
40
48.8522439
50
107.9001998
51
111.8400134
0
ARC
8
DEFAULT_255_2_778
10
68.1330984
20
69.3416644
40
48.5490743
50
111.8409688
51
115.5117901
0
ARC
8
DEFAULT_255_2_778
10
68.0726874
20
69.4698682
40
48.407352
50
115.5126142
51
118.9200782
0
ARC
8
DEFAULT_255_2_778
10
68.0813585
20
69.4552732
40
48.4243202
50
118.9207074
51
122.0389665
0
ARC
8
DEFAULT_255_2_778
10
68.1664277
20
69.3200038
40
48.5841153
50
122.0393818
51
124.88559
0
ARC
8
DEFAULT_255_2_778
10
68.3276362
20
69.0891208
40
48.8657091
50
124.8858099
51
127.4777062
0
ARC
8
DEFAULT_255_2_778
10
68.5595481
20
68.7867569
40
49.2467695
50
127.4777863
51
129.8334292
0
ARC
8
DEFAULT_255_2_778
10
68.8801707
20
68.4032276
40
49.7466627
50
129.8340472
51
132.3278419
0
ARC
8
DEFAULT_255_2_778
10
69.318839
20
67.922074
40
50.3977682
50
132.3281988
51
134.7862894
0
ARC
8
DEFAULT_255_2_778
10
69.8524857
20
67.3841886
40
51.1554617
50
134.7860978
51
137.0117814
0
ARC
8
DEFAULT_255_2_778
10
70.4373705
20
66.8384403
40
51.9554186
50
137.0113303
51
138.952635
0
ARC
8
DEFAULT_255_2_778
10
71.1195169
20
66.2454036
40
52.8593078
50
138.9533992
51
141.0673327
0
ARC
8
DEFAULT_255_2_778
10
71.9554182
20
65.5703753
40
53.9337353
50
141.0675363
51
143.1507617
0
ARC
8
DEFAULT_255_2_778
10
72.8402988
20
64.9060373
40
55.0402425
50
143.1497822
51
144.8750697
0
ARC
8
DEFAULT_255_2_778
10
73.7954413
20
64.2349382
40
56.2075772
50
144.8757428
51
146.7308294
0
ARC
8
DEFAULT_255_2_778
10
74.8780591
20
63.5242884
40
57.5026001
50
146.7305492
51
148.454771
0
ARC
8
DEFAULT_255_2_778
10
76.0714213
20
62.7921245
40
58.9026635
50
148.455124
51
150.2162972
0
ARC
8
DEFAULT_255_2_778
10
77.4125808
20
62.024654
40
60.4478882
50
150.2163896
51
151.9443111
0
ARC
8
DEFAULT_255_2_778
10
78.2551702
20
61.5710402
40
61.4048139
50
151.9405644
51
152.1857267
0
LINE
8
DEFAULT_255_2_778
10
87.9739761
20
90.4875556
11
102.5259761
21
104.7750556
0
LINE
8
DEFAULT_255_2_778
10
23.9447761
20
90.2229556
11
40.6134761
21
77.2583556
0
ENDSEC
0
EOF