0
SECTION
2
HEADER
9
$MEASUREMENT
70
1
0
ENDSEC
0
SECTION
2
TABLES
0
TABLE
2
LTYPE
0
LTYPE
72
65
70
64
2
CONTINUOUS
3
______
73
0
40
0
0
ENDTAB
0
TABLE
2
LAYER
0
LAYER
2
DEFAULT_255_2_778
70
0
62
255
6
CONTINUOUS
0
ENDTAB
0
ENDSEC
0
SECTION
2
ENTITIES
0
ARC
8
DEFAULT_255_2_778
10
8.7275998
20
8.2816284
40
8.5190389
50
89.9755608
51
100.1078496
0
ARC
8
DEFAULT_255_2_778
10
8.7094022
20
8.3947738
40
8.404456
50
100.1210892
51
113.4192451
0
ARC
8
DEFAULT_255_2_778
10
8.7530393
20
8.3116729
40
8.498058
50
113.466531
51
154.9384051
0
ARC
8
DEFAULT_255_2_778
10
8.6695265
20
8.356259
40
8.4035227
50
154.9725843
51
168.7378043
0
ARC
8
DEFAULT_255_2_778
10
8.7637689
20
8.3397546
40
8.4991738
50
168.7527625
51
179.2287872
0
ARC
8
DEFAULT_255_2_778
10
8.9007914
20
8.3343198
40
8.6362578
50
179.2049698
51
180.000354
0
ARC
8
DEFAULT_255_2_778
10
8.7823018
20
8.3306355
40
8.517769
50
179.9755761
51
190.1097244
0
ARC
8
DEFAULT_255_2_778
10
8.6695162
20
8.3125093
40
8.403553
50
190.1230399
51
203.4229749
0
ARC
8
DEFAULT_255_2_778
10
8.7540949
20
8.3569411
40
8.4988273
50
203.4711703
51
244.9403613
0
ARC
8
DEFAULT_255_2_778
10
8.7095248
20
8.2732381
40
8.4041267
50
244.9739126
51
258.7377415
0
ARC
8
DEFAULT_255_2_778
10
8.7257816
20
8.366261
40
8.4985335
50
258.752733
51
269.2285869
0
ARC
8
DEFAULT_255_2_778
10
8.7311948
20
8.50594
40
8.6382735
50
269.2051586
51
270.0002571
0
ARC
8
DEFAULT_255_2_778
10
8.734853
20
8.3847027
40
8.5170371
50
269.9756512
51
280.1097914
0
ARC
8
DEFAULT_255_2_778
10
8.7528378
20
8.2727145
40
8.403631
50
280.1231022
51
293.4223017
0
ARC
8
DEFAULT_255_2_778
10
8.7083549
20
8.3575194
40
8.4991331
50
293.4702134
51
334.9379027
0
ARC
8
DEFAULT_255_2_778
10
8.7926997
20
8.3125722
40
8.4036912
50
334.9719031
51
348.7366856
0
ARC
8
DEFAULT_255_2_778
10
8.6997485
20
8.3288098
40
8.4980239
50
348.7517226
51
359.2285382
0
ARC
8
DEFAULT_255_2_778
10
8.5629781
20
8.3342132
40
8.6348555
50
359.2049063
51
0.0003529
0
ARC
8
DEFAULT_255_2_778
10
8.6799657
20
8.3378937
40
8.5178686
50
359.9756007
51
10.1092966
0
ARC
8
DEFAULT_255_2_778
10
8.7925147
20
8.355982
40
8.4038923
50
10.1225773
51
23.4217707
0
ARC
8
DEFAULT_255_2_778
10
8.7082083
20
8.3117294
40
8.4988454
50
23.4696009
51
64.9386904
0
ARC
8
DEFAULT_255_2_778
10
8.7529873
20
8.3957452
40
8.4037728
50
64.9726112
51
78.7372105
0
ARC
8
DEFAULT_255_2_778
10
8.7366964
20
8.3025503
40
8.4983549
50
78.752209
51
89.22861
0
ARC
8
DEFAULT_255_2_778
10
8.7312868
20
8.166111
40
8.6348555
50
89.2049063
51
90.0003529
0
ARC
8
DEFAULT_255_2_778
10
12.8508326
20
12.2158973
40
0.6245365
50
53.7833811
51
71.9702318
0
ARC
8
DEFAULT_255_2_778
10
11.4598844
20
8.3244021
40
4.7569254
50
70.5465692
51
73.395589
0
ARC
8
DEFAULT_255_2_778
10
13.1068464
20
13.8386401
40
0.9980147
50
239.314454
51
253.2506776
0
ARC
8
DEFAULT_255_2_778
10
12.8688204
20
13.4374675
40
0.531543
50
214.073617
51
239.3111102
0
ARC
8
DEFAULT_255_2_778
10
12.7761591
20
13.3615333
40
0.4123935
50
183.1151268
51
212.5474478
0
ARC
8
DEFAULT_255_2_778
10
13.0608748
20
13.3986839
40
0.6990419
50
179.9112693
51
184.8877483
0
ARC
8
DEFAULT_255_2_778
10
12.9484151
20
13.4128666
40
0.5867278
50
153.4778311
51
181.2793801
0
ARC
8
DEFAULT_255_2_778
10
12.9591243
20
13.3961028
40
0.6038822
50
127.7840381
51
152.5083574
0
ARC
8
DEFAULT_255_2_778
10
13.0343071
20
13.2877738
40
0.7355938
50
106.3094803
51
127.2424666
0
ARC
8
DEFAULT_255_2_778
10
13.1064567
20
13.0476711
40
0.9862976
50
90.0167621
51
106.4151645
0
ARC
8
DEFAULT_255_2_778
10
13.1060646
20
12.9672484
40
1.0667202
50
89.8835027
51
89.994442
0
LINE
8
DEFAULT_255_2_778
10
13.1082336
20
14.0339664
11
13.1092638
21
14.0339669
0
ARC
8
DEFAULT_255_2_778
10
13.1096127
20
12.9157495
40
1.1182175
50
73.3112682
51
90.0178789
0
ARC
8
DEFAULT_255_2_778
10
13.2097022
20
13.2697002
40
0.7504547
50
49.0921184
51
72.8706482
0
ARC
8
DEFAULT_255_2_778
10
13.1746319
20
13.3148073
40
0.3197757
50
41.4448402
51
72.0780569
0
ARC
8
DEFAULT_255_2_778
10
13.0898607
20
13.1247396
40
0.5271729
50
69.6678064
51
89.2421316
0
ARC
8
DEFAULT_255_2_778
10
13.0966927
20
13.1917207
40
0.4601458
50
89.9824646
51
102.6103967
0
ARC
8
DEFAULT_255_2_778
10
13.0794959
20
13.2641075
40
0.385752
50
102.4650591
51
118.0442072
0
ARC
8
DEFAULT_255_2_778
10
13.0032601
20
13.4052335
40
0.2253557
50
117.8067887
51
143.7885041
0
ARC
8
DEFAULT_255_2_778
10
12.9646907
20
13.4404957
40
0.1734972
50
145.6598083
51
181.2316505
0
ARC
8
DEFAULT_255_2_778
10
12.9590838
20
13.4281645
40
0.1680705
50
177.0662997
51
235.3119694
0
ARC
8
DEFAULT_255_2_778
10
13.2131111
20
13.7986556
40
0.6172836
50
235.4950128
51
253.3780297
0
ARC
8
DEFAULT_255_2_778
10
14.5980647
20
17.9122792
40
4.9574656
50
251.6400456
51
254.3043375
0
ARC
8
DEFAULT_255_2_778
10
13.0033173
20
12.255893
40
0.9194437
50
59.1766598
51
73.98812
0
ARC
8
DEFAULT_255_2_778
10
13.2115893
20
12.6101554
40
0.5085104
50
32.4851221
51
58.8760904
0
ARC
8
DEFAULT_255_2_778
10
13.2717541
20
12.6592064
40
0.4315103
50
4.5210491
51
31.2816877
0
ARC
8
DEFAULT_255_2_778
10
12.9504002
20
12.6135204
40
0.7557359
50
359.8518598
51
6.0536746
0
ARC
8
DEFAULT_255_2_778
10
13.0747411
20
12.5978277
40
0.631542
50
335.0224865
51
1.2465221
0
ARC
8
DEFAULT_255_2_778
10
13.207666
20
12.5475669
40
0.4899398
50
333.291999
51
333.7863957
0
ARC
8
DEFAULT_255_2_778
10
13.129509
20
12.580935
40
0.57478
50
307.7669359
51
333.8222373
0
ARC
8
DEFAULT_255_2_778
10
13.0530902
20
12.6931679
40
0.7103527
50
285.3836731
51
307.0952391
0
ARC
8
DEFAULT_255_2_778
10
12.9564066
20
13.0333924
40
1.0640397
50
270.0023314
51
285.5432931
0
ARC
8
DEFAULT_255_2_778
10
12.9564116
20
13.0172763
40
1.0479236
50
269.7059507
51
270.0020952
0
ARC
8
DEFAULT_255_2_778
10
12.9413653
20
13.0239631
40
1.054641
50
250.8692752
51
270.5252562
0
ARC
8
DEFAULT_255_2_778
10
12.8990246
20
12.8563405
40
0.8825259
50
227.194121
51
249.8998329
0
ARC
8
DEFAULT_255_2_778
10
12.9658631
20
12.8284937
40
0.4750754
50
218.5132406
51
244.2854488
0
ARC
8
DEFAULT_255_2_778
10
12.9794594
20
12.860225
40
0.5095659
50
244.4561386
51
269.6935103
0
ARC
8
DEFAULT_255_2_778
10
12.9771514
20
12.8349624
40
0.4842961
50
269.950563
51
283.1505071
0
ARC
8
DEFAULT_255_2_778
10
12.9990877
20
12.7430562
40
0.3898098
50
283.0841439
51
299.0440882
0
ARC
8
DEFAULT_255_2_778
10
13.0723673
20
12.6030091
40
0.2318314
50
300.014423
51
325.0694643
0
ARC
8
DEFAULT_255_2_778
10
13.1165332
20
12.5660551
40
0.1745347
50
326.7136964
51
359.984172
0
ARC
8
DEFAULT_255_2_778
10
13.1169548
20
12.5660056
40
0.1741132
50
0.0004282
51
1.1389395
0
ARC
8
DEFAULT_255_2_778
10
13.0380333
20
12.5706142
40
0.2530029
50
359.7400801
51
0.0094598
0
ARC
8
DEFAULT_255_2_778
10
13.1159328
20
12.5776255
40
0.1752422
50
357.7206756
51
54.4850934
0
ARC
8
DEFAULT_255_2_778
10
6.7131233
20
12.6117983
40
1.3716799
50
90.0020395
51
90.2376644
0
ARC
8
DEFAULT_255_2_778
10
6.7133794
20
12.6402162
40
1.343262
50
77.98804
51
90.013007
0
ARC
8
DEFAULT_255_2_778
10
6.863417
20
13.3065267
40
0.6603653
50
56.5897925
51
78.6893346
0
ARC
8
DEFAULT_255_2_778
10
6.9537706
20
13.4570278
40
0.4850403
50
26.8986208
51
55.709991
0
ARC
8
DEFAULT_255_2_778
10
6.8773269
20
13.4281502
40
0.5663468
50
3.0407898
51
26.0051957
0
ARC
8
DEFAULT_255_2_778
10
6.5591758
20
13.3922398
40
0.8861582
50
359.9370646
51
4.2682467
0
ARC
8
DEFAULT_255_2_778
10
6.8660019
20
13.3758154
40
0.5795377
50
325.9745052
51
1.5277456
0
ARC
8
DEFAULT_255_2_778
10
6.9214208
20
13.3489042
40
0.5186218
50
323.465679
51
325.012581
0
ARC
8
DEFAULT_255_2_778
10
6.9621628
20
13.3294484
40
0.4743817
50
280.2966825
51
322.4243508
0
ARC
8
DEFAULT_255_2_778
10
6.8970064
20
13.5439151
40
0.6975172
50
281.8912871
51
282.4141582
0
ARC
8
DEFAULT_255_2_778
10
4.6304281
20
13.0821624
40
0.9299615
50
133.6489314
51
158.0575135
0
ARC
8
DEFAULT_255_2_778
10
4.660924
20
13.0402135
40
0.9813886
50
110.0767934
51
133.2467643
0
ARC
8
DEFAULT_255_2_778
10
4.7368713
20
12.8205426
40
1.2137888
50
89.4069986
51
109.8843795
0
ARC
8
DEFAULT_255_2_778
10
4.762412
20
12.4452428
40
1.5890766
50
89.9991443
51
90.4679574
0
ARC
8
DEFAULT_255_2_778
10
4.7622162
20
12.4326372
40
1.6016822
50
74.6749062
51
89.9921453
0
ARC
8
DEFAULT_255_2_778
10
4.9519243
20
13.1549271
40
0.8549735
50
47.9169532
51
74.1430979
0
ARC
8
DEFAULT_255_2_778
10
4.8051386
20
13.0543714
40
0.5957859
50
44.21797
51
67.3648678
0
ARC
8
DEFAULT_255_2_778
10
4.7943127
20
13.0060601
40
0.6445997
50
68.129406
51
87.1770488
0
ARC
8
DEFAULT_255_2_778
10
4.7509089
20
12.5608226
40
1.0916448
50
86.0525581
51
90.0774313
0
ARC
8
DEFAULT_255_2_778
10
4.7383101
20
12.997151
40
0.6554098
50
89.0275407
51
89.9998017
0
ARC
8
DEFAULT_255_2_778
10
4.7383988
20
12.9959321
40
0.6566287
50
90.0075431
51
112.111825
0
ARC
8
DEFAULT_255_2_778
10
4.7186255
20
13.0570393
40
0.5925914
50
112.5645868
51
136.0163297
0
ARC
8
DEFAULT_255_2_778
10
4.7322342
20
13.055806
40
0.6033007
50
136.829604
51
160.0788632
0
ARC
8
DEFAULT_255_2_778
10
4.8724702
20
13.0088077
40
0.7511675
50
160.353159
51
179.9958884
0
ARC
8
DEFAULT_255_2_778
10
4.8710034
20
13.00884
40
0.7497006
50
179.9983508
51
180.5176776
0
ARC
8
DEFAULT_255_2_778
10
4.8662279
20
12.9928511
40
0.7449514
50
179.2912077
51
180.0011393
0
ARC
8
DEFAULT_255_2_778
10
4.8669674
20
12.9928488
40
0.745691
50
180.0009638
51
199.7255817
0
ARC
8
DEFAULT_255_2_778
10
4.7355434
20
12.9521826
40
0.6082839
50
200.2980699
51
223.2151388
0
ARC
8
DEFAULT_255_2_778
10
4.7175439
20
12.9452058
40
0.5904332
50
223.9177631
51
247.462039
0
ARC
8
DEFAULT_255_2_778
10
4.7402261
20
13.0152915
40
0.6638865
50
247.9724178
51
270.0139651
0
ARC
8
DEFAULT_255_2_778
10
4.7403718
20
13.0201268
40
0.6687218
50
270.0013834
51
270.7764329
0
ARC
8
DEFAULT_255_2_778
10
4.7655835
20
13.2059765
40
0.8546626
50
268.9172592
51
269.9990636
0
ARC
8
DEFAULT_255_2_778
10
4.7658874
20
13.1975319
40
0.8462179
50
269.9784805
51
286.0420511
0
ARC
8
DEFAULT_255_2_778
10
4.7277488
20
13.3151807
40
0.9698335
50
286.2867524
51
296.5295217
0
ARC
8
DEFAULT_255_2_778
10
4.842187
20
13.5685883
40
1.5900986
50
282.1085658
51
297.281698
0
ARC
8
DEFAULT_255_2_778
10
4.750632
20
13.9992386
40
2.0303729
50
269.9520711
51
282.0855043
0
ARC
8
DEFAULT_255_2_778
10
4.73499
20
13.1760327
40
1.2072468
50
250.0730297
51
270.6617752
0
ARC
8
DEFAULT_255_2_778
10
4.6612784
20
12.9659405
40
0.9846135
50
226.8613894
51
249.9388527
0
ARC
8
DEFAULT_255_2_778
10
4.6349252
20
12.9231144
40
0.9353977
50
201.9499183
51
226.2455997
0
ARC
8
DEFAULT_255_2_778
10
4.8053487
20
12.9873633
40
1.117491
50
179.981892
51
201.7390869
0
ARC
8
DEFAULT_255_2_778
10
4.8145339
20
12.9876975
40
1.1266762
50
179.3353783
51
179.9990316
0
ARC
8
DEFAULT_255_2_778
10
4.812481
20
13.0145346
40
1.1246317
50
159.6966501
51
180.701454
0
ARC
8
DEFAULT_255_2_778
10
4.6375589
20
13.0678483
40
0.9421391
50
157.4685903
51
159.0462197
0
ARC
8
DEFAULT_255_2_778
10
3.687248
20
13.0995228
40
6.9903301
50
292.7814092
51
293.5348433
0
ARC
8
DEFAULT_255_2_778
10
0.3040552
20
21.1133689
40
15.6890429
50
292.7627744
51
292.8404723
0
ARC
8
DEFAULT_255_2_778
10
13.8899939
20
-11.406875
40
19.5550547
50
112.6021331
51
113.0603916
0
ARC
8
DEFAULT_255_2_778
10
6.968532
20
4.8361266
40
1.8988554
50
112.8798707
51
115.8328537
0
ARC
8
DEFAULT_255_2_778
10
6.3672952
20
6.088585
40
0.50959
50
116.3501417
51
118.1814393
0
ARC
8
DEFAULT_255_2_778
10
6.6132174
20
5.6377363
40
1.0231413
50
118.3970102
51
124.04776
0
ARC
8
DEFAULT_255_2_778
10
6.7880035
20
5.3729942
40
1.3403633
50
123.9023351
51
129.0041299
0
ARC
8
DEFAULT_255_2_778
10
6.5886183
20
5.5947791
40
1.0426388
50
128.1602366
51
145.6378979
0
ARC
8
DEFAULT_255_2_778
10
6.9289429
20
5.4173495
40
1.424448
50
147.4732116
51
155.1297915
0
ARC
8
DEFAULT_255_2_778
10
6.7918522
20
5.4699271
40
1.2779974
50
154.683537
51
162.2862096
0
ARC
8
DEFAULT_255_2_778
10
6.2062465
20
5.6605577
40
0.6621634
50
162.5816802
51
167.3590099
0
ARC
8
DEFAULT_255_2_778
10
6.4973442
20
5.6234899
40
0.9547142
50
169.0117094
51
177.226441
0
ARC
8
DEFAULT_255_2_778
10
7.4125019
20
5.56248
40
1.8718262
50
176.7166325
51
180.0960956
0
ARC
8
DEFAULT_255_2_778
10
7.8206211
20
5.5594861
40
2.2799428
50
180.0036549
51
180.6689765
0
ARC
8
DEFAULT_255_2_778
10
8.4980902
20
5.5688702
40
2.9574758
50
180.6975258
51
184.7205526
0
ARC
8
DEFAULT_255_2_778
10
8.8159301
20
5.5909781
40
3.2760595
50
184.648426
51
187.670109
0
ARC
8
DEFAULT_255_2_778
10
8.1124688
20
5.4829055
40
2.5645016
50
187.3748543
51
195.3345422
0
ARC
8
DEFAULT_255_2_778
10
7.0782819
20
5.2077892
40
1.4944005
50
195.6479261
51
200.4906957
0
ARC
8
DEFAULT_255_2_778
10
10.7563757
20
6.5959479
40
5.4257251
50
200.6257847
51
201.5422886
0
ARC
8
DEFAULT_255_2_778
10
9.820192
20
6.2259898
40
4.4190926
50
201.5376199
51
202.9968046
0
ARC
8
DEFAULT_255_2_778
10
10.0652203
20
6.3331645
40
4.6865197
50
203.03262
51
204.2516156
0
ARC
8
DEFAULT_255_2_778
10
12.1984302
20
7.2906703
40
7.0247657
50
204.2255321
51
204.5604932
0
ARC
8
DEFAULT_255_2_778
10
-525.4049929
20
-240.1237756
40
584.7787306
50
24.6990792
51
24.7145383
0
ARC
8
DEFAULT_255_2_778
10
-2.370611
20
0.4575032
40
9.0667458
50
23.9965081
51
24.5697561
0
ARC
8
DEFAULT_255_2_778
10
-1.5549575
20
0.8225987
40
8.1731118
50
23.2498628
51
23.9836816
0
ARC
8
DEFAULT_255_2_778
10
6.015084
20
3.7414955
40
0.0647618
50
0.595198
51
24.0290229
0
ARC
8
DEFAULT_255_2_778
10
6.0133897
20
3.7413055
40
0.0664584
50
0.0000147
51
0.7437367
0
ARC
8
DEFAULT_255_2_778
10
6.0099295
20
3.7415081
40
0.0699188
50
326.3515376
51
359.8340126
0
ARC
8
DEFAULT_255_2_778
10
5.5560419
20
4.0399858
40
0.6131515
50
298.6618567
51
326.6345492
0
ARC
8
DEFAULT_255_2_778
10
5.5053694
20
4.1634049
40
0.7458976
50
287.1224151
51
297.5300554
0
ARC
8
DEFAULT_255_2_778
10
5.2196343
20
5.0798641
40
1.7058649
50
279.8651738
51
287.2316435
0
ARC
8
DEFAULT_255_2_778
10
5.0381668
20
6.0213055
40
2.6645342
50
278.2950225
51
280.2411984
0
ARC
8
DEFAULT_255_2_778
10
4.9454261
20
6.6782233
40
3.3279606
50
274.3203718
51
278.2433179
0
ARC
8
DEFAULT_255_2_778
10
4.9572666
20
6.4636375
40
3.1130954
50
271.8999952
51
274.4005899
0
ARC
8
DEFAULT_255_2_778
10
4.9877832
20
5.5899539
40
2.238881
50
270.5233581
51
271.860771
0
ARC
8
DEFAULT_255_2_778
10
5.0318945
20
5.8725441
40
2.5214963
50
266.9260476
51
269.4441679
0
ARC
8
DEFAULT_255_2_778
10
5.075127
20
6.7346598
40
3.3846913
50
264.0128052
51
266.9778553
0
ARC
8
DEFAULT_255_2_778
10
5.0515716
20
6.5284844
40
3.177184
50
261.7017431
51
264.0474586
0
ARC
8
DEFAULT_255_2_778
10
4.8758437
20
5.4215143
40
2.05649
50
254.4254751
51
262.095236
0
ARC
8
DEFAULT_255_2_778
10
4.5614412
20
4.2911671
40
0.8832327
50
244.9323427
51
254.3845834
0
ARC
8
DEFAULT_255_2_778
10
4.4128457
20
3.9584048
40
0.5188952
50
241.5983642
51
244.2269169
0
ARC
8
DEFAULT_255_2_778
10
4.4448851
20
4.0180355
40
0.586588
50
229.184372
51
241.6159804
0
ARC
8
DEFAULT_255_2_778
10
4.4608095
20
4.0376864
40
0.6118692
50
227.7171587
51
229.2585827
0
ARC
8
DEFAULT_255_2_778
10
4.4686262
20
4.0460837
40
0.6233409
50
217.7825061
51
227.7048928
0
ARC
8
DEFAULT_255_2_778
10
4.4240021
20
4.0119372
40
0.5671523
50
212.9972921
51
217.8180942
0
ARC
8
DEFAULT_255_2_778
10
4.0046851
20
3.7418441
40
0.0684047
50
180.1910436
51
214.5333577
0
ARC
8
DEFAULT_255_2_778
10
4.0036754
20
3.741616
40
0.0673946
50
179.4417056
51
179.9999937
0
ARC
8
DEFAULT_255_2_778
10
4.0010667
20
3.7417014
40
0.0647852
50
155.889097
51
179.4947135
0
ARC
8
DEFAULT_255_2_778
10
11.7567653
20
0.744279
40
8.3745802
50
156.0403108
51
156.757645
0
ARC
8
DEFAULT_255_2_778
10
13.4839485
20
-0.0301045
40
10.2674088
50
155.2662174
51
156.0053912
0
ARC
8
DEFAULT_255_2_778
10
-33.6918796
20
21.7327136
40
41.6862166
50
335.2279523
51
335.3879466
0
ARC
8
DEFAULT_255_2_778
10
-2.4352679
20
7.4027377
40
7.3012876
50
335.4708997
51
335.7805761
0
ARC
8
DEFAULT_255_2_778
10
-0.0365171
20
6.3277213
40
4.6726672
50
335.7358168
51
337.4012913
0
ARC
8
DEFAULT_255_2_778
10
-0.1816366
20
6.3836294
40
4.8281301
50
337.450544
51
338.8663373
0
ARC
8
DEFAULT_255_2_778
10
-1.1827299
20
6.7734698
40
5.9024474
50
338.8403082
51
339.2767878
0
ARC
8
DEFAULT_255_2_778
10
2.7670484
20
5.261726
40
1.6733598
50
339.8346021
51
347.4752901
0
ARC
8
DEFAULT_255_2_778
10
1.6444613
20
5.5199327
40
2.8252401
50
347.3005365
51
352.5430912
0
ARC
8
DEFAULT_255_2_778
10
0.9608852
20
5.6165668
40
3.5155834
50
352.4273446
51
357.1814921
0
ARC
8
DEFAULT_255_2_778
10
1.3334954
20
5.5978635
40
3.1425042
50
357.1880303
51
358.8203264
0
ARC
8
DEFAULT_255_2_778
10
2.1774005
20
5.5620731
40
2.2981148
50
359.2792892
51
359.9956391
0
ARC
8
DEFAULT_255_2_778
10
2.9201288
20
5.5724829
40
1.5554227
50
359.6100994
51
6.1626031
0
ARC
8
DEFAULT_255_2_778
10
3.7822001
20
5.6625249
40
0.6886736
50
6.4140333
51
11.9964486
0
ARC
8
DEFAULT_255_2_778
10
3.6381849
20
5.6148936
40
0.8396092
50
13.1332332
51
21.1266544
0
ARC
8
DEFAULT_255_2_778
10
3.0858385
20
5.4121142
40
1.4279526
50
20.7281022
51
24.9902384
0
ARC
8
DEFAULT_255_2_778
10
3.0953051
20
5.4230246
40
1.4147752
50
24.7517155
51
32.5136237
0
ARC
8
DEFAULT_255_2_778
10
3.4525106
20
5.6215206
40
1.0071659
50
33.9139839
51
52.052481
0
ARC
8
DEFAULT_255_2_778
10
3.2505495
20
5.3954905
40
1.309758
50
51.1658805
51
57.5645918
0
ARC
8
DEFAULT_255_2_778
10
3.4138509
20
5.653263
40
1.0046126
50
57.540061
51
61.7318815
0
ARC
8
DEFAULT_255_2_778
10
3.4382584
20
5.6643677
40
0.9834068
50
62.6779636
51
66.3983402
0
ARC
8
DEFAULT_255_2_778
10
1.9404471
20
2.2893286
40
4.675863
50
66.138101
51
67.3135016
0
ARC
8
DEFAULT_255_2_778
10
-46.6039813
20
-113.4966287
40
130.2264457
50
67.255791
51
67.3040893
0
ARC
8
DEFAULT_255_2_778
10
8.8947251
20
19.1618788
40
13.5733753
50
247.1324101
51
247.2356464
0
ARC
8
DEFAULT_255_2_778
10
5.4482462
20
11.0283615
40
4.7398208
50
245.6122757
51
247.312482
0
ARC
8
DEFAULT_255_2_778
10
4.0272884
20
7.8970581
40
1.3011909
50
242.2696656
51
245.6661933
0
ARC
8
DEFAULT_255_2_778
10
3.7051553
20
7.2751793
40
0.6008594
50
240.997901
51
241.8661544
0
ARC
8
DEFAULT_255_2_778
10
5.2680767
20
10.0387357
40
3.7757376
50
232.5168353
51
240.5874691
0
ARC
8
DEFAULT_255_2_778
10
5.7483555
20
10.3863499
40
4.3471528
50
220.8917187
51
230.2811441
0
ARC
8
DEFAULT_255_2_778
10
4.356959
20
9.1501377
40
2.4861784
50
197.7046169
51
220.3464444
0
ARC
8
DEFAULT_255_2_778
10
6.0382663
20
9.5540797
40
4.2125961
50
193.5708738
51
195.9839331
0
ARC
8
DEFAULT_255_2_778
10
4.8938784
20
9.2792545
40
3.0356724
50
190.3391742
51
193.5968472
0
ARC
8
DEFAULT_255_2_778
10
4.248154
20
9.1599495
40
2.3790212
50
186.7481968
51
190.3036145
0
ARC
8
DEFAULT_255_2_778
10
5.8943887
20
9.3324061
40
4.0341768
50
184.446555
51
186.43317
0
ARC
8
DEFAULT_255_2_778
10
0.0662642
20
8.8710514
40
1.8121922
50
4.7031754
51
6.4926505
0
ARC
8
DEFAULT_255_2_778
10
1.9025085
20
9.0805198
40
0.0359643
50
185.3111986
51
187.2736045
0
ARC
8
DEFAULT_255_2_778
10
1.9027543
20
9.0805463
40
0.0362115
50
179.9978842
51
185.3169276
0
ARC
8
DEFAULT_255_2_778
10
1.9034005
20
9.0804762
40
0.0368577
50
139.5959517
51
179.8889172
0
ARC
8
DEFAULT_255_2_778
10
1.9036071
20
9.0804996
40
0.0370002
50
92.4373512
51
139.8308993
0
ARC
8
DEFAULT_255_2_778
10
2.1331663
20
1.7494402
40
7.3716506
50
91.4258729
51
91.7967622
0
ARC
8
DEFAULT_255_2_778
10
2.2703078
20
-3.6697059
40
12.7925317
50
91.1964317
51
91.4359551
0
ARC
8
DEFAULT_255_2_778
10
2.4027178
20
-9.9311316
40
19.0553572
50
91.0460204
51
91.2013678
0
ARC
8
DEFAULT_255_2_778
10
2.5625388
20
-18.7669945
40
27.8926651
50
90.854687
51
91.0429215
0
ARC
8
DEFAULT_255_2_778
10
2.7550209
20
-31.5536224
40
40.6807417
50
90.7200774
51
90.8571212
0
ARC
8
DEFAULT_255_2_778
10
2.8861041
20
-41.7383259
40
50.8662884
50
90.6821679
51
90.7235441
0
ARC
8
DEFAULT_255_2_778
10
3.0069149
20
-52.0950037
40
61.2236704
50
90.5760397
51
90.6798263
0
ARC
8
DEFAULT_255_2_778
10
3.1821883
20
-69.4265018
40
78.5560546
50
90.4953503
51
90.5767838
0
ARC
8
DEFAULT_255_2_778
10
3.3766582
20
-92.0766895
40
101.2070771
50
90.3990296
51
90.4945821
0
ARC
8
DEFAULT_255_2_778
10
3.5983394
20
-123.8363467
40
132.967508
50
90.3134233
51
90.3992413
0
ARC
8
DEFAULT_255_2_778
10
3.7921309
20
-158.7922799
40
167.9239784
50
90.2512346
51
90.3143006
0
ARC
8
DEFAULT_255_2_778
10
3.967051
20
-198.8379662
40
207.9700465
50
90.1867718
51
90.2510483
0
ARC
8
DEFAULT_255_2_778
10
4.1148137
20
-243.6639797
40
252.7963035
50
90.1381716
51
90.1871433
0
ARC
8
DEFAULT_255_2_778
10
4.228989
20
-290.9847112
40
300.1171728
50
90.0929845
51
90.1381828
0
LINE
8
DEFAULT_255_2_778
10
3.7419336
20
9.1320664
11
3.742177
21
9.1320669
0
ARC
8
DEFAULT_255_2_778
10
3.7422981
20
9.0685419
40
0.0635251
50
20.6711185
51
90.1092331
0
ARC
8
DEFAULT_255_2_778
10
6.6375161
20
10.1800326
40
3.0377175
50
201.0090017
51
218.4795714
0
ARC
8
DEFAULT_255_2_778
10
7.2787308
20
10.6796884
40
3.8505913
50
218.3628996
51
230.5087032
0
ARC
8
DEFAULT_255_2_778
10
7.8517576
20
11.3674908
40
4.7458081
50
230.4507364
51
240.3805914
0
ARC
8
DEFAULT_255_2_778
10
8.2894647
20
12.129809
40
5.6248443
50
240.3424391
51
249.0766281
0
ARC
8
DEFAULT_255_2_778
10
8.4762776
20
12.5888136
40
6.120305
50
248.9776298
51
250.8963278
0
ARC
8
DEFAULT_255_2_778
10
6.4536821
20
6.7464565
40
0.0622595
50
0.3685151
51
71.6976002
0
ARC
8
DEFAULT_255_2_778
10
6.4543272
20
6.746229
40
0.0616164
50
0.0000072
51
0.5838967
0
ARC
8
DEFAULT_255_2_778
10
6.4563259
20
6.7457919
40
0.0596192
50
292.388057
51
0.4200641
0
ARC
8
DEFAULT_255_2_778
10
17.9827716
20
6.9162335
40
8.7482948
50
200.6276578
51
201.5532257
0
ARC
8
DEFAULT_255_2_778
10
16.536816
20
6.3450456
40
7.1936107
50
201.5527918
51
202.8406564
0
ARC
8
DEFAULT_255_2_778
10
16.8268677
20
6.4727246
40
7.5104816
50
202.8793963
51
204.2800718
0
ARC
8
DEFAULT_255_2_778
10
20.5346961
20
8.1375835
40
11.5749269
50
204.2451591
51
204.56888
0
ARC
8
DEFAULT_255_2_778
10
28.380428
20
11.7208435
40
20.2001952
50
204.5594821
51
204.5703559
0
ARC
8
DEFAULT_255_2_778
10
19.0558362
20
7.4571179
40
9.9470314
50
204.5681117
51
204.5900253
0
ARC
8
DEFAULT_255_2_778
10
21.564487
20
8.603645
40
12.7052648
50
204.583896
51
204.6009223
0
ARC
8
DEFAULT_255_2_778
10
42.3932031
20
18.1408509
40
35.6136412
50
204.6019018
51
204.6079303
0
ARC
8
DEFAULT_255_2_778
10
41.9307871
20
17.9354309
40
35.1076846
50
204.6173789
51
204.6234486
0
ARC
8
DEFAULT_255_2_778
10
215.3339823
20
97.447675
40
225.871583
50
204.6317974
51
204.6327339
0
ARC
8
DEFAULT_255_2_778
10
20.9082624
20
8.2989321
40
11.9817541
50
204.6357692
51
204.6532919
0
ARC
8
DEFAULT_255_2_778
10
211.6448387
20
95.8421474
40
221.8489886
50
204.6538802
51
204.6548196
0
ARC
8
DEFAULT_255_2_778
10
25.0898393
20
10.2152135
40
16.5815055
50
204.6567519
51
204.6692296
0
ARC
8
DEFAULT_255_2_778
10
207.954629
20
94.2264187
40
217.821198
50
204.6744291
51
204.6753721
0
ARC
8
DEFAULT_255_2_778
10
24.6758309
20
10.0238229
40
16.1254
50
204.6779724
51
204.6906189
0
ARC
8
DEFAULT_255_2_778
10
24.4750727
20
9.9306321
40
15.9040683
50
204.6876986
51
204.7004297
0
ARC
8
DEFAULT_255_2_778
10
34.8500284
20
14.7018852
40
27.32355
50
204.6989293
51
204.7062871
0
ARC
8
DEFAULT_255_2_778
10
34.5199199
20
14.5499624
40
26.9601603
50
204.7061983
51
204.7136026
0
ARC
8
DEFAULT_255_2_778
10
34.2060205
20
14.4071404
40
26.6153
50
204.7168213
51
204.7242691
0
ARC
8
DEFAULT_255_2_778
10
33.8760405
20
14.2524091
40
26.2508525
50
204.7187416
51
204.7262401
0
ARC
8
DEFAULT_255_2_778
10
102.2714782
20
45.7525751
40
101.5515586
50
204.7281985
51
204.7301234
0
ARC
8
DEFAULT_255_2_778
10
18.904045
20
7.353993
40
9.7660475
50
204.7262272
51
204.7461053
0
ARC
8
DEFAULT_255_2_778
10
-32.295775
20
-16.3204043
40
46.642282
50
24.5870614
51
24.829973
0
ARC
8
DEFAULT_255_2_778
10
-2.7288862
20
-2.7748167
40
14.120242
50
23.9380874
51
24.5247609
0
ARC
8
DEFAULT_255_2_778
10
-1.7006006
20
-2.3154516
40
12.9940183
50
23.1924669
51
23.9265061
0
ARC
8
DEFAULT_255_2_778
10
10.3329659
20
2.302618
40
0.1136897
50
1.4225455
51
22.850253
0
ARC
8
DEFAULT_255_2_778
10
10.3320675
20
2.3026084
40
0.1145881
50
0.0042364
51
1.4162064
0
ARC
8
DEFAULT_255_2_778
10
10.3332662
20
2.3025783
40
0.1133894
50
326.604112
51
0.0194659
0
ARC
8
DEFAULT_255_2_778
10
9.5924412
20
2.7930255
40
1.0018486
50
298.724849
51
326.5067394
0
ARC
8
DEFAULT_255_2_778
10
9.5599777
20
2.8871194
40
1.1000929
50
289.1970238
51
297.8522505
0
ARC
8
DEFAULT_255_2_778
10
9.2243216
20
3.8396971
40
2.1100741
50
283.1236266
51
289.2993152
0
ARC
8
DEFAULT_255_2_778
10
8.8537578
20
5.4187802
40
3.7320538
50
278.1069153
51
283.1597069
0
ARC
8
DEFAULT_255_2_778
10
8.6275908
20
6.9266463
40
5.2567575
50
274.6729139
51
278.2297134
0
ARC
8
DEFAULT_255_2_778
10
8.6287085
20
6.8531645
40
5.1834311
50
272.6352641
51
274.7267715
0
ARC
8
DEFAULT_255_2_778
10
8.6841799
20
5.60544
40
3.9344762
50
270.5931523
51
272.6637331
0
ARC
8
DEFAULT_255_2_778
10
8.6979517
20
4.6651229
40
2.9940696
50
270.1699677
51
270.515905
0
ARC
8
DEFAULT_255_2_778
10
8.7252837
20
5.392822
40
3.721808
50
267.6019327
51
269.6959528
0
ARC
8
DEFAULT_255_2_778
10
8.7803902
20
6.7684906
40
5.0985782
50
265.5182248
51
267.6300543
0
ARC
8
DEFAULT_255_2_778
10
8.7972099
20
7.0372323
40
5.367814
50
262.2898124
51
265.5633937
0
ARC
8
DEFAULT_255_2_778
10
8.724444
20
6.4727948
40
4.7987184
50
261.7062342
51
262.2466124
0
ARC
8
DEFAULT_255_2_778
10
8.5268566
20
5.2391005
40
3.5494685
50
255.7405538
51
261.9897269
0
ARC
8
DEFAULT_255_2_778
10
8.1090652
20
3.5836912
40
1.8421564
50
249.128171
51
255.6525452
0
ARC
8
DEFAULT_255_2_778
10
7.8172637
20
2.814534
40
1.0195097
50
241.9873129
51
249.0505713
0
ARC
8
DEFAULT_255_2_778
10
7.8190701
20
2.7908144
40
0.9994984
50
213.4304487
51
241.2572588
0
ARC
8
DEFAULT_255_2_778
10
7.0799547
20
2.3031047
40
0.1139747
50
180.2389319
51
213.5189248
0
ARC
8
DEFAULT_255_2_778
10
7.0763732
20
2.3026232
40
0.1103923
50
177.6028601
51
179.9968101
0
ARC
8
DEFAULT_255_2_778
10
7.0779472
20
2.3024092
40
0.111974
50
156.6630169
51
177.5271195
0
ARC
8
DEFAULT_255_2_778
10
19.3483686
20
-2.4299987
40
13.2554207
50
156.0173714
51
156.7529674
0
ARC
8
DEFAULT_255_2_778
10
20.9337344
20
-3.1402024
40
14.9925897
50
155.3711848
51
156.0001602
0
ARC
8
DEFAULT_255_2_778
10
-320.2501888
20
154.0316057
40
360.6528101
50
335.2617175
51
335.2996869
0
ARC
8
DEFAULT_255_2_778
10
-2.9470445
20
8.0567051
40
11.3822361
50
335.4353273
51
335.7692586
0
ARC
8
DEFAULT_255_2_778
10
0.6410226
20
6.4469074
40
7.4495982
50
335.7337834
51
337.1985854
0
ARC
8
DEFAULT_255_2_778
10
0.8789202
20
6.3422022
40
7.1897154
50
337.2330793
51
338.3309919
0
ARC
8
DEFAULT_255_2_778
10
-0.5172188
20
6.8955439
40
8.6915107
50
338.3394148
51
339.3728063
0
ARC
8
DEFAULT_255_2_778
10
6.1653182
20
4.3809404
40
1.5515157
50
339.3445525
51
339.3689824
0
ARC
8
DEFAULT_255_2_778
10
5.1908416
20
4.7347898
40
2.5882051
50
339.6390266
51
345.6432632
0
ARC
8
DEFAULT_255_2_778
10
3.5531542
20
5.1497879
40
4.2776528
50
345.6973819
51
352.1297007
0
ARC
8
DEFAULT_255_2_778
10
2.7043389
20
5.2851754
40
5.1370428
50
351.9302428
51
352.2943526
0
ARC
8
DEFAULT_255_2_778
10
2.562413
20
5.3039142
40
5.2801996
50
352.2993478
51
356.6090314
0
ARC
8
DEFAULT_255_2_778
10
3.2978212
20
5.2616775
40
4.5435809
50
356.592185
51
359.3769004
0
ARC
8
DEFAULT_255_2_778
10
4.0322508
20
5.2524542
40
3.8090948
50
359.3954904
51
359.9967269
0
ARC
8
DEFAULT_255_2_778
10
4.9807508
20
5.2626058
40
2.8606135
50
359.7923138
51
4.5788746
0
ARC
8
DEFAULT_255_2_778
10
6.491103
20
5.388418
40
1.3450466
50
4.372822
51
11.4386804
0
ARC
8
DEFAULT_255_2_778
10
6.6432432
20
5.3901352
40
1.1959271
50
12.8037036
51
19.4909178
0
ARC
8
DEFAULT_255_2_778
10
5.702217
20
5.0617286
40
2.1926068
50
19.3761137
51
25.3017909
0
ARC
8
DEFAULT_255_2_778
10
5.5766591
20
5.0161666
40
2.3256259
50
24.9945573
51
32.5567445
0
ARC
8
DEFAULT_255_2_778
10
6.1551705
20
5.3288205
40
1.6704564
50
34.1962761
51
51.9293179
0
ARC
8
DEFAULT_255_2_778
10
5.8246244
20
4.9594896
40
2.1652817
50
51.0698004
51
56.186442
0
ARC
8
DEFAULT_255_2_778
10
6.0538296
20
5.3052313
40
1.7504713
50
56.1220664
51
60.5667755
0
ARC
8
DEFAULT_255_2_778
10
6.2656073
20
5.674151
40
1.3251027
50
60.7031073
51
61.9006289
0
ARC
8
DEFAULT_255_2_778
10
6.2731641
20
5.6635251
40
1.3309679
50
62.4030463
51
65.709419
0
ARC
8
DEFAULT_255_2_778
10
4.8188391
20
2.4726291
40
4.8376519
50
65.556001
51
66.9791173
0
ARC
8
DEFAULT_255_2_778
10
-7.1933722
20
-25.8276179
40
35.5817112
50
66.9979476
51
67.3600137
0
ARC
8
DEFAULT_255_2_778
10
19.8318952
20
38.7705133
40
34.4417824
50
247.2069267
51
247.2329605
0
ARC
8
DEFAULT_255_2_778
10
15.5042211
20
28.4737014
40
23.2724897
50
247.1161453
51
247.2086463
0
ARC
8
DEFAULT_255_2_778
10
9.8440904
20
15.1148674
40
8.7640621
50
245.916278
51
247.2460855
0
ARC
8
DEFAULT_255_2_778
10
7.4800551
20
9.8236943
40
2.9687904
50
243.7351892
51
245.8983599
0
ARC
8
DEFAULT_255_2_778
10
6.7358455
20
8.3127362
40
1.2844987
50
241.2050922
51
243.6792633
0
ARC
8
DEFAULT_255_2_778
10
8.4197299
20
11.3554019
40
4.7620343
50
239.0285508
51
241.0836564
0
ARC
8
DEFAULT_255_2_778
10
9.14245
20
12.5666597
40
6.1725163
50
237.3502417
51
239.0624229
0
ARC
8
DEFAULT_255_2_778
10
9.2032731
20
12.6675878
40
6.2903113
50
235.3445614
51
237.3797431
0
ARC
8
DEFAULT_255_2_778
10
8.4345213
20
11.5597861
40
4.9419061
50
233.2429697
51
235.3726721
0
ARC
8
DEFAULT_255_2_778
10
7.5530859
20
10.3769832
40
3.4667968
50
231.5417883
51
233.2160691
0
ARC
8
DEFAULT_255_2_778
10
6.9956421
20
9.6942952
40
2.5855386
50
229.4799194
51
231.8059283
0
ARC
8
DEFAULT_255_2_778
10
8.4550189
20
11.4075395
40
4.8360895
50
227.8629146
51
229.5241476
0
ARC
8
DEFAULT_255_2_778
10
10.3850863
20
13.5413664
40
7.7133064
50
226.150071
51
227.8656877
0
ARC
8
DEFAULT_255_2_778
10
11.2264872
20
14.4269834
40
8.9348765
50
225.9730586
51
226.1933465
0
ARC
8
DEFAULT_255_2_778
10
11.3459163
20
14.5505496
40
9.1067251
50
225.1780915
51
225.9731024
0
ARC
8
DEFAULT_255_2_778
10
10.4521656
20
13.6601538
40
7.845159
50
223.3624211
51
225.2240562
0
ARC
8
DEFAULT_255_2_778
10
8.2640022
20
11.5933614
40
4.8352272
50
221.6435627
51
223.3601292
0
ARC
8
DEFAULT_255_2_778
10
6.5639209
20
10.0842723
40
2.5619876
50
219.3024817
51
221.6874625
0
ARC
8
DEFAULT_255_2_778
10
5.8319215
20
9.4792847
40
1.6123555
50
218.6683549
51
219.1429937
0
ARC
8
DEFAULT_255_2_778
10
7.6529508
20
11.0861071
40
4.0398198
50
198.2345493
51
220.3246719
0
ARC
8
DEFAULT_255_2_778
10
6.3340014
20
10.5642075
40
2.6251089
50
195.6112673
51
196.4230724
0
ARC
8
DEFAULT_255_2_778
10
10.5533468
20
11.7828888
40
7.0168641
50
193.9352225
51
195.9236708
0
ARC
8
DEFAULT_255_2_778
10
9.0079923
20
11.3994966
40
5.4246609
50
191.7375037
51
193.9357626
0
ARC
8
DEFAULT_255_2_778
10
7.8927912
20
11.1684896
40
4.2857855
50
188.9516006
51
191.7466844
0
ARC
8
DEFAULT_255_2_778
10
7.4269992
20
11.0923709
40
3.8138238
50
186.1063864
51
188.9108231
0
ARC
8
DEFAULT_255_2_778
10
10.9362041
20
11.4427254
40
7.340429
50
184.5364548
51
185.9118358
0
ARC
8
DEFAULT_255_2_778
10
-6.986615
20
9.9650446
40
10.6432611
50
4.8350958
51
4.8906869
0
ARC
8
DEFAULT_255_2_778
10
0.0501177
20
10.5742811
40
3.5802147
50
4.7770316
51
5.9091555
0
ARC
8
DEFAULT_255_2_778
10
1.7661773
20
10.7483875
40
1.8553523
50
6.016918
51
6.7066416
0
ARC
8
DEFAULT_255_2_778
10
3.6721071
20
10.972057
40
0.0636585
50
180.0122363
51
186.3045881
0
ARC
8
DEFAULT_255_2_778
10
3.6685652
20
10.9725014
40
0.0601184
50
92.413458
51
180.4364841
0
ARC
8
DEFAULT_255_2_778
10
3.9105988
20
4.2000717
40
6.8368704
50
91.7823186
51
92.0499942
0
ARC
8
DEFAULT_255_2_778
10
4.0382588
20
0.0731664
40
10.9657496
50
91.4892483
51
91.7783579
0
ARC
8
DEFAULT_255_2_778
10
4.2083162
20
-6.429738
40
17.4708773
50
91.2681163
51
91.492507
0
ARC
8
DEFAULT_255_2_778
10
4.3921286
20
-14.6830729
40
25.7262586
50
91.1016582
51
91.2705946
0
ARC
8
DEFAULT_255_2_778
10
4.5638319
20
-23.5434898
40
34.5883391
50
90.993012
51
91.1038413
0
ARC
8
DEFAULT_255_2_778
10
4.7504421
20
-34.3733411
40
45.419798
50
90.8630422
51
90.9916191
0
ARC
8
DEFAULT_255_2_778
10
4.9729676
20
-49.1193726
40
60.1675085
50
90.7542809
51
90.8634138
0
ARC
8
DEFAULT_255_2_778
10
5.1112663
20
-59.4219032
40
70.4709669
50
90.7223208
51
90.7564445
0
ARC
8
DEFAULT_255_2_778
10
5.3146867
20
-75.8295121
40
86.8798365
50
90.6091002
51
90.7200528
0
ARC
8
DEFAULT_255_2_778
10
5.6003245
20
-102.5545059
40
113.6063566
50
90.5209597
51
90.6098662
0
ARC
8
DEFAULT_255_2_778
10
5.8926756
20
-134.6428165
40
145.695999
50
90.4375086
51
90.5211883
0
ARC
8
DEFAULT_255_2_778
10
6.2003083
20
-174.8214674
40
185.8758276
50
90.362467
51
90.4377625
0
ARC
8
DEFAULT_255_2_778
10
6.4849762
20
-219.5087343
40
230.5640013
50
90.3028921
51
90.3629545
0
ARC
8
DEFAULT_255_2_778
10
6.7274068
20
-264.9993375
40
276.0552504
50
90.2550223
51
90.3032955
0
ARC
8
DEFAULT_255_2_778
10
6.932391
20
-310.740893
40
321.7972652
50
90.2160306
51
90.2552695
0
ARC
8
DEFAULT_255_2_778
10
7.1400329
20
-366.3843947
40
377.4411542
50
90.1680119
51
90.2157027
0
ARC
8
DEFAULT_255_2_778
10
7.3416411
20
-434.9699241
40
446.0269799
50
90.1263241
51
90.1680749
0
ARC
8
DEFAULT_255_2_778
10
7.4956223
20
-504.2391304
40
515.2963573
50
90.0916057
51
90.126464
0
ARC
8
DEFAULT_255_2_778
10
7.6236883
20
-584.2133554
40
595.2706849
50
90.0550486
51
90.0916251
0
ARC
8
DEFAULT_255_2_778
10
7.7100093
20
-672.0675867
40
683.1249585
50
90.0267291
51
90.055209
0
ARC
8
DEFAULT_255_2_778
10
7.7487017
20
-756.4011543
40
767.4585349
50
89.9997246
51
90.0266806
0
ARC
8
DEFAULT_255_2_778
10
7.7502393
20
-835.3463745
40
846.4037552
50
89.9883813
51
89.9998544
0
ARC
8
DEFAULT_255_2_778
10
7.7407711
20
-871.9221878
40
882.9795697
50
89.9775513
51
89.9882482
0
ARC
8
DEFAULT_255_2_778
10
7.7288339
20
-903.1755562
40
914.2329404
50
89.9681277
51
89.9775706
0
ARC
8
DEFAULT_255_2_778
10
7.7093306
20
-939.5893208
40
950.6467102
50
89.9577169
51
89.9681731
0
ARC
8
DEFAULT_255_2_778
10
7.6938139
20
-964.9857659
40
976.0431599
50
89.9492285
51
89.9579063
0
ARC
8
DEFAULT_255_2_778
10
7.6422791
20
-1026.3100405
40
1037.3674561
50
89.9410535
51
89.9493835
0
ARC
8
DEFAULT_255_2_778
10
13.7505211
20
10.9729811
40
0.059616
50
359.9513923
51
88.1616502
0
ARC
8
DEFAULT_255_2_778
10
13.7481361
20
10.9729527
40
0.0620009
50
352.6924199
51
359.9794897
0
ARC
8
DEFAULT_255_2_778
10
16.5288258
20
10.6563536
40
2.7366604
50
173.5228812
51
175.1825428
0
ARC
8
DEFAULT_255_2_778
10
21.0113987
20
10.2587835
40
7.2368132
50
175.0264728
51
175.1214407
0
ARC
8
DEFAULT_255_2_778
10
4.63307
20
11.6082512
40
9.197071
50
354.3884981
51
355.4223467
0
ARC
8
DEFAULT_255_2_778
10
9.9533962
20
11.0982596
40
3.8523934
50
351.4016799
51
354.19979
0
ARC
8
DEFAULT_255_2_778
10
9.588285
20
11.1571695
40
4.2222098
50
348.5265707
51
351.3519946
0
ARC
8
DEFAULT_255_2_778
10
8.4812421
20
11.3814548
40
5.3517442
50
346.2237886
51
348.530878
0
ARC
8
DEFAULT_255_2_778
10
6.863569
20
11.7781838
40
7.0173553
50
344.1174183
51
346.222976
0
ARC
8
DEFAULT_255_2_778
10
9.7668154
20
11.0856648
40
4.0374656
50
320.3596388
51
342.2944091
0
ARC
8
DEFAULT_255_2_778
10
7.8665313
20
12.4554312
40
6.3766168
50
321.3387681
51
321.7750566
0
ARC
8
DEFAULT_255_2_778
10
11.0202989
20
9.9474179
40
2.3472247
50
318.4770812
51
321.0503925
0
ARC
8
DEFAULT_255_2_778
10
9.310426
20
11.4553558
40
4.6270343
50
316.7643601
51
318.5331662
0
ARC
8
DEFAULT_255_2_778
10
7.0892398
20
13.5429728
40
7.6752818
50
314.9972232
51
316.7688052
0
ARC
8
DEFAULT_255_2_778
10
6.111806
20
14.5096373
40
9.0499698
50
314.8218038
51
315.0458558
0
ARC
8
DEFAULT_255_2_778
10
5.9678659
20
14.6545748
40
9.2542384
50
314.0529463
51
314.8213709
0
ARC
8
DEFAULT_255_2_778
10
6.7501573
20
13.8379171
40
8.1233653
50
312.3359789
51
314.0925131
0
ARC
8
DEFAULT_255_2_778
10
8.7259982
20
11.6695225
40
5.1897871
50
310.7594823
51
312.3338312
0
ARC
8
DEFAULT_255_2_778
10
10.2841113
20
9.8578078
40
2.8002236
50
308.5018715
51
310.8134597
0
ARC
8
DEFAULT_255_2_778
10
10.9215325
20
9.0644715
40
1.7825548
50
308.1286307
51
308.3426268
0
ARC
8
DEFAULT_255_2_778
10
8.3013981
20
12.5198481
40
6.1188212
50
299.3622079
51
307.4508356
0
ARC
8
DEFAULT_255_2_778
10
10.6148265
20
8.4416492
40
1.4302733
50
295.7010248
51
298.6980001
0
ARC
8
DEFAULT_255_2_778
10
9.6814453
20
10.3757384
40
3.5778068
50
293.813377
51
295.7374505
0
ARC
8
DEFAULT_255_2_778
10
7.2075087
20
15.9728596
40
9.6972941
50
292.7937608
51
293.833652
0
ARC
8
DEFAULT_255_2_778
10
1.914546
20
28.4737014
40
23.2724898
50
292.7913537
51
292.8838547
0
ARC
8
DEFAULT_255_2_778
10
1.9648612
20
28.3489933
40
23.1380278
50
292.7858844
51
292.796114
0
ARC
8
DEFAULT_255_2_778
10
-4.2792699
20
43.2145818
40
39.2617647
50
292.7792606
51
292.7852414
0
ARC
8
DEFAULT_255_2_778
10
-4.0311052
20
42.6267415
40
38.6236892
50
292.7714382
51
292.7774692
0
ARC
8
DEFAULT_255_2_778
10
-3.7851132
20
42.0439313
40
37.9910929
50
292.7634887
51
292.7695708
0
ARC
8
DEFAULT_255_2_778
10
25.9893496
20
-29.1116908
40
39.1428614
50
112.6511017
51
112.9663541
0
ARC
8
DEFAULT_255_2_778
10
12.8254613
20
1.9567383
40
5.4006738
50
112.9893211
51
114.2356422
0
ARC
8
DEFAULT_255_2_778
10
11.2610004
20
5.4237455
40
1.5970391
50
114.1135177
51
116.9552136
0
ARC
8
DEFAULT_255_2_778
10
10.8599281
20
6.222147
40
0.7035851
50
117.3143585
51
118.0536235
0
ARC
8
DEFAULT_255_2_778
10
11.2599768
20
5.4771573
40
1.5491887
50
118.1527123
51
122.5700478
0
ARC
8
DEFAULT_255_2_778
10
11.543987
20
5.0289783
40
2.0797766
50
122.5170623
51
127.3420182
0
ARC
8
DEFAULT_255_2_778
10
11.6091191
20
4.9403718
40
2.1897295
50
127.29062
51
128.9351051
0
ARC
8
DEFAULT_255_2_778
10
11.2721538
20
5.319308
40
1.683379
50
128.1191418
51
145.7111017
0
ARC
8
DEFAULT_255_2_778
10
11.8993475
20
4.9807949
40
2.3934114
50
147.4746646
51
154.8553096
0
ARC
8
DEFAULT_255_2_778
10
11.5917581
20
5.1127482
40
2.0589331
50
154.5423164
51
160.9875407
0
ARC
8
DEFAULT_255_2_778
10
10.6419934
20
5.4385702
40
1.0548368
50
160.9136285
51
168.1508149
0
ARC
8
DEFAULT_255_2_778
10
10.8644529
20
5.3951727
40
1.2814712
50
168.2941726
51
175.711328
0
ARC
8
DEFAULT_255_2_778
10
12.4649638
20
5.2637106
40
2.887354
50
175.4850043
51
180.2303633
0
ARC
8
DEFAULT_255_2_778
10
13.5876638
20
5.252357
40
4.0100307
50
180.0036465
51
180.5728278
0
ARC
8
DEFAULT_255_2_778
10
14.0673569
20
5.2559582
40
4.4897359
50
180.5575818
51
183.3756172
0
ARC
8
DEFAULT_255_2_778
10
14.8249332
20
5.2992014
40
5.2485442
50
183.359907
51
187.6954629
0
ARC
8
DEFAULT_255_2_778
10
13.943735
20
5.1650045
40
4.357338
50
187.4983673
51
194.1224357
0
ARC
8
DEFAULT_255_2_778
10
12.2784721
20
4.7493774
40
2.6409964
50
194.1929454
51
200.0948169
0
ARC
8
DEFAULT_255_2_778
10
11.6490716
20
4.5289534
40
1.9741998
50
200.3629929
51
200.6025192
0
ARC
8
DEFAULT_255_2_778
10
11.7430375
20
10.3490177
40
4.3005547
50
309.745731
51
319.2285011
0
ARC
8
DEFAULT_255_2_778
10
12.2070402
20
10.0235904
40
3.7566062
50
299.3590654
51
307.4772494
0
ARC
8
DEFAULT_255_2_778
10
13.5194548
20
7.7315628
40
1.1156859
50
294.5769254
51
298.3259716
0
ARC
8
DEFAULT_255_2_778
10
12.2315768
20
10.5334987
40
4.1994281
50
292.8062725
51
294.6565365
0
ARC
8
DEFAULT_255_2_778
10
9.6370584
20
16.610442
40
10.8070188
50
292.8880405
51
292.9979687
0
ARC
8
DEFAULT_255_2_778
10
7.9669552
20
20.5658079
40
15.1005215
50
292.8062356
51
292.8889633
0
ARC
8
DEFAULT_255_2_778
10
22.0047065
20
-12.9682224
40
21.253186
50
112.6497934
51
113.0697597
0
ARC
8
DEFAULT_255_2_778
10
14.5732779
20
4.4757691
40
2.2922014
50
113.0280194
51
115.1573777
0
ARC
8
DEFAULT_255_2_778
10
13.8716963
20
5.9736546
40
0.6381557
50
115.3125361
51
117.8746758
0
ARC
8
DEFAULT_255_2_778
10
14.0622091
20
5.633563
40
1.0279023
50
118.3987536
51
124.0528139
0
ARC
8
DEFAULT_255_2_778
10
14.238606
20
5.3664057
40
1.3480269
50
123.9062662
51
129.009303
0
ARC
8
DEFAULT_255_2_778
10
14.038727
20
5.5889126
40
1.0494272
50
128.1762022
51
145.5031939
0
ARC
8
DEFAULT_255_2_778
10
14.3883718
20
5.4113034
40
1.4391074
50
147.5598735
51
155.1350138
0
ARC
8
DEFAULT_255_2_778
10
14.2186389
20
5.4790625
40
1.2566559
50
154.6840117
51
162.4126194
0
ARC
8
DEFAULT_255_2_778
10
13.6320212
20
5.6686953
40
0.6401687
50
162.7273547
51
167.6637486
0
ARC
8
DEFAULT_255_2_778
10
13.8775183
20
5.6282924
40
0.8887243
50
168.5005993
51
177.5797869
0
ARC
8
DEFAULT_255_2_778
10
15.029835
20
5.5564906
40
2.0431755
50
176.9326205
51
180.1249938
0
ARC
8
DEFAULT_255_2_778
10
15.664385
20
5.5521454
40
2.6777207
50
180.0023966
51
180.4125188
0
ARC
8
DEFAULT_255_2_778
10
15.9180208
20
5.5688135
40
2.9315076
50
180.7025957
51
184.7613516
0
ARC
8
DEFAULT_255_2_778
10
16.2651049
20
5.5934493
40
3.2794418
50
184.68694
51
187.7057169
0
ARC
8
DEFAULT_255_2_778
10
15.5856703
20
5.4883903
40
2.5920884
50
187.41818
51
195.293047
0
ARC
8
DEFAULT_255_2_778
10
14.546239
20
5.2125369
40
1.5167275
50
195.5979342
51
200.3670204
0
ARC
8
DEFAULT_255_2_778
10
18.3008611
20
6.6388339
40
5.5331011
50
200.6817965
51
201.5847089
0
ARC
8
DEFAULT_255_2_778
10
17.3442274
20
6.2600369
40
4.5042011
50
201.5807549
51
203.0180956
0
ARC
8
DEFAULT_255_2_778
10
17.6096322
20
6.3760801
40
4.7938511
50
203.0542494
51
204.2505273
0
ARC
8
DEFAULT_255_2_778
10
19.800672
20
7.3593452
40
7.1954043
50
204.2232972
51
204.5407816
0
ARC
8
DEFAULT_255_2_778
10
-446.1959497
20
-206.8791626
40
505.6895879
50
24.6745111
51
24.6923846
0
ARC
8
DEFAULT_255_2_778
10
4.9418617
20
0.400401
40
9.2118749
50
23.9834426
51
24.5475817
0
ARC
8
DEFAULT_255_2_778
10
5.760122
20
0.7663972
40
8.3154937
50
23.2498432
51
23.9710625
0
ARC
8
DEFAULT_255_2_778
10
13.4597095
20
3.741471
40
0.0659377
50
0.6058626
51
23.5974956
0
ARC
8
DEFAULT_255_2_778
10
13.458047
20
3.7413458
40
0.0676016
50
359.986345
51
0.6970475
0
ARC
8
DEFAULT_255_2_778
10
13.456545
20
3.7414104
40
0.0691038
50
325.9983544
51
359.933053
0
ARC
8
DEFAULT_255_2_778
10
12.9956061
20
4.0455353
40
0.6213294
50
298.9157986
51
326.5183311
0
ARC
8
DEFAULT_255_2_778
10
12.9505543
20
4.1659279
40
0.7487317
50
287.1113593
51
297.4787263
0
ARC
8
DEFAULT_255_2_778
10
12.6649296
20
5.0827818
40
1.7090432
50
279.8712479
51
287.2191677
0
ARC
8
DEFAULT_255_2_778
10
12.4834713
20
6.0238968
40
2.6673907
50
278.3032417
51
280.2456936
0
ARC
8
DEFAULT_255_2_778
10
12.3902009
20
6.6838876
40
3.3339342
50
274.3337203
51
278.2513752
0
ARC
8
DEFAULT_255_2_778
10
12.4017204
20
6.4741201
40
3.123899
50
271.920542
51
274.413772
0
ARC
8
DEFAULT_255_2_778
10
12.4325122
20
5.6021297
40
2.251367
50
270.5502569
51
271.8810683
0
ARC
8
DEFAULT_255_2_778
10
12.4778203
20
5.8737468
40
2.5229992
50
266.9250256
51
269.4439128
0
ARC
8
DEFAULT_255_2_778
10
12.5211462
20
6.7374754
40
3.3878095
50
264.0112136
51
266.9769332
0
ARC
8
DEFAULT_255_2_778
10
12.4975439
20
6.5310329
40
3.1800318
50
261.699554
51
264.0460691
0
ARC
8
DEFAULT_255_2_778
10
12.3217308
20
5.4237002
40
2.0589663
50
254.432271
51
262.0922715
0
ARC
8
DEFAULT_255_2_778
10
12.0073361
20
4.2928429
40
0.8852195
50
244.9582043
51
254.3911313
0
ARC
8
DEFAULT_255_2_778
10
11.8585666
20
3.959356
40
0.5201485
50
241.6328245
51
244.2561716
0
ARC
8
DEFAULT_255_2_778
10
11.9061066
20
4.040317
40
0.6139843
50
213.3848099
51
241.3187903
0
ARC
8
DEFAULT_255_2_778
10
11.4500206
20
3.74128
40
0.0686191
50
180.2604798
51
214.446577
0
ARC
8
DEFAULT_255_2_778
10
11.4454546
20
3.7410827
40
0.0640525
50
155.5771289
51
180.0889892
0
ARC
8
DEFAULT_255_2_778
10
19.220988
20
0.7342986
40
8.3958923
50
156.0347514
51
156.7496963
0
ARC
8
DEFAULT_255_2_778
10
21.0369827
20
-0.0799592
40
10.386073
50
155.2690092
51
155.9992405
0
ARC
8
DEFAULT_255_2_778
10
-22.8074194
20
20.1427831
40
37.8973722
50
335.2307912
51
335.406667
0
ARC
8
DEFAULT_255_2_778
10
5.1787855
20
7.3223022
40
7.1143928
50
335.4896706
51
335.816397
0
ARC
8
DEFAULT_255_2_778
10
7.470707
20
6.2968491
40
4.6035285
50
335.7733778
51
337.4585734
0
ARC
8
DEFAULT_255_2_778
10
7.2939127
20
6.3658726
40
4.793278
50
337.5066748
51
338.9281558
0
ARC
8
DEFAULT_255_2_778
10
6.3006315
20
6.7514999
40
5.8587872
50
338.9015761
51
339.3397256
0
ARC
8
DEFAULT_255_2_778
10
10.1789895
20
5.2746622
40
1.7088369
50
339.7915152
51
347.2779775
0
ARC
8
DEFAULT_255_2_778
10
9.119827
20
5.5224247
40
2.7965721
50
347.1052653
51
352.4043696
0
ARC
8
DEFAULT_255_2_778
10
8.6471925
20
5.5928713
40
3.2743795
50
352.275666
51
357.3674525
0
ARC
8
DEFAULT_255_2_778
10
9.154605
20
5.5678044
40
2.7663518
50
357.4033812
51
359.2722132
0
ARC
8
DEFAULT_255_2_778
10
9.2362116
20
5.55197
40
2.6845914
50
359.5880112
51
359.9976256
0
ARC
8
DEFAULT_255_2_778
10
10.2139086
20
5.564263
40
1.7069394
50
359.5836308
51
5.6712111
0
ARC
8
DEFAULT_255_2_778
10
11.2296132
20
5.6625427
40
0.6864991
50
5.8859582
51
11.990831
0
ARC
8
DEFAULT_255_2_778
10
11.0880743
20
5.6161395
40
0.8347434
50
13.088107
51
21.1272362
0
ARC
8
DEFAULT_255_2_778
10
10.5325798
20
5.4122361
40
1.426429
50
20.7245522
51
24.9912031
0
ARC
8
DEFAULT_255_2_778
10
10.535257
20
5.4199324
40
1.4207629
50
24.7555007
51
32.4836809
0
ARC
8
DEFAULT_255_2_778
10
10.8976252
20
5.620381
40
1.0077597
50
33.9351062
51
52.0815582
0
ARC
8
DEFAULT_255_2_778
10
10.699195
20
5.3984091
40
1.3049685
50
51.1977662
51
57.6145291
0
ARC
8
DEFAULT_255_2_778
10
10.8633153
20
5.657928
40
0.9979094
50
57.5911073
51
61.809418
0
ARC
8
DEFAULT_255_2_778
10
10.7976276
20
5.484733
40
1.1818336
50
62.9692665
51
66.8197611
0
ARC
8
DEFAULT_255_2_778
10
6.134682
20
-5.302817
40
12.9340312
50
66.6414005
51
67.4208658
0
ARC
8
DEFAULT_255_2_778
10
17.6070027
20
22.0998212
40
16.7732518
50
247.1334898
51
247.1767078
0
ARC
8
DEFAULT_255_2_778
10
15.5648247
20
17.2593389
40
11.5196093
50
246.9952616
51
247.137209
0
ARC
8
DEFAULT_255_2_778
10
13.2969371
20
11.9322943
40
5.7299069
50
246.1800366
51
247.0520642
0
ARC
8
DEFAULT_255_2_778
10
11.0056595
20
6.7455484
40
0.0596242
50
179.4954931
51
247.4909191
0
ARC
8
DEFAULT_255_2_778
10
11.0084604
20
6.7460984
40
0.0624227
50
179.5642066
51
180.0229332
0
ARC
8
DEFAULT_255_2_778
10
11.0079297
20
6.7464612
40
0.0618901
50
108.1665148
51
179.896307
0
ARC
8
DEFAULT_255_2_778
10
9.0991392
20
12.2917916
40
5.8027707
50
289.0031019
51
297.6963408
0
ARC
8
DEFAULT_255_2_778
10
9.5044776
20
11.5258409
40
4.9361856
50
297.6627583
51
307.3236058
0
ARC
8
DEFAULT_255_2_778
10
10.0521258
20
10.8133391
40
4.0375409
50
307.2739154
51
318.7721658
0
ARC
8
DEFAULT_255_2_778
10
10.6872722
20
10.2643567
40
3.1980462
50
318.669875
51
334.5348088
0
ARC
8
DEFAULT_255_2_778
10
11.0461828
20
10.0776251
40
2.7937538
50
334.8275041
51
339.3145355
0
ARC
8
DEFAULT_255_2_778
10
13.7192393
20
9.0682323
40
0.063536
50
90.0766837
51
159.2269419
0
ARC
8
DEFAULT_255_2_778
10
13.7192738
20
9.0906804
40
0.041088
50
89.4983376
51
90.1667785
0
ARC
8
DEFAULT_255_2_778
10
15.5574936
20
9.079742
40
0.03748
50
0.2420417
51
86.8800065
0
ARC
8
DEFAULT_255_2_778
10
15.5573428
20
9.0799061
40
0.0376304
50
353.530983
51
359.9912545
0
ARC
8
DEFAULT_255_2_778
10
17.4723694
20
8.8687574
40
1.8890018
50
173.7115734
51
175.3595493
0
ARC
8
DEFAULT_255_2_778
10
11.3955409
20
9.3442167
40
4.2064103
50
353.8019272
51
355.6010607
0
ARC
8
DEFAULT_255_2_778
10
13.2248687
20
9.157772
40
2.3676772
50
349.953218
51
353.5079001
0
ARC
8
DEFAULT_255_2_778
10
12.6345593
20
9.2638829
40
2.9674462
50
346.8507554
51
349.9241982
0
ARC
8
DEFAULT_255_2_778
10
11.4753254
20
9.5350397
40
4.1579711
50
344.0947503
51
346.846138
0
ARC
8
DEFAULT_255_2_778
10
11.0045849
20
9.6622962
40
4.6455688
50
344.1547078
51
344.176404
0
ARC
8
DEFAULT_255_2_778
10
13.101252
20
9.1517885
40
2.49051
50
319.6732771
51
342.2824979
0
ARC
8
DEFAULT_255_2_778
10
6.7916593
20
13.3835763
40
0.2200439
50
326.6374015
51
2.8367761
0
ARC
8
DEFAULT_255_2_778
10
6.8541267
20
13.3510141
40
0.1501343
50
323.1934305
51
323.9050563
0
ARC
8
DEFAULT_255_2_778
10
6.8067002
20
13.3894064
40
0.2111211
50
290.5861339
51
322.5623659
0
ARC
8
DEFAULT_255_2_778
10
6.7351074
20
13.570746
40
0.4060675
50
273.3355194
51
291.0460474
0
ARC
8
DEFAULT_255_2_778
10
6.6244758
20
15.2500406
40
2.088993
50
270.242946
51
273.6848889
0
ARC
8
DEFAULT_255_2_778
10
6.6634055
20
12.7958536
40
0.8394129
50
81.6962994
51
90.0322111
0
ARC
8
DEFAULT_255_2_778
10
6.7439749
20
13.2738213
40
0.3549812
50
64.4042502
51
83.4230564
0
ARC
8
DEFAULT_255_2_778
10
6.799551
20
13.3993516
40
0.2177989
50
33.9439245
51
63.3231391
0
ARC
8
DEFAULT_255_2_778
10
6.7893051
20
13.4035678
40
0.2241342
50
357.5448439
51
31.5866497
0
LINE
8
DEFAULT_255_2_778
10
8.7312336
20
16.8009664
11
8.7312336
21
16.8006664
0
LINE
8
DEFAULT_255_2_778
10
13.7011336
20
13.8368664
11
13.4143336
21
13.5264664
0
LINE
8
DEFAULT_255_2_778
10
12.2993336
20
12.2088664
11
12.5941336
21
12.5326664
0
LINE
8
DEFAULT_255_2_778
10
13.2177336
20
12.7202664
11
13.2198336
21
12.7197664
0
LINE
8
DEFAULT_255_2_778
10
10.8862336
20
13.9834664
11
11.3016336
21
13.9834664
0
LINE
8
DEFAULT_255_2_778
10
11.3016336
20
13.9834664
11
11.3016336
21
12.4011664
0
LINE
8
DEFAULT_255_2_778
10
11.3016336
20
12.4011664
11
12.1125336
21
12.4011664
0
LINE
8
DEFAULT_255_2_778
10
12.1125336
20
12.4011664
11
12.1125336
21
12.0191664
0
LINE
8
DEFAULT_255_2_778
10
12.1125336
20
12.0191664
11
10.8865336
21
12.0191664
0
LINE
8
DEFAULT_255_2_778
10
10.8865336
20
12.0191664
11
10.8865336
21
13.9831664
0
LINE
8
DEFAULT_255_2_778
10
10.8865336
20
13.9831664
11
10.8862336
21
13.9834664
0
LINE
8
DEFAULT_255_2_778
10
9.9824336
20
13.9834664
11
10.3978336
21
13.9834664
0
LINE
8
DEFAULT_255_2_778
10
10.3978336
20
13.9834664
11
10.3978336
21
12.0194664
0
LINE
8
DEFAULT_255_2_778
10
10.3978336
20
12.0194664
11
9.9824336
21
12.0194664
0
LINE
8
DEFAULT_255_2_778
10
9.9824336
20
12.0194664
11
9.9824336
21
13.9834664
0
LINE
8
DEFAULT_255_2_778
10
8.5245336
20
13.9834664
11
8.8719336
21
13.9834664
0
LINE
8
DEFAULT_255_2_778
10
8.8719336
20
13.9834664
11
9.7265336
21
12.0194664
0
LINE
8
DEFAULT_255_2_778
10
9.7265336
20
12.0194664
11
9.2577336
21
12.0194664
0
LINE
8
DEFAULT_255_2_778
10
9.2577336
20
12.0194664
11
9.0868336
21
12.4406664
0
LINE
8
DEFAULT_255_2_778
10
9.0868336
20
12.4406664
11
8.2996336
21
12.4406664
0
LINE
8
DEFAULT_255_2_778
10
8.2996336
20
12.4406664
11
8.1340336
21
12.0194664
0
LINE
8
DEFAULT_255_2_778
10
8.1340336
20
12.0194664
11
7.6763336
21
12.0194664
0
LINE
8
DEFAULT_255_2_778
10
7.6763336
20
12.0194664
11
8.5245336
21
13.9834664
0
LINE
8
DEFAULT_255_2_778
10
5.9501336
20
13.9834664
11
6.7074336
21
13.9834664
0
LINE
8
DEFAULT_255_2_778
10
7.0407336
20
12.8613664
11
7.0103336
21
12.8546664
0
LINE
8
DEFAULT_255_2_778
10
7.0103336
20
12.8546664
11
7.5125336
21
12.0194664
0
LINE
8
DEFAULT_255_2_778
10
7.5125336
20
12.0194664
11
7.0145336
21
12.0194664
0
LINE
8
DEFAULT_255_2_778
10
7.0145336
20
12.0194664
11
6.5992336
21
12.8131664
0
LINE
8
DEFAULT_255_2_778
10
6.5992336
20
12.8131664
11
6.3653336
21
12.8131664
0
LINE
8
DEFAULT_255_2_778
10
6.3653336
20
12.8131664
11
6.3653336
21
12.0194664
0
LINE
8
DEFAULT_255_2_778
10
6.3653336
20
12.0194664
11
5.9499336
21
12.0194664
0
LINE
8
DEFAULT_255_2_778
10
5.9499336
20
12.0194664
11
5.9499336
21
13.9831664
0
LINE
8
DEFAULT_255_2_778
10
5.9499336
20
13.9831664
11
5.9501336
21
13.9834664
0
LINE
8
DEFAULT_255_2_778
10
5.5249336
20
13.7894664
11
5.2321336
21
13.4698664
0
LINE
8
DEFAULT_255_2_778
10
5.1609336
20
12.4474664
11
5.1635336
21
12.4490664
0
LINE
8
DEFAULT_255_2_778
10
5.1635336
20
12.4490664
11
5.1680336
21
12.4533664
0
LINE
8
DEFAULT_255_2_778
10
5.1680336
20
12.4533664
11
5.1725336
21
12.4612664
0
LINE
8
DEFAULT_255_2_778
10
5.1725336
20
12.4612664
11
5.1725336
21
12.7946664
0
LINE
8
DEFAULT_255_2_778
10
5.1725336
20
12.7946664
11
4.8164336
21
12.7946664
0
LINE
8
DEFAULT_255_2_778
10
4.8164336
20
12.7946664
11
4.8164336
21
13.1756664
0
LINE
8
DEFAULT_255_2_778
10
4.8164336
20
13.1756664
11
5.5710336
21
13.1756664
0
LINE
8
DEFAULT_255_2_778
10
5.5710336
20
13.1756664
11
5.5710336
21
12.1553664
0
LINE
8
DEFAULT_255_2_778
10
3.7673336
20
13.4288664
11
3.7678336
21
13.4296664
0
LINE
8
DEFAULT_255_2_778
10
5.9544336
20
4.0488664
11
6.0742336
21
3.7678664
0
LINE
8
DEFAULT_255_2_778
10
5.0082336
20
3.3511664
11
5.0074336
21
3.3511664
0
LINE
8
DEFAULT_255_2_778
10
3.9419336
20
3.7681664
11
4.0618336
21
4.0490664
0
LINE
8
DEFAULT_255_2_778
10
6.4790336
20
6.6906664
11
6.4785336
21
6.6906664
0
LINE
8
DEFAULT_255_2_778
10
10.2433336
20
2.8018664
11
10.4377336
21
2.3467664
0
LINE
8
DEFAULT_255_2_778
10
8.7068336
20
1.6710664
11
8.7055336
21
1.6710664
0
LINE
8
DEFAULT_255_2_778
10
6.9751336
20
2.3467664
11
7.1691336
21
2.8018664
0
LINE
8
DEFAULT_255_2_778
10
8.7095336
20
11.0568664
11
13.7524336
21
11.0325664
0
LINE
8
DEFAULT_255_2_778
10
9.8011336
20
3.8342664
11
9.7953336
21
3.8342664
0
LINE
8
DEFAULT_255_2_778
10
13.4003336
20
4.0488664
11
13.5201336
21
3.7678664
0
LINE
8
DEFAULT_255_2_778
10
12.4541336
20
3.3508664
11
12.4533336
21
3.3508664
0
LINE
8
DEFAULT_255_2_778
10
11.3871336
20
3.7675664
11
11.5069336
21
4.0485664
0
LINE
8
DEFAULT_255_2_778
10
13.7196336
20
9.1317664
11
15.5595336
21
9.1171664
0
LINE
8
DEFAULT_255_2_778
10
14.9999336
20
7.5400664
11
14.9999336
21
7.5405664
0
LINE
8
DEFAULT_255_2_778
10
6.6333336
20
13.1610664
11
6.3658336
21
13.1610664
0
LINE
8
DEFAULT_255_2_778
10
6.3658336
20
13.1610664
11
6.3658336
21
13.6352664
0
LINE
8
DEFAULT_255_2_778
10
6.3658336
20
13.6352664
11
6.6629336
21
13.6352664
0
LINE
8
DEFAULT_255_2_778
10
7.0132336
20
13.3939664
11
7.0114336
21
13.3944664
0
LINE
8
DEFAULT_255_2_778
10
8.6830336
20
13.4473664
11
8.9434336
21
12.7880664
0
LINE
8
DEFAULT_255_2_778
10
8.9434336
20
12.7880664
11
8.4248336
21
12.7880664
0
LINE
8
DEFAULT_255_2_778
10
8.4248336
20
12.7880664
11
8.6830336
21
13.4473664
0
ENDSEC
0
EOF