0
SECTION
2
HEADER
9
$MEASUREMENT
70
1
0
ENDSEC
0
SECTION
2
TABLES
0
TABLE
2
LTYPE
0
LTYPE
72
65
70
64
2
CONTINUOUS
3
______
73
0
40
0
0
ENDTAB
0
TABLE
2
LAYER
0
LAYER
2
DEFAULT_255_2_778
70
0
62
255
6
CONTINUOUS
0
ENDTAB
0
ENDSEC
0
SECTION
2
ENTITIES
0
ARC
8
DEFAULT_255_2_778
10
1.3297438
20
0.942449
40
0.9716602
50
339.1100548
51
0.61566
0
ARC
8
DEFAULT_255_2_778
10
1.5065599
20
0.8830795
40
0.7853337
50
282.038114
51
338.556951
0
ARC
8
DEFAULT_255_2_778
10
1.4142614
20
1.1952452
40
1.1101698
50
269.7102881
51
283.3368744
0
ARC
8
DEFAULT_255_2_778
10
1.3973862
20
1.0319613
40
0.9469387
50
244.8145851
51
270.6814232
0
ARC
8
DEFAULT_255_2_778
10
1.3977082
20
0.9909031
40
0.9100941
50
206.2598393
51
243.6961858
0
ARC
8
DEFAULT_255_2_778
10
1.7645502
20
1.1875201
40
1.3261427
50
190.1801464
51
206.8655367
0
ARC
8
DEFAULT_255_2_778
10
2.2618774
20
1.2842212
40
1.8327462
50
179.7540181
51
190.407716
0
ARC
8
DEFAULT_255_2_778
10
2.1854527
20
1.303109
40
1.7563393
50
167.9831354
51
180.3594815
0
ARC
8
DEFAULT_255_2_778
10
1.6502925
20
1.4209277
40
1.2083827
50
150.1230998
51
168.1641065
0
ARC
8
DEFAULT_255_2_778
10
1.3624245
20
1.5885036
40
0.8752993
50
93.4711027
51
150.2479034
0
ARC
8
DEFAULT_255_2_778
10
1.407817
20
1.3098924
40
1.1564975
50
89.95883
51
94.880265
0
ARC
8
DEFAULT_255_2_778
10
1.4196516
20
1.5091272
40
0.9573256
50
65.1261811
51
90.6585817
0
ARC
8
DEFAULT_255_2_778
10
1.4605289
20
1.6236644
40
0.8362931
50
18.4606337
51
64.3662632
0
ARC
8
DEFAULT_255_2_778
10
1.3018697
20
1.5525598
40
1.0094501
50
15.9520373
51
19.4372712
0
ARC
8
DEFAULT_255_2_778
10
1.5028181
20
1.6348963
40
1.0613152
50
10.5924685
51
44.8252108
0
ARC
8
DEFAULT_255_2_778
10
1.4715925
20
1.5853321
40
1.1184797
50
45.4984244
51
78.0811416
0
ARC
8
DEFAULT_255_2_778
10
1.4131301
20
1.3610365
40
1.3500575
50
77.6194343
51
90.1477811
0
ARC
8
DEFAULT_255_2_778
10
1.3989334
20
1.3801409
40
1.3309918
50
89.5387619
51
108.5907537
0
ARC
8
DEFAULT_255_2_778
10
1.3477248
20
1.5667082
40
1.1378865
50
109.1417362
51
157.7235557
0
ARC
8
DEFAULT_255_2_778
10
1.7718974
20
1.3662882
40
1.6065649
50
156.8437637
51
172.3660095
0
ARC
8
DEFAULT_255_2_778
10
2.2235864
20
1.2964881
40
2.0635436
50
172.1112023
51
180.1276829
0
ARC
8
DEFAULT_255_2_778
10
2.1804377
20
1.2814927
40
2.0204165
50
179.7051606
51
192.3287288
0
ARC
8
DEFAULT_255_2_778
10
1.6747491
20
1.1674146
40
1.502036
50
192.1962679
51
209.8184514
0
ARC
8
DEFAULT_255_2_778
10
1.3606243
20
0.9798809
40
1.1362663
50
209.4904032
51
263.4727291
0
ARC
8
DEFAULT_255_2_778
10
1.4078706
20
1.2357849
40
1.3959964
50
262.7400967
51
270.0729475
0
ARC
8
DEFAULT_255_2_778
10
1.421157
20
1.3176356
40
1.4778909
50
269.5538042
51
284.2419117
0
ARC
8
DEFAULT_255_2_778
10
1.5365753
20
0.8844306
40
1.0296188
50
283.9472363
51
310.8115125
0
ARC
8
DEFAULT_255_2_778
10
1.543674
20
0.8486581
40
0.9980669
50
311.8452999
51
342.9519652
0
ARC
8
DEFAULT_255_2_778
10
1.1290597
20
0.9856269
40
1.4346492
50
342.5766962
51
357.8673932
0
ARC
8
DEFAULT_255_2_778
10
0.7595409
20
1.0135626
40
1.8050073
50
357.4177302
51
0.0167259
0
ARC
8
DEFAULT_255_2_778
10
4.396789
20
1.8630886
40
0.8706297
50
359.2695547
51
22.9163981
0
ARC
8
DEFAULT_255_2_778
10
4.5212509
20
1.9017968
40
0.7410293
50
23.9069658
51
72.6341805
0
ARC
8
DEFAULT_255_2_778
10
4.3921091
20
1.5482613
40
1.117136
50
71.7245477
51
89.4937332
0
ARC
8
DEFAULT_255_2_778
10
4.3765097
20
1.2898747
40
1.3757148
50
88.9391501
51
90.002571
0
ARC
8
DEFAULT_255_2_778
10
4.4835488
20
1.8496484
40
0.8052129
50
283.7435097
51
313.8413381
0
ARC
8
DEFAULT_255_2_778
10
4.4959559
20
1.8141919
40
0.7712034
50
315.0011976
51
353.8741501
0
ARC
8
DEFAULT_255_2_778
10
4.2893866
20
1.8529025
40
0.980862
50
352.9134292
51
0.0693381
0
ARC
8
DEFAULT_255_2_778
10
4.3570356
20
1.553188
40
0.8743744
50
72.6333875
51
90.7396719
0
ARC
8
DEFAULT_255_2_778
10
4.4733501
20
1.8906561
40
0.5176741
50
6.8969728
51
73.7715979
0
ARC
8
DEFAULT_255_2_778
10
4.2490041
20
1.8433488
40
0.7463463
50
359.8495955
51
8.4344107
0
ARC
8
DEFAULT_255_2_778
10
4.339834
20
1.829464
40
0.6556224
50
336.4435696
51
1.0422528
0
ARC
8
DEFAULT_255_2_778
10
4.4729752
20
1.7852375
40
0.5160566
50
283.8225086
51
335.0368079
0
ARC
8
DEFAULT_255_2_778
10
4.3651297
20
2.1307994
40
0.8776569
50
269.4071064
51
285.2694839
0
ARC
8
DEFAULT_255_2_778
10
9.914762
20
1.9562734
40
1.0237309
50
269.4507224
51
290.8178093
0
ARC
8
DEFAULT_255_2_778
10
9.9922473
20
1.7498995
40
0.8032927
50
290.8832945
51
353.9442981
0
ARC
8
DEFAULT_255_2_778
10
9.7638426
20
1.7990646
40
1.0359063
50
352.5727526
51
0.0732808
0
ARC
8
DEFAULT_255_2_778
10
9.8618699
20
1.8103199
40
0.9379306
50
359.3933712
51
22.7725924
0
ARC
8
DEFAULT_255_2_778
10
9.9925576
20
1.8545578
40
0.8003667
50
23.4739002
51
77.521862
0
ARC
8
DEFAULT_255_2_778
10
9.9128071
20
1.5897877
40
1.0763124
50
76.4220697
51
90.2533443
0
ARC
8
DEFAULT_255_2_778
10
9.8566415
20
1.5190622
40
0.9084976
50
72.7657602
51
90.712262
0
ARC
8
DEFAULT_255_2_778
10
9.9709144
20
1.8554172
40
0.553469
50
8.3722249
51
73.7479431
0
ARC
8
DEFAULT_255_2_778
10
9.7290736
20
1.799779
40
0.8010792
50
359.8004877
51
9.7908487
0
ARC
8
DEFAULT_255_2_778
10
9.8292675
20
1.7852521
40
0.7009787
50
336.3017555
51
0.959431
0
ARC
8
DEFAULT_255_2_778
10
9.9609282
20
1.7408782
40
0.5627198
50
284.4334347
51
335.0508088
0
ARC
8
DEFAULT_255_2_778
10
9.8546356
20
2.0735729
40
0.9116276
50
269.43512
51
285.6912875
0
ARC
8
DEFAULT_255_2_778
10
15.7730079
20
1.5510783
40
0.9142363
50
57.2078179
51
90.4236504
0
ARC
8
DEFAULT_255_2_778
10
15.8205666
20
1.6273702
40
0.8243458
50
10.8603162
51
57.1147239
0
ARC
8
DEFAULT_255_2_778
10
15.8461231
20
1.6382441
40
1.0579322
50
7.847429
51
73.3083868
0
ARC
8
DEFAULT_255_2_778
10
15.7706753
20
1.4489439
40
1.2610533
50
72.4951703
51
90.2011571
0
ARC
8
DEFAULT_255_2_778
10
15.755312
20
1.3965839
40
1.3134512
50
89.5229403
51
108.7273863
0
ARC
8
DEFAULT_255_2_778
10
15.7053732
20
1.5796881
40
1.1240663
50
109.3132484
51
156.7429209
0
ARC
8
DEFAULT_255_2_778
10
16.1314408
20
1.37071
40
1.5982057
50
155.8910522
51
171.3992189
0
ARC
8
DEFAULT_255_2_778
10
16.6266996
20
1.2874627
40
2.1003607
50
171.1742835
51
180.1683983
0
ARC
8
DEFAULT_255_2_778
10
16.6056418
20
1.2708025
40
2.0793203
50
179.711026
51
191.4945625
0
ARC
8
DEFAULT_255_2_778
10
16.057527
20
1.1556039
40
1.5192469
50
191.3564371
51
208.0151467
0
ARC
8
DEFAULT_255_2_778
10
15.703311
20
0.956765
40
1.1131789
50
207.5435338
51
261.0908586
0
ARC
8
DEFAULT_255_2_778
10
15.7628382
20
1.2385991
40
1.4009137
50
260.4707399
51
270.1394553
0
ARC
8
DEFAULT_255_2_778
10
15.777134
20
1.2585126
40
1.4208647
50
269.5610197
51
286.1166521
0
ARC
8
DEFAULT_255_2_778
10
15.9137406
20
0.8467057
40
0.9874664
50
285.1346992
51
341.8944235
0
ARC
8
DEFAULT_255_2_778
10
15.7469446
20
0.9069699
40
1.1647444
50
341.6265653
51
350.0437253
0
ARC
8
DEFAULT_255_2_778
10
15.8831258
20
0.8636774
40
0.7635666
50
284.1244685
51
348.051133
0
ARC
8
DEFAULT_255_2_778
10
15.7745529
20
1.1759713
40
1.0933011
50
269.659101
51
285.6487095
0
ARC
8
DEFAULT_255_2_778
10
15.756709
20
1.0284652
40
0.9458436
50
245.267134
51
270.686892
0
ARC
8
DEFAULT_255_2_778
10
15.7520234
20
0.9767967
40
0.8971223
50
206.2331166
51
244.1582394
0
ARC
8
DEFAULT_255_2_778
10
16.1204875
20
1.1738941
40
1.3148313
50
190.11987
51
206.8400106
0
ARC
8
DEFAULT_255_2_778
10
16.6313107
20
1.2726823
40
1.8350806
50
179.746869
51
190.3538983
0
ARC
8
DEFAULT_255_2_778
10
16.5467501
20
1.2914425
40
1.7505346
50
167.635132
51
180.3486769
0
ARC
8
DEFAULT_255_2_778
10
16.0342284
20
1.4077492
40
1.225002
50
149.5398143
51
167.8156399
0
ARC
8
DEFAULT_255_2_778
10
15.735163
20
1.5900364
40
0.8748221
50
92.1650167
51
149.9013533
0
ARC
8
DEFAULT_255_2_778
10
15.7659289
20
1.3678838
40
1.0982058
50
89.9833559
51
93.3312269
0
LINE
8
DEFAULT_255_2_778
10
1.437448
20
1.0502896
11
2.301348
21
1.0502896
0
LINE
8
DEFAULT_255_2_778
10
2.301348
20
1.0502896
11
2.301348
21
0.9528896
0
LINE
8
DEFAULT_255_2_778
10
2.272448
20
1.8299896
11
2.546048
21
1.8299896
0
LINE
8
DEFAULT_255_2_778
10
2.564548
20
1.0140896
11
2.564548
21
1.2785896
0
LINE
8
DEFAULT_255_2_778
10
2.564548
20
1.2785896
11
1.437448
21
1.2785896
0
LINE
8
DEFAULT_255_2_778
10
1.437448
20
1.2785896
11
1.437448
21
1.0502896
0
LINE
8
DEFAULT_255_2_778
10
4.376448
20
2.6655896
11
3.382648
21
2.6655896
0
LINE
8
DEFAULT_255_2_778
10
3.382648
20
2.6655896
11
3.382648
21
-0.1168104
0
LINE
8
DEFAULT_255_2_778
10
3.382648
20
-0.1168104
11
3.647248
21
-0.1168104
0
LINE
8
DEFAULT_255_2_778
10
3.647248
20
-0.1168104
11
3.647248
21
1.0251896
0
LINE
8
DEFAULT_255_2_778
10
3.647248
20
1.0251896
11
4.401348
21
1.0251896
0
LINE
8
DEFAULT_255_2_778
10
4.401348
20
1.0251896
11
5.041648
21
-0.1144104
0
LINE
8
DEFAULT_255_2_778
10
5.041648
20
-0.1144104
11
5.348548
21
-0.1144104
0
LINE
8
DEFAULT_255_2_778
10
5.348548
20
-0.1144104
11
4.674848
21
1.0674896
0
LINE
8
DEFAULT_255_2_778
10
5.270248
20
1.8540896
11
5.267348
21
1.8519896
0
LINE
8
DEFAULT_255_2_778
10
4.355248
20
1.2561896
11
3.644648
21
1.2561896
0
LINE
8
DEFAULT_255_2_778
10
3.644648
20
1.2561896
11
3.644648
21
2.4274896
0
LINE
8
DEFAULT_255_2_778
10
3.644648
20
2.4274896
11
4.345748
21
2.4274896
0
LINE
8
DEFAULT_255_2_778
10
4.356048
20
1.2531896
11
4.355248
21
1.2561896
0
LINE
8
DEFAULT_255_2_778
10
6.914348
20
2.6655896
11
5.872948
21
-0.1168104
0
LINE
8
DEFAULT_255_2_778
10
5.872948
20
-0.1168104
11
6.152348
21
-0.1168104
0
LINE
8
DEFAULT_255_2_778
10
6.152348
20
-0.1168104
11
6.459248
21
0.7356896
0
LINE
8
DEFAULT_255_2_778
10
6.459248
20
0.7356896
11
7.626548
21
0.7356896
0
LINE
8
DEFAULT_255_2_778
10
7.626548
20
0.7356896
11
7.933548
21
-0.1168104
0
LINE
8
DEFAULT_255_2_778
10
7.933548
20
-0.1168104
11
8.209948
21
-0.1168104
0
LINE
8
DEFAULT_255_2_778
10
8.209948
20
-0.1168104
11
7.176748
21
2.6655896
0
LINE
8
DEFAULT_255_2_778
10
7.176748
20
2.6655896
11
6.914348
21
2.6655896
0
LINE
8
DEFAULT_255_2_778
10
6.540248
20
0.9629896
11
7.039248
21
2.3401896
0
LINE
8
DEFAULT_255_2_778
10
7.039248
20
2.3401896
11
7.050848
21
2.3401896
0
LINE
8
DEFAULT_255_2_778
10
7.050848
20
2.3401896
11
7.550348
21
0.9634896
0
LINE
8
DEFAULT_255_2_778
10
7.550348
20
0.9634896
11
6.540248
21
0.9629896
0
LINE
8
DEFAULT_255_2_778
10
9.905748
20
2.6655896
11
8.917248
21
2.6655896
0
LINE
8
DEFAULT_255_2_778
10
8.917248
20
2.6655896
11
8.917248
21
-0.1168104
0
LINE
8
DEFAULT_255_2_778
10
8.917248
20
-0.1168104
11
9.181848
21
-0.1168104
0
LINE
8
DEFAULT_255_2_778
10
9.181848
20
-0.1168104
11
9.181848
21
0.9325896
0
LINE
8
DEFAULT_255_2_778
10
9.181848
20
0.9325896
11
9.904948
21
0.9325896
0
LINE
8
DEFAULT_255_2_778
10
9.908048
20
2.6660896
11
9.905748
21
2.6655896
0
LINE
8
DEFAULT_255_2_778
10
9.844348
20
1.1672896
11
9.182348
21
1.1672896
0
LINE
8
DEFAULT_255_2_778
10
9.182348
20
1.1672896
11
9.182348
21
2.4274896
0
LINE
8
DEFAULT_255_2_778
10
9.182348
20
2.4274896
11
9.845348
21
2.4274896
0
LINE
8
DEFAULT_255_2_778
10
9.845648
20
1.1619896
11
9.844348
21
1.1672896
0
LINE
8
DEFAULT_255_2_778
10
13.459048
20
1.4280896
11
11.831848
21
1.4280896
0
LINE
8
DEFAULT_255_2_778
10
11.831848
20
1.4280896
11
11.831848
21
2.6655896
0
LINE
8
DEFAULT_255_2_778
10
11.831848
20
2.6655896
11
11.567248
21
2.6655896
0
LINE
8
DEFAULT_255_2_778
10
11.567248
20
2.6655896
11
11.567248
21
-0.1168104
0
LINE
8
DEFAULT_255_2_778
10
11.567248
20
-0.1168104
11
11.831848
21
-0.1168104
0
LINE
8
DEFAULT_255_2_778
10
11.831848
20
-0.1168104
11
11.831848
21
1.1891896
0
LINE
8
DEFAULT_255_2_778
10
11.831848
20
1.1891896
11
13.459048
21
1.1891896
0
LINE
8
DEFAULT_255_2_778
10
13.459048
20
1.1891896
11
13.459048
21
-0.1162104
0
LINE
8
DEFAULT_255_2_778
10
13.459048
20
-0.1162104
11
13.723148
21
-0.1162104
0
LINE
8
DEFAULT_255_2_778
10
13.723148
20
-0.1162104
11
13.723148
21
2.6655896
0
LINE
8
DEFAULT_255_2_778
10
13.723148
20
2.6655896
11
13.459048
21
2.6655896
0
LINE
8
DEFAULT_255_2_778
10
13.459048
20
2.6655896
11
13.459048
21
1.4280896
0
LINE
8
DEFAULT_255_2_778
10
16.630148
20
1.7826896
11
16.894148
21
1.7826896
0
LINE
8
DEFAULT_255_2_778
10
16.894148
20
0.7055896
11
16.630148
21
0.7055896
0
LINE
8
DEFAULT_255_2_778
10
15.766248
20
2.4660896
11
15.766248
21
2.4652896
0
ARC
8
DEFAULT_255_2_778
10
18.8168698
20
1.3279356
40
1.3821386
50
89.5517291
51
107.2139875
0
ARC
8
DEFAULT_255_2_778
10
18.7509587
20
1.5664957
40
1.1347844
50
107.5997914
51
158.5228337
0
ARC
8
DEFAULT_255_2_778
10
19.215404
20
1.3531801
40
1.6453277
50
157.531846
51
172.5919113
0
ARC
8
DEFAULT_255_2_778
10
19.7152252
20
1.2783466
40
2.1506477
50
172.3317823
51
180.1335988
0
ARC
8
DEFAULT_255_2_778
10
19.6070459
20
1.2624779
40
2.0424915
50
179.6955256
51
191.6739921
0
ARC
8
DEFAULT_255_2_778
10
19.0606964
20
1.1460557
40
1.4838901
50
191.5402371
51
208.5501424
0
ARC
8
DEFAULT_255_2_778
10
18.7474154
20
0.9720404
40
1.1255419
50
208.3908481
51
261.2752208
0
ARC
8
DEFAULT_255_2_778
10
18.8236986
20
1.3161168
40
1.4773904
50
260.3751353
51
270.1545355
0
ARC
8
DEFAULT_255_2_778
10
18.8387836
20
1.2188099
40
1.3801227
50
269.5391685
51
287.5680902
0
ARC
8
DEFAULT_255_2_778
10
18.9040451
20
0.9850864
40
1.1376324
50
287.9875827
51
338.549743
0
ARC
8
DEFAULT_255_2_778
10
18.4445287
20
1.1956097
40
1.6425445
50
337.5765015
51
352.6759276
0
ARC
8
DEFAULT_255_2_778
10
17.9541879
20
1.2685138
40
2.1382008
50
352.4133242
51
0.1291049
0
ARC
8
DEFAULT_255_2_778
10
18.0588903
20
1.2839259
40
2.0335206
50
359.7015025
51
11.7170704
0
ARC
8
DEFAULT_255_2_778
10
18.5959881
20
1.3991446
40
1.4842208
50
11.5725191
51
28.8544647
0
ARC
8
DEFAULT_255_2_778
10
18.9042333
20
1.5720397
40
1.1308112
50
28.718934
51
81.7183662
0
ARC
8
DEFAULT_255_2_778
10
18.8312485
20
1.2347947
40
1.4752415
50
80.7999076
51
90.1384657
0
ARC
8
DEFAULT_255_2_778
10
18.8165328
20
1.0931069
40
1.0094367
50
248.0055889
51
270.6329163
0
ARC
8
DEFAULT_255_2_778
10
18.7912232
20
0.9889985
40
0.9035597
50
204.3029842
51
247.0212298
0
ARC
8
DEFAULT_255_2_778
10
19.1776623
20
1.1833861
40
1.3358789
50
188.7404852
51
205.0800777
0
ARC
8
DEFAULT_255_2_778
10
19.6631175
20
1.2671333
40
1.8284447
50
179.8057639
51
189.0226713
0
ARC
8
DEFAULT_255_2_778
10
19.5904694
20
1.2839174
40
1.755818
50
167.8302226
51
180.3454295
0
ARC
8
DEFAULT_255_2_778
10
19.0729141
20
1.399747
40
1.2254826
50
149.6264851
51
168.0229044
0
ARC
8
DEFAULT_255_2_778
10
18.7868824
20
1.5701254
40
0.8925633
50
92.9760483
51
149.7783601
0
ARC
8
DEFAULT_255_2_778
10
18.8270679
20
1.3102222
40
1.1545098
50
89.9694605
51
94.2981301
0
ARC
8
DEFAULT_255_2_778
10
18.8390758
20
1.4559848
40
1.0088114
50
67.6318708
51
90.6470552
0
ARC
8
DEFAULT_255_2_778
10
18.8641072
20
1.5578114
40
0.9052549
50
24.6284036
51
66.6442828
0
ARC
8
DEFAULT_255_2_778
10
18.4830716
20
1.3646406
40
1.332234
50
8.8280358
51
25.3513081
0
ARC
8
DEFAULT_255_2_778
10
17.9953514
20
1.2796485
40
1.8272429
50
359.8019294
51
9.11448
0
ARC
8
DEFAULT_255_2_778
10
18.070953
20
1.2625776
40
1.7516634
50
347.789751
51
0.351767
0
ARC
8
DEFAULT_255_2_778
10
18.5893817
20
1.1463914
40
1.2203955
50
329.6325881
51
347.9733326
0
ARC
8
DEFAULT_255_2_778
10
18.8699002
20
0.9801551
40
0.8943255
50
272.8957356
51
329.7360389
0
ARC
8
DEFAULT_255_2_778
10
18.8282971
20
1.247678
40
1.1639463
50
269.9697866
51
274.2759109
0
LINE
8
DEFAULT_255_2_778
10
18.8276833
20
2.7100318
11
18.8276833
21
2.7100318
0
LINE
8
DEFAULT_255_2_778
10
18.8276833
20
0.0837318
11
18.8276833
21
0.0837318
0
ARC
8
DEFAULT_255_2_778
10
22.0363698
20
1.3279356
40
1.3821386
50
89.5517291
51
107.2139875
0
ARC
8
DEFAULT_255_2_778
10
21.9704587
20
1.5664957
40
1.1347844
50
107.5997914
51
158.5228337
0
ARC
8
DEFAULT_255_2_778
10
22.434904
20
1.3531801
40
1.6453277
50
157.531846
51
172.5919113
0
ARC
8
DEFAULT_255_2_778
10
22.9347252
20
1.2783466
40
2.1506477
50
172.3317823
51
180.1335988
0
ARC
8
DEFAULT_255_2_778
10
22.8265459
20
1.2624779
40
2.0424915
50
179.6955256
51
191.6739921
0
ARC
8
DEFAULT_255_2_778
10
22.2801964
20
1.1460557
40
1.4838901
50
191.5402371
51
208.5501424
0
ARC
8
DEFAULT_255_2_778
10
21.9669154
20
0.9720404
40
1.1255419
50
208.3908481
51
261.2752208
0
ARC
8
DEFAULT_255_2_778
10
22.0431986
20
1.3161168
40
1.4773904
50
260.3751353
51
270.1545355
0
ARC
8
DEFAULT_255_2_778
10
22.0582931
20
1.2189943
40
1.3803072
50
269.538835
51
287.5669199
0
ARC
8
DEFAULT_255_2_778
10
22.1236436
20
0.9849924
40
1.1375244
50
287.9861669
51
338.5526931
0
ARC
8
DEFAULT_255_2_778
10
21.6639211
20
1.1955809
40
1.6426508
50
337.5791172
51
352.677417
0
ARC
8
DEFAULT_255_2_778
10
21.1732803
20
1.2685153
40
2.1386085
50
352.4147392
51
0.129041
0
ARC
8
DEFAULT_255_2_778
10
21.2780706
20
1.2839287
40
2.0338404
50
359.7014699
51
11.7151211
0
ARC
8
DEFAULT_255_2_778
10
21.8154652
20
1.3991925
40
1.4842409
50
11.5704744
51
28.851927
0
ARC
8
DEFAULT_255_2_778
10
22.1238151
20
1.5721191
40
1.1307244
50
28.7167531
51
81.7206023
0
ARC
8
DEFAULT_255_2_778
10
22.0507515
20
1.2345144
40
1.4755218
50
80.8007804
51
90.1385572
0
ARC
8
DEFAULT_255_2_778
10
22.0360272
20
1.093006
40
1.0093358
50
248.0044698
51
270.6332982
0
ARC
8
DEFAULT_255_2_778
10
22.0107195
20
0.9888769
40
0.9034409
50
204.2979312
51
247.0192445
0
ARC
8
DEFAULT_255_2_778
10
22.3974112
20
1.1833577
40
1.3360271
50
188.7382772
51
205.0757606
0
ARC
8
DEFAULT_255_2_778
10
22.8831336
20
1.2671321
40
1.8288608
50
179.8057715
51
189.0205639
0
ARC
8
DEFAULT_255_2_778
10
22.8104518
20
1.2839192
40
1.7562004
50
167.8329762
51
180.3454154
0
ARC
8
DEFAULT_255_2_778
10
22.292588
20
1.3997935
40
1.2255542
50
149.6309694
51
168.0258396
0
ARC
8
DEFAULT_255_2_778
10
22.0063662
20
1.5702629
40
0.8924251
50
92.9754242
51
149.7834078
0
ARC
8
DEFAULT_255_2_778
10
22.0465677
20
1.3102446
40
1.1544874
50
89.9694485
51
94.298168
0
ARC
8
DEFAULT_255_2_778
10
22.0585758
20
1.4559848
40
1.0088114
50
67.6318708
51
90.6470552
0
ARC
8
DEFAULT_255_2_778
10
22.0836072
20
1.5578114
40
0.9052549
50
24.6284036
51
66.6442828
0
ARC
8
DEFAULT_255_2_778
10
21.7025716
20
1.3646406
40
1.332234
50
8.8280358
51
25.3513081
0
ARC
8
DEFAULT_255_2_778
10
21.2148514
20
1.2796485
40
1.8272429
50
359.8019294
51
9.11448
0
ARC
8
DEFAULT_255_2_778
10
21.290453
20
1.2625776
40
1.7516634
50
347.789751
51
0.351767
0
ARC
8
DEFAULT_255_2_778
10
21.8088817
20
1.1463914
40
1.2203955
50
329.6325881
51
347.9733326
0
ARC
8
DEFAULT_255_2_778
10
22.0894002
20
0.9801551
40
0.8943255
50
272.8957356
51
329.7360389
0
ARC
8
DEFAULT_255_2_778
10
22.0477971
20
1.247678
40
1.1639463
50
269.9697866
51
274.2759109
0
LINE
8
DEFAULT_255_2_778
10
22.0471833
20
2.7100318
11
22.0471833
21
2.7100318
0
LINE
8
DEFAULT_255_2_778
10
22.0471833
20
0.0837318
11
22.0471833
21
0.0837318
0
ARC
8
DEFAULT_255_2_778
10
15.5116278
20
8.6940785
40
0.5334397
50
60.9755079
51
78.1109063
0
ARC
8
DEFAULT_255_2_778
10
15.4982363
20
8.6368872
40
0.5921645
50
77.9830139
51
83.3773731
0
ARC
8
DEFAULT_255_2_778
10
15.4912176
20
8.5728338
40
0.6566001
50
83.4136205
51
90.0720908
0
ARC
8
DEFAULT_255_2_778
10
15.5005187
20
8.3497414
40
0.8797505
50
90.6595773
51
106.6649307
0
ARC
8
DEFAULT_255_2_778
10
15.5860963
20
8.0318046
40
1.2089097
50
106.2292328
51
112.8597313
0
ARC
8
DEFAULT_255_2_778
10
15.6282503
20
7.926868
40
1.3219815
50
112.7764178
51
113.1443882
0
ARC
8
DEFAULT_255_2_778
10
15.6332871
20
7.9156829
40
1.3342461
50
113.1544839
51
116.6224055
0
ARC
8
DEFAULT_255_2_778
10
15.6059953
20
7.9691681
40
1.274202
50
116.6030215
51
119.1383925
0
ARC
8
DEFAULT_255_2_778
10
15.5050826
20
8.1498726
40
1.0672301
50
119.1301774
51
120.9147138
0
ARC
8
DEFAULT_255_2_778
10
15.400301
20
8.325913
40
0.8623664
50
120.9510695
51
121.4588484
0
ARC
8
DEFAULT_255_2_778
10
13.1692628
20
7.803624
40
0.5623237
50
52.080116
51
89.9631656
0
LINE
8
DEFAULT_255_2_778
10
13.1696243
20
8.3659477
11
13.1689293
21
8.3659481
0
ARC
8
DEFAULT_255_2_778
10
13.1686248
20
7.8031988
40
0.5627494
50
89.9689972
51
128.6121173
0
ARC
8
DEFAULT_255_2_778
10
13.168678
20
7.8071404
40
0.5597083
50
128.8681659
51
180.011736
0
ARC
8
DEFAULT_255_2_778
10
13.167224
20
7.8070169
40
0.5582544
50
179.9990835
51
183.6049293
0
ARC
8
DEFAULT_255_2_778
10
13.1672261
20
7.8071171
40
0.5582627
50
183.6151812
51
206.0189597
0
ARC
8
DEFAULT_255_2_778
10
13.1690876
20
7.8076023
40
0.5601486
50
205.9800372
51
269.9784418
0
ARC
8
DEFAULT_255_2_778
10
13.168836
20
7.8062708
40
0.5588171
50
270.004193
51
279.2553235
0
ARC
8
DEFAULT_255_2_778
10
13.168106
20
7.8110255
40
0.5636273
50
279.250827
51
283.0364562
0
ARC
8
DEFAULT_255_2_778
10
13.1687699
20
7.8073279
40
0.5598752
50
283.0556242
51
359.9808881
0
ARC
8
DEFAULT_255_2_778
10
13.2393565
20
7.8072314
40
0.4892884
50
359.9894278
51
0.1163286
0
ARC
8
DEFAULT_255_2_778
10
13.1696471
20
7.8083859
40
0.5589969
50
359.9834874
51
10.1218065
0
ARC
8
DEFAULT_255_2_778
10
15.4725944
20
8.2296305
40
0.5844908
50
118.0275573
51
122.2914691
0
ARC
8
DEFAULT_255_2_778
10
15.5601218
20
8.0692731
40
0.7671729
50
116.7422972
51
118.1702835
0
ARC
8
DEFAULT_255_2_778
10
15.6116695
20
7.9654437
40
0.8830923
50
107.8366471
51
116.6977311
0
ARC
8
DEFAULT_255_2_778
10
15.5631947
20
8.111355
40
0.7293478
50
105.1406472
51
107.7226151
0
ARC
8
DEFAULT_255_2_778
10
15.504026
20
8.3519051
40
0.4817274
50
92.9094132
51
105.8203104
0
ARC
8
DEFAULT_255_2_778
10
15.4900059
20
8.5302104
40
0.3029808
50
90.0164627
51
91.972967
0
ARC
8
DEFAULT_255_2_778
10
15.4942318
20
8.6391414
40
0.1940976
50
70.3729127
51
91.2732476
0
ARC
8
DEFAULT_255_2_778
10
15.5158014
20
8.7081777
40
0.1218611
50
60.9660792
51
69.022109
0
ARC
8
DEFAULT_255_2_778
10
15.4767307
20
8.6633656
40
0.1804313
50
18.0161176
51
57.021471
0
ARC
8
DEFAULT_255_2_778
10
15.0715193
20
8.5014776
40
0.6165095
50
6.0569725
51
20.6773531
0
ARC
8
DEFAULT_255_2_778
10
14.4452494
20
8.417551
40
1.2482599
50
0.5863356
51
6.8545553
0
ARC
8
DEFAULT_255_2_778
10
15.2225256
20
6.63534
40
0.4709194
50
300.1488388
51
359.8764862
0
ARC
8
DEFAULT_255_2_778
10
13.1679169
20
5.4499223
40
0.4709474
50
270.0369414
51
299.8670985
0
LINE
8
DEFAULT_255_2_778
10
13.1682205
20
4.9789749
11
13.1678564
21
4.9789748
0
ARC
8
DEFAULT_255_2_778
10
13.167762
20
5.4495133
40
0.4705385
50
240.1196038
51
270.0114954
0
ARC
8
DEFAULT_255_2_778
10
11.1114519
20
6.6344684
40
0.469408
50
180.0175255
51
239.9571495
0
ARC
8
DEFAULT_255_2_778
10
11.1130844
20
9.009139
40
0.4710417
50
120.1573707
51
179.8679345
0
ARC
8
DEFAULT_255_2_778
10
13.154246
20
10.859729
40
0.5597908
50
221.0744176
51
270.0314669
0
ARC
8
DEFAULT_255_2_778
10
13.1545498
20
10.8600723
40
0.560134
50
270.0003725
51
272.450448
0
ARC
8
DEFAULT_255_2_778
10
13.154687
20
10.857764
40
0.5578219
50
272.4465093
51
300.600302
0
ARC
8
DEFAULT_255_2_778
10
13.1544108
20
10.8597721
40
0.5596914
50
300.5199922
51
359.9953566
0
ARC
8
DEFAULT_255_2_778
10
13.1575916
20
10.8597365
40
0.5565106
50
359.9989945
51
6.2763206
0
ARC
8
DEFAULT_255_2_778
10
13.1547669
20
10.8592776
40
0.5593685
50
6.2914151
51
20.0470882
0
ARC
8
DEFAULT_255_2_778
10
13.15404
20
10.8591568
40
0.5600927
50
20.0332091
51
89.9679195
0
ARC
8
DEFAULT_255_2_778
10
13.154466
20
10.8564984
40
0.562751
50
90.0114426
51
99.4423413
0
ARC
8
DEFAULT_255_2_778
10
13.1538997
20
10.8598536
40
0.5593484
50
99.4415027
51
178.958073
0
ARC
8
DEFAULT_255_2_778
10
11.1070647
20
9.0090848
40
0.8677215
50
120.0961175
51
179.9247249
0
ARC
8
DEFAULT_255_2_778
10
11.1070651
20
6.635465
40
0.867722
50
180.0752865
51
239.9038647
0
ARC
8
DEFAULT_255_2_778
10
13.1614047
20
5.4497063
40
0.8672566
50
240.0814043
51
270.0091992
0
ARC
8
DEFAULT_255_2_778
10
13.1616832
20
5.4497063
40
0.8672566
50
269.9908008
51
299.9185957
0
ARC
8
DEFAULT_255_2_778
10
15.2158116
20
6.6355867
40
0.8679331
50
300.1041627
51
359.9166946
0
ARC
8
DEFAULT_255_2_778
10
14.0750694
20
8.4280458
40
2.0097592
50
358.1174839
51
359.9825021
0
ARC
8
DEFAULT_255_2_778
10
14.6210062
20
8.4386962
40
1.4638657
50
359.5591156
51
10.0985887
0
ARC
8
DEFAULT_255_2_778
10
15.2353122
20
8.5533297
40
0.8389924
50
9.7473204
51
27.860856
0
ARC
8
DEFAULT_255_2_778
10
15.5015527
20
8.6935849
40
0.5380684
50
27.9059577
51
60.3121888
0
LINE
8
DEFAULT_255_2_778
10
24.3773439
20
0.1255248
11
24.3773439
21
2.6655248
0
LINE
8
DEFAULT_255_2_778
10
24.3773439
20
2.6655248
11
24.1127439
21
2.6655248
0
LINE
8
DEFAULT_255_2_778
10
24.1127439
20
2.6655248
11
24.1127439
21
-0.1167752
0
LINE
8
DEFAULT_255_2_778
10
24.1127439
20
-0.1167752
11
25.7690439
21
-0.1167752
0
LINE
8
DEFAULT_255_2_778
10
25.7690439
20
-0.1167752
11
25.7690439
21
0.1221248
0
LINE
8
DEFAULT_255_2_778
10
25.7690439
20
0.1221248
11
24.3773439
21
0.1255248
0
LINE
8
DEFAULT_255_2_778
10
14.9502439
20
9.0615248
11
13.5148439
21
8.2472248
0
LINE
8
DEFAULT_255_2_778
10
13.7199439
20
7.9066248
11
15.1603439
21
8.7237248
0
LINE
8
DEFAULT_255_2_778
10
15.6934439
20
8.4303248
11
15.6934439
21
6.6343248
0
LINE
8
DEFAULT_255_2_778
10
15.4590439
20
6.2281248
11
13.4024439
21
5.0415248
0
LINE
8
DEFAULT_255_2_778
10
12.9333439
20
5.0415248
11
10.8764439
21
6.2281248
0
LINE
8
DEFAULT_255_2_778
10
10.6420439
20
6.6343248
11
10.6420439
21
9.0102248
0
LINE
8
DEFAULT_255_2_778
10
10.8764439
20
9.4164248
11
12.7322439
21
10.4919248
0
LINE
8
DEFAULT_255_2_778
10
12.5946439
20
10.8700248
11
10.6719439
21
9.7598248
0
LINE
8
DEFAULT_255_2_778
10
10.2393439
20
9.0102248
11
10.2393439
21
6.6343248
0
LINE
8
DEFAULT_255_2_778
10
10.6719439
20
5.8847248
11
12.7288439
21
4.6980248
0
LINE
8
DEFAULT_255_2_778
10
13.5942439
20
4.6980248
11
15.6511439
21
5.8847248
0
LINE
8
DEFAULT_255_2_778
10
16.0837439
20
6.6343248
11
16.0837439
21
8.3620248
0
LINE
8
DEFAULT_255_2_778
10
15.7680439
20
9.1610248
11
15.7704439
21
9.1605248
0
ENDSEC
0
EOF