0
SECTION
2
HEADER
9
$MEASUREMENT
70
1
0
ENDSEC
0
SECTION
2
TABLES
0
TABLE
2
LTYPE
0
LTYPE
72
65
70
64
2
CONTINUOUS
3
______
73
0
40
0
0
ENDTAB
0
TABLE
2
LAYER
0
LAYER
2
DEFAULT_255_2_778
70
0
62
255
6
CONTINUOUS
0
ENDTAB
0
ENDSEC
0
SECTION
2
ENTITIES
0
ARC
8
DEFAULT_255_2_778
10
13.3551359
20
9.9448151
40
1.2933992
50
60.6175184
51
70.3923316
0
ARC
8
DEFAULT_255_2_778
10
13.3256749
20
9.8544161
40
1.3884451
50
70.4989313
51
82.8812899
0
ARC
8
DEFAULT_255_2_778
10
13.3073396
20
9.7392296
40
1.5050209
50
82.7320779
51
83.0948546
0
ARC
8
DEFAULT_255_2_778
10
13.2970475
20
9.6364094
40
1.608334
50
83.1712408
51
90.0758216
0
ARC
8
DEFAULT_255_2_778
10
13.3075314
20
9.2203265
40
2.0244547
50
90.3569537
51
102.7169155
0
ARC
8
DEFAULT_255_2_778
10
13.4290806
20
8.6361691
40
2.6210588
50
102.4977605
51
108.6480172
0
ARC
8
DEFAULT_255_2_778
10
13.5506867
20
8.2672753
40
3.0094713
50
108.5959816
51
112.5815089
0
ARC
8
DEFAULT_255_2_778
10
13.6060577
20
8.1301875
40
3.1573117
50
112.554008
51
113.3711308
0
ARC
8
DEFAULT_255_2_778
10
13.627323
20
8.0813283
40
3.2105979
50
113.3736081
51
115.725679
0
ARC
8
DEFAULT_255_2_778
10
13.6099478
20
8.1166621
40
3.1712245
50
115.7199718
51
117.583808
0
ARC
8
DEFAULT_255_2_778
10
13.5166052
20
8.2947958
40
2.9701167
50
117.5790092
51
119.163208
0
ARC
8
DEFAULT_255_2_778
10
13.3298757
20
8.6288156
40
2.5874457
50
119.1567585
51
120.5700124
0
ARC
8
DEFAULT_255_2_778
10
13.0210311
20
9.1507713
40
1.980962
50
120.5568287
51
121.8783897
0
ARC
8
DEFAULT_255_2_778
10
12.7324496
20
9.6165956
40
1.4329928
50
121.9165797
51
122.3757459
0
ARC
8
DEFAULT_255_2_778
10
7.5562419
20
7.7214464
40
1.3832737
50
51.8760729
51
74.7055456
0
ARC
8
DEFAULT_255_2_778
10
7.5552409
20
7.7164865
40
1.3883221
50
74.7196948
51
89.9006922
0
ARC
8
DEFAULT_255_2_778
10
7.5550955
20
7.7483654
40
1.3564435
50
89.8922168
51
90
0
ARC
8
DEFAULT_255_2_778
10
7.5543823
20
7.7203043
40
1.3845047
50
89.9704836
51
121.9973213
0
ARC
8
DEFAULT_255_2_778
10
7.559307
20
7.7133336
40
1.3930259
50
122.017183
51
128.9006546
0
ARC
8
DEFAULT_255_2_778
10
7.5519756
20
7.7204829
40
1.3828585
50
128.8502729
51
157.1616162
0
ARC
8
DEFAULT_255_2_778
10
7.5585454
20
7.7176139
40
1.390027
50
157.1577365
51
179.9913525
0
ARC
8
DEFAULT_255_2_778
10
7.5531547
20
7.7178172
40
1.3846362
50
179.9997285
51
183.5847695
0
ARC
8
DEFAULT_255_2_778
10
7.5500744
20
7.7176267
40
1.3815501
50
183.5848747
51
201.6561508
0
ARC
8
DEFAULT_255_2_778
10
7.5637678
20
7.7227874
40
1.3961815
50
201.6456053
51
205.8815879
0
ARC
8
DEFAULT_255_2_778
10
7.5505022
20
7.7201106
40
1.3830822
50
206.0217038
51
240.1499947
0
ARC
8
DEFAULT_255_2_778
10
7.5532487
20
7.7227221
40
1.3867147
50
240.105276
51
269.9721054
0
ARC
8
DEFAULT_255_2_778
10
7.5524558
20
7.7201123
40
1.3841048
50
270.0048726
51
279.4408384
0
ARC
8
DEFAULT_255_2_778
10
7.5504856
20
7.7327984
40
1.3969423
50
279.4352044
51
283.0503742
0
ARC
8
DEFAULT_255_2_778
10
7.5540439
20
7.7209782
40
1.3846242
50
283.0173823
51
323.9150622
0
ARC
8
DEFAULT_255_2_778
10
7.5558065
20
7.7216903
40
1.38362
50
323.8482449
51
0.0370224
0
ARC
8
DEFAULT_255_2_778
10
8.4079782
20
7.7227473
40
0.5314479
50
359.982425
51
0.0527266
0
ARC
8
DEFAULT_255_2_778
10
7.5351433
20
7.7212115
40
1.4042841
50
0.0826189
51
10.0859196
0
ARC
8
DEFAULT_255_2_778
10
13.1880374
20
8.8835804
40
1.3117565
50
119.6059496
51
122.3915798
0
ARC
8
DEFAULT_255_2_778
10
13.4134051
20
8.488093
40
1.7669496
50
117.0004709
51
119.6241419
0
ARC
8
DEFAULT_255_2_778
10
13.5072247
20
8.3076208
40
1.9703454
50
116.6929949
51
117.0487272
0
ARC
8
DEFAULT_255_2_778
10
13.6069423
20
8.104891
40
2.1962646
50
112.2283969
51
116.6413985
0
ARC
8
DEFAULT_255_2_778
10
13.5461755
20
8.2683848
40
2.021941
50
105.3486308
51
112.3870487
0
ARC
8
DEFAULT_255_2_778
10
13.3694006
20
8.9197794
40
1.3469901
50
97.3778778
51
105.4315296
0
ARC
8
DEFAULT_255_2_778
10
13.3051699
20
9.3979221
40
0.864561
50
90.2342799
51
97.2254929
0
ARC
8
DEFAULT_255_2_778
10
13.3061025
20
9.706636
40
0.5558578
50
78.7558581
51
90.460524
0
ARC
8
DEFAULT_255_2_778
10
13.3489663
20
9.9178894
40
0.3403023
50
61.3885554
51
78.898762
0
ARC
8
DEFAULT_255_2_778
10
13.3296543
20
9.9070704
40
0.3592409
50
28.6485028
51
59.5105405
0
ARC
8
DEFAULT_255_2_778
10
12.9003513
20
9.6521456
40
0.8583938
50
15.7211164
51
29.8429375
0
ARC
8
DEFAULT_255_2_778
10
12.0977524
20
9.4137671
40
1.6956012
50
7.8545598
51
16.1263663
0
ARC
8
DEFAULT_255_2_778
10
10.9381468
20
9.2479522
40
2.8669937
50
1.8694691
51
7.970247
0
ARC
8
DEFAULT_255_2_778
10
10.064616
20
9.2055473
40
3.7414687
50
0.8972537
51
2.082108
0
ARC
8
DEFAULT_255_2_778
10
12.6410862
20
4.8183247
40
1.164541
50
300.0721286
51
359.9120142
0
ARC
8
DEFAULT_255_2_778
10
7.5499669
20
1.8810991
40
1.1647377
50
269.9924472
51
299.9142713
0
LINE
8
DEFAULT_255_2_778
10
7.5498134
20
0.7163614
11
7.549449
21
0.7163615
0
ARC
8
DEFAULT_255_2_778
10
7.5496934
20
1.8815072
40
1.1651458
50
240.0911091
51
269.9879811
0
ARC
8
DEFAULT_255_2_778
10
2.4581437
20
4.8180811
40
1.1641189
50
180.0760273
51
239.93983
0
ARC
8
DEFAULT_255_2_778
10
2.4595324
20
10.6984898
40
1.1655089
50
120.099509
51
179.8846417
0
ARC
8
DEFAULT_255_2_778
10
7.518199
20
15.280994
40
1.382633
50
221.1522006
51
246.7157704
0
ARC
8
DEFAULT_255_2_778
10
7.521037
20
15.2884607
40
1.3906135
50
246.7299734
51
269.9989972
0
ARC
8
DEFAULT_255_2_778
10
7.5210209
20
15.2854561
40
1.387609
50
269.9996587
51
272.4259201
0
ARC
8
DEFAULT_255_2_778
10
7.5215732
20
15.2791587
40
1.3812939
50
272.4140866
51
294.2841264
0
ARC
8
DEFAULT_255_2_778
10
7.5160004
20
15.2915084
40
1.3948428
50
294.2841572
51
300.5376333
0
ARC
8
DEFAULT_255_2_778
10
7.5235437
20
15.2814075
40
1.3823109
50
300.4810668
51
330.3904817
0
ARC
8
DEFAULT_255_2_778
10
7.5174667
20
15.2852685
40
1.389502
50
330.3758771
51
359.9736319
0
ARC
8
DEFAULT_255_2_778
10
7.5266152
20
15.2846434
40
1.3803533
50
359.9994033
51
6.335828
0
ARC
8
DEFAULT_255_2_778
10
7.5210585
20
15.2837749
40
1.3859718
50
6.3461594
51
18.1730598
0
ARC
8
DEFAULT_255_2_778
10
7.5059898
20
15.2792475
40
1.4017011
50
18.1567833
51
19.8599451
0
ARC
8
DEFAULT_255_2_778
10
7.5243556
20
15.2830588
40
1.3831353
50
19.969913
51
54.1456763
0
ARC
8
DEFAULT_255_2_778
10
7.5214702
20
15.2813975
40
1.3861727
50
54.0892344
51
89.9658449
0
ARC
8
DEFAULT_255_2_778
10
7.5225507
20
15.2765845
40
1.3909855
50
90.0104686
51
99.3645477
0
ARC
8
DEFAULT_255_2_778
10
7.521963
20
15.2773854
40
1.3900996
50
99.3460174
51
99.4207965
0
ARC
8
DEFAULT_255_2_778
10
7.5211789
20
15.2838963
40
1.3835482
50
99.4328974
51
137.707127
0
ARC
8
DEFAULT_255_2_778
10
7.5202705
20
15.2821236
40
1.3840704
50
137.6275409
51
178.0995515
0
ARC
8
DEFAULT_255_2_778
10
7.5388191
20
15.2808488
40
1.4026511
50
178.072633
51
178.9016207
0
ARC
8
DEFAULT_255_2_778
10
2.4517376
20
10.6985849
40
2.1494143
50
120.095605
51
179.9106599
0
ARC
8
DEFAULT_255_2_778
10
2.4518597
20
4.8199584
40
2.1495365
50
180.0912136
51
239.9025218
0
ARC
8
DEFAULT_255_2_778
10
7.538424
20
1.8817139
40
2.1466218
50
240.0774153
51
262.6097775
0
ARC
8
DEFAULT_255_2_778
10
7.5391586
20
1.8863854
40
2.151349
50
262.6063783
51
270.0004606
0
ARC
8
DEFAULT_255_2_778
10
7.5395698
20
1.8826086
40
2.1475723
50
269.9894914
51
296.9387987
0
ARC
8
DEFAULT_255_2_778
10
7.536625
20
1.8881936
40
2.1538853
50
296.9413253
51
299.9127483
0
ARC
8
DEFAULT_255_2_778
10
12.626381
20
4.8200803
40
2.1497478
50
300.1007176
51
359.9055473
0
ARC
8
DEFAULT_255_2_778
10
9.6679632
20
9.262992
40
5.1109826
50
358.096634
51
359.0284926
0
ARC
8
DEFAULT_255_2_778
10
9.9497042
20
9.2582391
40
4.8292015
50
359.0281987
51
359.995385
0
ARC
8
DEFAULT_255_2_778
10
10.805705
20
9.2697663
40
3.9732185
50
359.8281633
51
6.1691012
0
ARC
8
DEFAULT_255_2_778
10
11.962752
20
9.3979511
40
2.8090985
50
6.1058198
51
14.6193983
0
ARC
8
DEFAULT_255_2_778
10
12.7786907
20
9.6140606
40
1.9650338
50
14.5269065
51
26.5741331
0
ARC
8
DEFAULT_255_2_778
10
13.2814423
20
9.8718699
40
1.4000737
50
26.3423106
51
48.9394489
0
ARC
8
DEFAULT_255_2_778
10
13.3597647
20
9.9470072
40
1.292009
50
49.3696971
51
60.5740868
0
LINE
8
DEFAULT_255_2_778
10
11.9651259
20
10.8268364
11
8.4102259
21
8.8096364
0
LINE
8
DEFAULT_255_2_778
10
8.9177259
20
7.9671364
11
12.4853259
21
9.9912364
0
LINE
8
DEFAULT_255_2_778
10
13.8056259
20
9.2641364
11
13.8056259
21
4.8165364
0
LINE
8
DEFAULT_255_2_778
10
13.2246259
20
3.8105364
11
8.1308259
21
0.8715364
0
LINE
8
DEFAULT_255_2_778
10
6.9687259
20
0.8715364
11
1.8750259
21
3.8105364
0
LINE
8
DEFAULT_255_2_778
10
1.2940259
20
4.8165364
11
1.2940259
21
10.7008364
0
LINE
8
DEFAULT_255_2_778
10
1.8750259
20
11.7068364
11
6.4771259
21
14.3711364
0
LINE
8
DEFAULT_255_2_778
10
6.1364259
20
15.3077364
11
1.3739259
21
12.5582364
0
LINE
8
DEFAULT_255_2_778
10
0.3023259
20
10.7019364
11
0.3023259
21
4.8165364
0
LINE
8
DEFAULT_255_2_778
10
1.3739259
20
2.9602364
11
6.4676259
21
0.0212364
0
LINE
8
DEFAULT_255_2_778
10
8.6107259
20
0.0212364
11
13.7045259
21
2.9602364
0
LINE
8
DEFAULT_255_2_778
10
14.7761259
20
4.8165364
11
14.7761259
21
9.0932364
0
LINE
8
DEFAULT_255_2_778
10
13.9945259
20
11.0723364
11
13.9897259
21
11.0718364
0
ENDSEC
0
EOF