0
SECTION
2
HEADER
9
$MEASUREMENT
70
1
0
ENDSEC
0
SECTION
2
TABLES
0
TABLE
2
LTYPE
0
LTYPE
72
65
70
64
2
CONTINUOUS
3
______
73
0
40
0
0
ENDTAB
0
TABLE
2
LAYER
0
LAYER
2
DEFAULT_255_2_778
70
0
62
255
6
CONTINUOUS
0
ENDTAB
0
ENDSEC
0
SECTION
2
ENTITIES
0
ARC
8
DEFAULT_255_2_778
10
4.1565232
20
3.657212
40
2.7771247
50
48.9991231
51
61.2141846
0
ARC
8
DEFAULT_255_2_778
10
4.1706293
20
3.6803213
40
2.7500789
50
61.2399139
51
78.76562
0
ARC
8
DEFAULT_255_2_778
10
4.1655346
20
3.6564619
40
2.7744739
50
78.7584205
51
89.192686
0
ARC
8
DEFAULT_255_2_778
10
4.1652084
20
3.6522116
40
2.7787282
50
89.1871951
51
90.0005492
0
ARC
8
DEFAULT_255_2_778
10
4.1637158
20
3.6599477
40
2.7709926
50
89.9696874
51
119.1327186
0
ARC
8
DEFAULT_255_2_778
10
4.1592274
20
3.6736697
40
2.7568227
50
119.1900764
51
134.3070013
0
ARC
8
DEFAULT_255_2_778
10
4.1941065
20
3.6363195
40
2.8079143
50
134.2839539
51
137.9910529
0
ARC
8
DEFAULT_255_2_778
10
4.1644684
20
3.6602379
40
2.7698854
50
137.9483807
51
150.5840741
0
ARC
8
DEFAULT_255_2_778
10
4.1447437
20
3.6730036
40
2.7464343
50
150.6139534
51
168.8250625
0
ARC
8
DEFAULT_255_2_778
10
4.1722
20
3.6670553
40
2.7745228
50
168.8144407
51
179.4701897
0
ARC
8
DEFAULT_255_2_778
10
4.1837244
20
3.6667023
40
2.7860501
50
179.4651229
51
179.9995504
0
ARC
8
DEFAULT_255_2_778
10
4.1690707
20
3.6653707
40
2.7713967
50
179.9720183
51
208.1688549
0
ARC
8
DEFAULT_255_2_778
10
4.1555354
20
3.6609956
40
2.7574004
50
208.2214813
51
223.1716119
0
ARC
8
DEFAULT_255_2_778
10
4.1921622
20
3.6939452
40
2.8066564
50
223.1506031
51
227.0023936
0
ARC
8
DEFAULT_255_2_778
10
3.7478619
20
3.2592379
40
2.1859064
50
227.7493613
51
234.7657301
0
ARC
8
DEFAULT_255_2_778
10
3.1788185
20
2.4441257
40
1.1918421
50
234.5032177
51
246.5306389
0
ARC
8
DEFAULT_255_2_778
10
2.9603084
20
1.9282564
40
0.6316454
50
246.0756457
51
269.0025698
0
ARC
8
DEFAULT_255_2_778
10
2.9393935
20
1.8554891
40
0.5588705
50
271.0170085
51
305.4434186
0
ARC
8
DEFAULT_255_2_778
10
2.6444755
20
2.3085889
40
1.0992582
50
304.2713343
51
315.2748332
0
ARC
8
DEFAULT_255_2_778
10
2.1706442
20
2.7979781
40
1.7803545
50
314.8156508
51
318.2136635
0
ARC
8
DEFAULT_255_2_778
10
1.3479699
20
3.5216817
40
2.8760253
50
318.3844781
51
322.7950697
0
ARC
8
DEFAULT_255_2_778
10
-1.3148045
20
5.5483319
40
6.2223173
50
322.7574219
51
325.1567635
0
ARC
8
DEFAULT_255_2_778
10
-17.8578115
20
17.0783261
40
26.3869351
50
325.1322043
51
325.7888106
0
ARC
8
DEFAULT_255_2_778
10
11.0465361
20
-2.3206848
40
8.425701
50
139.0411241
51
147.2095443
0
ARC
8
DEFAULT_255_2_778
10
11.0232602
20
-2.7269781
40
8.6804331
50
128.9997765
51
136.9147096
0
ARC
8
DEFAULT_255_2_778
10
-8.5537116
20
20.8723871
40
21.9828971
50
309.9452118
51
310.7283537
0
ARC
8
DEFAULT_255_2_778
10
2.2049592
20
8.3926462
40
5.5058675
50
310.6207037
51
313.8074003
0
ARC
8
DEFAULT_255_2_778
10
4.4014437
20
6.1072912
40
2.3361092
50
313.7305622
51
319.947401
0
ARC
8
DEFAULT_255_2_778
10
5.2335797
20
5.4055412
40
1.2475793
50
320.0248164
51
328.0424954
0
ARC
8
DEFAULT_255_2_778
10
5.6468666
20
5.1495491
40
0.7614371
50
327.9255218
51
340.6137957
0
ARC
8
DEFAULT_255_2_778
10
5.8606186
20
5.0734312
40
0.5345387
50
340.704976
51
358.6681317
0
ARC
8
DEFAULT_255_2_778
10
5.9169566
20
5.0680172
40
0.4781077
50
359.1598458
51
0.0018993
0
ARC
8
DEFAULT_255_2_778
10
5.8133271
20
5.0573934
40
0.5818346
50
1.0477939
51
28.0457273
0
ARC
8
DEFAULT_255_2_778
10
5.3450438
20
4.8213322
40
1.1061823
50
27.4327371
51
40.2026523
0
ARC
8
DEFAULT_255_2_778
10
4.622191
20
4.2236023
40
2.0441282
50
39.9203789
51
47.2770375
0
ARC
8
DEFAULT_255_2_778
10
4.0767287
20
3.6568865
40
2.8305795
50
46.9485278
51
47.7883665
0
ARC
8
DEFAULT_255_2_778
10
7.4797595
20
0.6245513
40
4.4014071
50
127.9450054
51
136.7573962
0
ARC
8
DEFAULT_255_2_778
10
7.8496346
20
0.5825217
40
4.7049175
50
139.4713986
51
147.8698272
0
ARC
8
DEFAULT_255_2_778
10
-3.803414
20
8.1085681
40
9.1677452
50
325.5228716
51
326.771305
0
ARC
8
DEFAULT_255_2_778
10
2.034214
20
4.0929868
40
2.0823622
50
320.8838258
51
325.6798502
0
ARC
8
DEFAULT_255_2_778
10
2.9519004
20
3.3505908
40
0.9019895
50
314.6008544
51
320.6956661
0
ARC
8
DEFAULT_255_2_778
10
3.2745637
20
3.015871
40
0.4371334
50
299.2171389
51
315.2938233
0
ARC
8
DEFAULT_255_2_778
10
3.3732611
20
2.8404687
40
0.2358709
50
270.498435
51
299.0900445
0
ARC
8
DEFAULT_255_2_778
10
3.3889639
20
2.8530934
40
0.2488614
50
224.6802306
51
266.8555542
0
ARC
8
DEFAULT_255_2_778
10
4.1623306
20
3.6611049
40
1.367256
50
205.0639712
51
225.9684307
0
ARC
8
DEFAULT_255_2_778
10
4.167822
20
3.6621642
40
1.3726797
50
179.9767852
51
205.0069209
0
ARC
8
DEFAULT_255_2_778
10
4.1686959
20
3.6627453
40
1.3735534
50
179.5445301
51
180.0010374
0
ARC
8
DEFAULT_255_2_778
10
4.1621634
20
3.6638886
40
1.3670125
50
149.4380465
51
179.5902747
0
ARC
8
DEFAULT_255_2_778
10
4.1689795
20
3.6584654
40
1.3756397
50
137.985498
51
149.3878957
0
ARC
8
DEFAULT_255_2_778
10
4.1640352
20
3.666195
40
1.3667948
50
116.5873644
51
138.0875134
0
ARC
8
DEFAULT_255_2_778
10
4.1657278
20
3.6596273
40
1.3734264
50
89.9785269
51
116.5278824
0
ARC
8
DEFAULT_255_2_778
10
4.1662294
20
3.655107
40
1.3779464
50
89.0340949
51
89.999455
0
ARC
8
DEFAULT_255_2_778
10
4.1673559
20
3.6669349
40
1.3661017
50
61.3518721
51
89.0729736
0
ARC
8
DEFAULT_255_2_778
10
4.1615551
20
3.6583705
40
1.376399
50
50.1071996
51
61.3108819
0
ARC
8
DEFAULT_255_2_778
10
4.9009045
20
4.5242904
40
0.2381391
50
0.9182451
51
52.9720298
0
ARC
8
DEFAULT_255_2_778
10
4.8840204
20
4.5503921
40
0.2559645
50
328.6374932
51
355.0052699
0
ARC
8
DEFAULT_255_2_778
10
4.5805233
20
4.737533
40
0.6125185
50
313.7464958
51
328.4651214
0
ARC
8
DEFAULT_255_2_778
10
3.5610646
20
5.76853
40
2.0623758
50
309.392155
51
314.4010691
0
ARC
8
DEFAULT_255_2_778
10
-0.9601437
20
11.1757559
40
9.1106756
50
308.9977568
51
309.7853581
0
LINE
8
DEFAULT_255_2_778
10
4.127813
20
7.5933067
11
4.1263346
21
7.593307
0
ARC
8
DEFAULT_255_2_778
10
4.123121
20
3.6964864
40
3.896822
50
89.9527503
51
105.8406219
0
ARC
8
DEFAULT_255_2_778
10
4.1281784
20
3.6976188
40
3.8971163
50
105.9166965
51
135.2041106
0
ARC
8
DEFAULT_255_2_778
10
4.1248139
20
3.6923597
40
3.898439
50
135.1144217
51
164.1193124
0
ARC
8
DEFAULT_255_2_778
10
4.1241729
20
3.6977163
40
3.89636
50
164.1924955
51
180.0104348
0
ARC
8
DEFAULT_255_2_778
10
4.1336363
20
3.6966461
40
3.9058233
50
179.9947103
51
195.8431504
0
ARC
8
DEFAULT_255_2_778
10
4.1266249
20
3.6996892
40
3.899912
50
195.9142817
51
225.0318504
0
ARC
8
DEFAULT_255_2_778
10
4.1301222
20
3.6951976
40
3.8992098
50
224.9488477
51
254.0403337
0
ARC
8
DEFAULT_255_2_778
10
4.1270102
20
3.7020726
40
3.9049671
50
254.1119719
51
269.9574906
0
ARC
8
DEFAULT_255_2_778
10
4.1244722
20
3.7029503
40
3.9058436
50
269.9947312
51
285.8430872
0
ARC
8
DEFAULT_255_2_778
10
4.1214221
20
3.695965
40
3.8999593
50
285.9142114
51
315.0313256
0
ARC
8
DEFAULT_255_2_778
10
4.1260022
20
3.6993844
40
3.8991397
50
314.9482134
51
344.0396544
0
ARC
8
DEFAULT_255_2_778
10
4.1193306
20
3.6962076
40
3.9046835
50
344.1113909
51
359.9574339
0
ARC
8
DEFAULT_255_2_778
10
6.41778
20
3.6941569
40
1.6062332
50
359.969674
51
0.0101086
0
ARC
8
DEFAULT_255_2_778
10
4.1239574
20
3.6945521
40
3.9000557
50
359.9983579
51
44.9584381
0
ARC
8
DEFAULT_255_2_778
10
4.1267739
20
3.6969109
40
3.8963959
50
44.9631578
51
89.9847211
0
ARC
8
DEFAULT_255_2_778
10
4.1196271
20
3.7057915
40
3.3230696
50
305.7290727
51
317.9810374
0
ARC
8
DEFAULT_255_2_778
10
4.1408113
20
3.6788896
40
3.2888607
50
288.4357395
51
305.703155
0
ARC
8
DEFAULT_255_2_778
10
4.1297014
20
3.7127671
40
3.3245129
50
269.9923444
51
288.4327469
0
ARC
8
DEFAULT_255_2_778
10
4.1292247
20
3.7119081
40
3.3236539
50
269.3177869
51
270.0005594
0
ARC
8
DEFAULT_255_2_778
10
4.1274915
20
3.695403
40
3.3071297
50
247.7916154
51
269.3444074
0
ARC
8
DEFAULT_255_2_778
10
4.122519
20
3.6781635
40
3.2892902
50
234.5588563
51
247.7583015
0
ARC
8
DEFAULT_255_2_778
10
4.1542154
20
3.7231717
40
3.3443386
50
228.0368045
51
234.5635731
0
ARC
8
DEFAULT_255_2_778
10
4.137187
20
3.7398345
40
3.3454274
50
216.1725562
51
228.444481
0
ARC
8
DEFAULT_255_2_778
10
4.1095565
20
3.7177984
40
3.310117
50
198.9500398
51
216.1469303
0
ARC
8
DEFAULT_255_2_778
10
4.1429441
20
3.7290188
40
3.3453388
50
179.992574
51
198.9460995
0
ARC
8
DEFAULT_255_2_778
10
4.1482364
20
3.7294366
40
3.3506312
50
179.173503
51
179.9997295
0
ARC
8
DEFAULT_255_2_778
10
4.1253088
20
3.7311723
40
3.3276813
50
158.2131396
51
179.1976913
0
ARC
8
DEFAULT_255_2_778
10
4.1103911
20
3.7352346
40
3.312322
50
145.4475545
51
158.1826154
0
ARC
8
DEFAULT_255_2_778
10
4.1557246
20
3.7042447
40
3.3672351
50
138.6981602
51
145.4507498
0
ARC
8
DEFAULT_255_2_778
10
4.1393319
20
3.721995
40
3.3432056
50
126.3885293
51
138.741266
0
ARC
8
DEFAULT_255_2_778
10
4.1180043
20
3.7483509
40
3.3093362
50
109.0600381
51
126.361985
0
ARC
8
DEFAULT_255_2_778
10
4.1298156
20
3.7135466
40
3.3460896
50
89.9924718
51
109.0565801
0
ARC
8
DEFAULT_255_2_778
10
4.1302528
20
3.7098785
40
3.3497577
50
89.1083706
51
89.9999589
0
ARC
8
DEFAULT_255_2_778
10
4.1319769
20
3.7313955
40
3.3282168
50
68.4868957
51
89.1322839
0
ARC
8
DEFAULT_255_2_778
10
4.1362162
20
3.7468347
40
3.312299
50
55.7309121
51
68.4571801
0
ARC
8
DEFAULT_255_2_778
10
4.1060351
20
3.7022263
40
3.3661579
50
48.984668
51
55.7339147
0
ARC
8
DEFAULT_255_2_778
10
4.1240937
20
3.7189584
40
3.3416827
50
36.6007349
51
49.030023
0
ARC
8
DEFAULT_255_2_778
10
4.1493502
20
3.7396695
40
3.3090581
50
19.1708606
51
36.5735793
0
ARC
8
DEFAULT_255_2_778
10
4.1139896
20
3.7275447
40
3.3464392
50
359.992921
51
19.1681308
0
ARC
8
DEFAULT_255_2_778
10
4.112965
20
3.7271104
40
3.3474638
50
359.0398631
51
0.0003558
0
ARC
8
DEFAULT_255_2_778
10
4.1330462
20
3.7253684
40
3.3273565
50
338.596609
51
359.0640609
0
ARC
8
DEFAULT_255_2_778
10
4.1482461
20
3.7212467
40
3.3117012
50
325.951159
51
338.5670338
0
ARC
8
DEFAULT_255_2_778
10
4.1037507
20
3.7510963
40
3.3652812
50
319.2641689
51
325.9542365
0
ARC
8
DEFAULT_255_2_778
10
10.6243437
20
5.1763386
40
1.032949
50
180.0019353
51
180.3401252
0
ARC
8
DEFAULT_255_2_778
10
10.6154248
20
5.1764328
40
1.0240299
50
135.7097061
51
180.0072257
0
ARC
8
DEFAULT_255_2_778
10
10.6013863
20
5.1826607
40
1.0096461
50
90.0325351
51
135.4063829
0
ARC
8
DEFAULT_255_2_778
10
10.6889633
20
5.0875387
40
1.1063881
50
90.0013726
51
93.1009438
0
ARC
8
DEFAULT_255_2_778
10
10.6930768
20
5.1267155
40
1.0672194
50
48.1279521
51
90.2222626
0
ARC
8
DEFAULT_255_2_778
10
10.6227545
20
5.0712534
40
0.7274522
50
45.6234908
51
89.9961998
0
ARC
8
DEFAULT_255_2_778
10
10.6227955
20
5.0705579
40
0.7281476
50
89.9994296
51
90.9429107
0
ARC
8
DEFAULT_255_2_778
10
10.6397181
20
5.2053802
40
0.5939303
50
92.7895432
51
179.9550029
0
ARC
8
DEFAULT_255_2_778
10
10.6494945
20
5.2058609
40
0.6037066
50
180.0013517
51
182.1505353
0
ARC
8
DEFAULT_255_2_778
10
10.635391
20
5.1470629
40
0.5902856
50
176.4895242
51
179.9999008
0
ARC
8
DEFAULT_255_2_778
10
10.6352725
20
5.1470838
40
0.5901672
50
180.0019266
51
221.5804692
0
ARC
8
DEFAULT_255_2_778
10
10.6352667
20
5.1473725
40
0.5903546
50
221.6018014
51
266.6834188
0
ARC
8
DEFAULT_255_2_778
10
10.6657298
20
5.252791
40
0.695102
50
268.2673628
51
269.999603
0
ARC
8
DEFAULT_255_2_778
10
10.6658608
20
5.2511033
40
0.6934142
50
269.988776
51
304.0398597
0
ARC
8
DEFAULT_255_2_778
10
10.6332951
20
5.4399904
40
1.2859966
50
270.0005857
51
310.8483496
0
ARC
8
DEFAULT_255_2_778
10
10.6332649
20
5.4264598
40
1.2724662
50
269.7410034
51
270.0019503
0
ARC
8
DEFAULT_255_2_778
10
10.5773605
20
5.1417673
40
0.989033
50
270.0000622
51
272.9066351
0
ARC
8
DEFAULT_255_2_778
10
10.5775008
20
5.1420993
40
0.9893649
50
227.9006728
51
269.9919354
0
ARC
8
DEFAULT_255_2_778
10
10.5761205
20
5.1400996
40
0.9869557
50
182.7639838
51
227.8823029
0
ARC
8
DEFAULT_255_2_778
10
10.3078131
20
5.1420045
40
0.7192055
50
180.8562566
51
183.946378
0
ARC
8
DEFAULT_255_2_778
10
10.3742189
20
5.1433967
40
0.7856247
50
179.9952393
51
180.8854088
0
ARC
8
DEFAULT_255_2_778
10
10.4481215
20
5.1431704
40
0.8595273
50
178.2108078
51
179.9805591
0
ARC
8
DEFAULT_255_2_778
10
12.974323
20
5.3759942
40
0.7895289
50
90.0005184
51
93.5516518
0
ARC
8
DEFAULT_255_2_778
10
12.9743662
20
5.3770007
40
0.7885223
50
48.0564659
51
90.0036623
0
ARC
8
DEFAULT_255_2_778
10
13.0530857
20
5.5360792
40
0.6194285
50
359.9943326
51
43.6329071
0
ARC
8
DEFAULT_255_2_778
10
13.0515114
20
5.5360257
40
0.6210028
50
357.9403355
51
359.999282
0
ARC
8
DEFAULT_255_2_778
10
13.0576217
20
5.4819431
40
0.6153117
50
0.0014411
51
2.959037
0
ARC
8
DEFAULT_255_2_778
10
13.0633052
20
5.4819567
40
0.6096282
50
287.7059847
51
0.0001761
0
ARC
8
DEFAULT_255_2_778
10
12.9077719
20
5.6237871
40
0.4198157
50
268.5451263
51
294.9398308
0
ARC
8
DEFAULT_255_2_778
10
12.9730141
20
5.4753536
40
0.2577359
50
295.7025852
51
2.4579179
0
ARC
8
DEFAULT_255_2_778
10
12.973205
20
5.4995943
40
0.2576457
50
357.066042
51
47.8518994
0
ARC
8
DEFAULT_255_2_778
10
12.9327168
20
5.4242066
40
0.341329
50
51.3069617
51
85.2898917
0
ARC
8
DEFAULT_255_2_778
10
12.8881796
20
5.1580021
40
0.610707
50
83.1759077
51
90.1563638
0
ARC
8
DEFAULT_255_2_778
10
21.3964479
20
5.2012645
40
0.9627956
50
72.2325524
51
90.6031372
0
ARC
8
DEFAULT_255_2_778
10
21.4958004
20
5.4945603
40
0.6531913
50
36.5265573
51
72.6810676
0
ARC
8
DEFAULT_255_2_778
10
21.471334
20
5.4972032
40
0.6714864
50
0.1527202
51
35.1026483
0
ARC
8
DEFAULT_255_2_778
10
21.3070306
20
5.4809376
40
0.8359823
50
359.9978839
51
1.23756
0
ARC
8
DEFAULT_255_2_778
10
21.4295735
20
5.4712387
40
0.713505
50
336.9395863
51
0.7763883
0
ARC
8
DEFAULT_255_2_778
10
21.4779964
20
5.4767248
40
0.67153
50
282.3151416
51
334.8901493
0
ARC
8
DEFAULT_255_2_778
10
21.350231
20
5.8721658
40
1.0858774
50
269.6666308
51
284.4516693
0
ARC
8
DEFAULT_255_2_778
10
21.3979053
20
5.469641
40
0.3045923
50
262.5692307
51
265.0539122
0
ARC
8
DEFAULT_255_2_778
10
21.3978887
20
5.469476
40
0.3044265
50
265.054357
51
269.9997433
0
ARC
8
DEFAULT_255_2_778
10
21.3979213
20
5.4695056
40
0.3044562
50
269.9935982
51
307.8210515
0
ARC
8
DEFAULT_255_2_778
10
21.3979311
20
5.4693982
40
0.3043652
50
307.8319984
51
353.1329901
0
ARC
8
DEFAULT_255_2_778
10
21.4608578
20
5.4499616
40
0.2398552
50
355.9464957
51
359.9958481
0
ARC
8
DEFAULT_255_2_778
10
21.4640246
20
5.4499644
40
0.2366884
50
359.9951267
51
4.0805256
0
ARC
8
DEFAULT_255_2_778
10
21.4236594
20
5.4790864
40
0.2767261
50
357.4566808
51
46.3944718
0
ARC
8
DEFAULT_255_2_778
10
21.3868612
20
5.4117246
40
0.3514413
50
49.6262964
51
85.7006139
0
ARC
8
DEFAULT_255_2_778
10
21.3482364
20
5.1826856
40
0.5831224
50
83.6028018
51
90.1103822
0
ARC
8
DEFAULT_255_2_778
10
25.4756119
20
5.0349224
40
0.7000899
50
179.0764447
51
197.1537109
0
ARC
8
DEFAULT_255_2_778
10
25.163988
20
4.9310143
40
0.371755
50
196.0167054
51
268.5048962
0
ARC
8
DEFAULT_255_2_778
10
25.1984363
20
5.1388977
40
0.5811911
50
265.6435445
51
270.0469882
0
ARC
8
DEFAULT_255_2_778
10
25.2127563
20
5.0032388
40
0.4457471
50
268.220311
51
300.5374496
0
ARC
8
DEFAULT_255_2_778
10
25.233809
20
4.9339903
40
0.3757938
50
303.1382981
51
346.606427
0
ARC
8
DEFAULT_255_2_778
10
24.9286996
20
5.0236185
40
0.6935627
50
345.2419474
51
0.6847116
0
ARC
8
DEFAULT_255_2_778
10
24.7884375
20
5.0357601
40
1.2686227
50
347.1481779
51
0.4943966
0
ARC
8
DEFAULT_255_2_778
10
25.23552
20
4.9293385
40
0.8090805
50
324.2443624
51
347.4534566
0
ARC
8
DEFAULT_255_2_778
10
25.3127287
20
4.8964179
40
0.7274204
50
281.1984289
51
322.7949424
0
ARC
8
DEFAULT_255_2_778
10
25.198822
20
5.3370972
40
1.1821203
50
269.592422
51
282.4662181
0
ARC
8
DEFAULT_255_2_778
10
25.1775785
20
5.2513696
40
1.0964379
50
253.9323506
51
270.6706954
0
ARC
8
DEFAULT_255_2_778
10
25.0589045
20
4.86327
40
0.6906855
50
196.3568608
51
254.4817649
0
ARC
8
DEFAULT_255_2_778
10
25.4714251
20
5.0051497
40
1.1266429
50
182.3038844
51
197.3721709
0
ARC
8
DEFAULT_255_2_778
10
25.8616315
20
5.035384
40
1.5178187
50
179.9727176
51
182.8521465
0
ARC
8
DEFAULT_255_2_778
10
10.4584876
20
1.9996237
40
1.2003151
50
70.302336
51
90.4188507
0
ARC
8
DEFAULT_255_2_778
10
10.5521397
20
2.2361169
40
0.9461321
50
6.2873792
51
70.8146828
0
ARC
8
DEFAULT_255_2_778
10
10.4239401
20
2.2126296
40
1.0761731
50
359.961516
51
6.7828511
0
ARC
8
DEFAULT_255_2_778
10
10.5192324
20
2.2023659
40
0.980927
50
326.7707966
51
0.5572873
0
ARC
8
DEFAULT_255_2_778
10
10.5384527
20
2.2037748
40
0.9656927
50
288.8894579
51
326.075946
0
ARC
8
DEFAULT_255_2_778
10
10.4581616
20
2.4246763
40
1.2006994
50
269.5968409
51
289.1018861
0
ARC
8
DEFAULT_255_2_778
10
10.4817206
20
2.1797266
40
0.5642284
50
266.7479738
51
269.9998713
0
ARC
8
DEFAULT_255_2_778
10
10.4816992
20
2.1792726
40
0.5637746
50
270.0020459
51
311.8326968
0
ARC
8
DEFAULT_255_2_778
10
10.4897412
20
2.17295
40
0.5537028
50
311.6490034
51
357.4905609
0
ARC
8
DEFAULT_255_2_778
10
10.6432827
20
2.1776953
40
0.4006803
50
355.8511126
51
358.6176081
0
ARC
8
DEFAULT_255_2_778
10
10.6438689
20
2.1776958
40
0.4000942
50
358.6155215
51
359.9997796
0
ARC
8
DEFAULT_255_2_778
10
10.6463434
20
2.177728
40
0.3976196
50
359.9951373
51
4.1650071
0
ARC
8
DEFAULT_255_2_778
10
10.4796621
20
2.2386124
40
0.5641595
50
356.7477712
51
359.9998711
0
ARC
8
DEFAULT_255_2_778
10
10.4804078
20
2.2386193
40
0.5634139
50
359.999173
51
41.8619487
0
ARC
8
DEFAULT_255_2_778
10
10.4866407
20
2.2474281
40
0.5528985
50
41.6131338
51
87.5150187
0
ARC
8
DEFAULT_255_2_778
10
10.4788091
20
2.3186738
40
0.4821829
50
86.2181364
51
89.9980579
0
ARC
8
DEFAULT_255_2_778
10
10.4788043
20
2.3220732
40
0.4787836
50
89.9974684
51
93.7952615
0
ARC
8
DEFAULT_255_2_778
10
18.792888
20
2.5060718
40
0.6953302
50
89.9982153
51
93.7581112
0
ARC
8
DEFAULT_255_2_778
10
18.7893799
20
2.4742846
40
0.7271259
50
49.2713677
51
89.7218641
0
ARC
8
DEFAULT_255_2_778
10
18.9463693
20
2.6944758
40
0.4584971
50
0.17922
51
46.1830258
0
ARC
8
DEFAULT_255_2_778
10
18.9660214
20
2.6959101
40
0.4388427
50
359.1247642
51
359.9999756
0
ARC
8
DEFAULT_255_2_778
10
18.9444954
20
2.6789794
40
0.4604311
50
0.0010585
51
1.2727821
0
ARC
8
DEFAULT_255_2_778
10
18.9462749
20
2.6792645
40
0.4586518
50
295.6777594
51
359.9654561
0
ARC
8
DEFAULT_255_2_778
10
18.9142338
20
1.6023541
40
0.702539
50
48.8231846
51
70.8226658
0
ARC
8
DEFAULT_255_2_778
10
19.0880039
20
1.8207219
40
0.4239688
50
5.8909453
51
47.0692428
0
ARC
8
DEFAULT_255_2_778
10
18.8645482
20
1.7822986
40
0.6503677
50
359.8333306
51
7.2377196
0
ARC
8
DEFAULT_255_2_778
10
19.0101776
20
1.7685852
40
0.5048737
50
329.5990604
51
1.3416955
0
ARC
8
DEFAULT_255_2_778
10
19.0098427
20
1.7932797
40
0.5180901
50
289.5334782
51
327.2616743
0
ARC
8
DEFAULT_255_2_778
10
18.8335508
20
2.2336594
40
0.9922489
50
274.4239362
51
290.6249728
0
ARC
8
DEFAULT_255_2_778
10
18.777911
20
2.7315922
40
1.4930876
50
269.9041396
51
275.0788296
0
ARC
8
DEFAULT_255_2_778
10
18.7772613
20
2.6209973
40
0.1904784
50
359.040224
51
85.3113379
0
ARC
8
DEFAULT_255_2_778
10
18.6903381
20
2.300562
40
0.5204679
50
78.6428015
51
90.542194
0
ARC
8
DEFAULT_255_2_778
10
18.66272
20
2.9368595
40
0.5393295
50
268.5330461
51
287.4704189
0
ARC
8
DEFAULT_255_2_778
10
18.7775555
20
2.6011496
40
0.1848376
50
284.75593
51
2.5293501
0
ARC
8
DEFAULT_255_2_778
10
18.7826428
20
2.1185539
40
0.5108083
50
268.5607727
51
288.1273978
0
ARC
8
DEFAULT_255_2_778
10
18.8916159
20
1.8123065
40
0.1860404
50
285.5760665
51
2.2488729
0
ARC
8
DEFAULT_255_2_778
10
18.8742556
20
1.8221316
40
0.2032731
50
359.2882995
51
80.5071037
0
ARC
8
DEFAULT_255_2_778
10
18.7662348
20
1.4480244
40
0.5917742
50
76.1613398
51
91.0090955
0
ARC
8
DEFAULT_255_2_778
10
22.8721382
20
2.4865812
40
0.9073224
50
227.31583
51
268.4131862
0
ARC
8
DEFAULT_255_2_778
10
22.8580068
20
2.0243947
40
0.4449238
50
268.5841147
51
290.0124424
0
ARC
8
DEFAULT_255_2_778
10
22.9617731
20
1.7667054
40
0.1675419
50
286.8258718
51
359.7268856
0
ARC
8
DEFAULT_255_2_778
10
22.9855791
20
1.7738182
40
0.1439515
50
356.8494822
51
58.595876
0
ARC
8
DEFAULT_255_2_778
10
22.8265854
20
1.5512865
40
0.4171999
50
55.8827324
51
67.3386006
0
ARC
8
DEFAULT_255_2_778
10
22.6064578
20
1.0489692
40
0.9655966
50
66.7690608
51
71.4344169
0
ARC
8
DEFAULT_255_2_778
10
22.3186567
20
0.2035676
40
1.85864
50
71.3216982
51
73.9838382
0
ARC
8
DEFAULT_255_2_778
10
21.8916433
20
-1.2763239
40
3.3989053
50
73.9480371
51
75.6957653
0
ARC
8
DEFAULT_255_2_778
10
23.3122398
20
4.4150023
40
2.4671408
50
249.8221665
51
256.3833183
0
ARC
8
DEFAULT_255_2_778
10
22.7046657
20
2.7951873
40
0.7372563
50
229.6634813
51
250.7201296
0
ARC
8
DEFAULT_255_2_778
10
22.5240818
20
2.5611399
40
0.4421814
50
188.329087
51
227.8696005
0
ARC
8
DEFAULT_255_2_778
10
22.8044318
20
2.6171039
40
0.7278309
50
179.6691434
51
189.4912998
0
ARC
8
DEFAULT_255_2_778
10
22.6363213
20
2.6322647
40
0.5598156
50
140.6223197
51
181.121596
0
ARC
8
DEFAULT_255_2_778
10
22.6775181
20
2.577339
40
0.6267189
50
104.6759206
51
139.1301387
0
ARC
8
DEFAULT_255_2_778
10
22.7619531
20
2.304322
40
0.9123062
50
89.6068561
51
105.4616771
0
ARC
8
DEFAULT_255_2_778
10
22.7866739
20
2.073044
40
1.1437117
50
89.9997017
51
90.9248627
0
ARC
8
DEFAULT_255_2_778
10
22.7867778
20
2.0738746
40
1.1428811
50
51.2513477
51
90.0049118
0
ARC
8
DEFAULT_255_2_778
10
22.7034613
20
1.9091393
40
0.9267443
50
51.8279056
51
86.3528624
0
ARC
8
DEFAULT_255_2_778
10
22.752972
20
2.4622591
40
0.3718675
50
88.5452198
51
111.9747711
0
ARC
8
DEFAULT_255_2_778
10
22.6657514
20
2.6585486
40
0.1573765
50
109.2677378
51
178.7408915
0
ARC
8
DEFAULT_255_2_778
10
22.6590686
20
2.651118
40
0.1510486
50
175.8660943
51
244.7092167
0
ARC
8
DEFAULT_255_2_778
10
22.8438521
20
2.956405
40
0.5073416
50
240.5666227
51
249.5587364
0
ARC
8
DEFAULT_255_2_778
10
23.110587
20
3.6471852
40
1.2478104
50
249.1599012
51
252.9136031
0
ARC
8
DEFAULT_255_2_778
10
23.5668665
20
5.1130306
40
2.783024
50
252.8012856
51
254.6330503
0
ARC
8
DEFAULT_255_2_778
10
24.5481276
20
8.6682462
40
6.4711703
50
254.5972135
51
255.5350881
0
ARC
8
DEFAULT_255_2_778
10
22.4668688
20
0.5437778
40
1.9156821
50
68.0127127
51
75.9568813
0
ARC
8
DEFAULT_255_2_778
10
22.9044853
20
1.6042404
40
0.7685561
50
49.6977421
51
68.6649796
0
ARC
8
DEFAULT_255_2_778
10
23.0980458
20
1.8462577
40
0.4588714
50
3.0361422
51
48.5833872
0
ARC
8
DEFAULT_255_2_778
10
22.8469087
20
1.8104734
40
0.7119047
50
359.9221961
51
4.8418518
0
ARC
8
DEFAULT_255_2_778
10
22.9486937
20
1.7988156
40
0.6102129
50
332.8508435
51
1.0038966
0
ARC
8
DEFAULT_255_2_778
10
22.9807659
20
1.8044941
40
0.5845971
50
286.5237297
51
330.9209025
0
ARC
8
DEFAULT_255_2_778
10
22.8448407
20
2.1899213
40
0.9929814
50
269.3348246
51
287.7177292
0
ARC
8
DEFAULT_255_2_778
10
22.8335723
20
2.45611
40
1.2591033
50
228.5818334
51
269.9881991
0
LINE
8
DEFAULT_255_2_778
10
5.978513
20
5.7534067
11
5.978513
21
5.7531067
0
LINE
8
DEFAULT_255_2_778
10
4.773113
20
4.0952067
11
4.773313
21
4.0955067
0
LINE
8
DEFAULT_255_2_778
10
4.127813
20
7.5933067
11
4.127813
21
7.5933067
0
LINE
8
DEFAULT_255_2_778
10
6.653713
20
1.5550067
11
6.588413
21
1.4814067
0
LINE
8
DEFAULT_255_2_778
10
10.600813
20
6.1923067
11
10.629113
21
6.1923067
0
LINE
8
DEFAULT_255_2_778
10
11.405413
20
5.9214067
11
11.131513
21
5.5912067
0
LINE
8
DEFAULT_255_2_778
10
10.601113
20
4.5580067
11
10.644713
21
4.5580067
0
LINE
8
DEFAULT_255_2_778
10
11.054013
20
4.6765067
11
11.054013
21
4.9517067
0
LINE
8
DEFAULT_255_2_778
10
11.054013
20
4.9517067
11
10.616413
21
4.9517067
0
LINE
8
DEFAULT_255_2_778
10
10.616413
20
4.9517067
11
10.616413
21
5.3253067
0
LINE
8
DEFAULT_255_2_778
10
10.616413
20
5.3253067
11
11.474413
21
5.3253067
0
LINE
8
DEFAULT_255_2_778
10
11.474413
20
5.3253067
11
11.474413
21
4.4672067
0
LINE
8
DEFAULT_255_2_778
10
9.589013
20
5.1700067
11
9.591413
21
5.1702067
0
LINE
8
DEFAULT_255_2_778
10
12.022113
20
6.1640067
11
12.925413
21
6.1640067
0
LINE
8
DEFAULT_255_2_778
10
13.248713
20
4.9012067
11
13.732413
21
4.1982067
0
LINE
8
DEFAULT_255_2_778
10
13.732413
20
4.1982067
11
13.224413
21
4.1982067
0
LINE
8
DEFAULT_255_2_778
10
13.224413
20
4.1982067
11
12.801113
21
4.8332067
0
LINE
8
DEFAULT_255_2_778
10
12.801113
20
4.8332067
11
12.456613
21
4.8332067
0
LINE
8
DEFAULT_255_2_778
10
12.456613
20
4.8332067
11
12.456613
21
4.1982067
0
LINE
8
DEFAULT_255_2_778
10
12.456613
20
4.1982067
11
12.021913
21
4.1982067
0
LINE
8
DEFAULT_255_2_778
10
12.021913
20
4.1982067
11
12.022113
21
6.1640067
0
LINE
8
DEFAULT_255_2_778
10
12.886513
20
5.7687067
11
12.457113
21
5.7687067
0
LINE
8
DEFAULT_255_2_778
10
12.457113
20
5.7687067
11
12.457113
21
5.2041067
0
LINE
8
DEFAULT_255_2_778
10
12.457113
20
5.2041067
11
12.897113
21
5.2041067
0
LINE
8
DEFAULT_255_2_778
10
14.182213
20
6.1640067
11
15.672613
21
6.1640067
0
LINE
8
DEFAULT_255_2_778
10
15.672613
20
6.1640067
11
15.672613
21
5.7772067
0
LINE
8
DEFAULT_255_2_778
10
15.672613
20
5.7772067
11
14.614313
21
5.7772067
0
LINE
8
DEFAULT_255_2_778
10
14.614313
20
5.7772067
11
14.614313
21
5.3750067
0
LINE
8
DEFAULT_255_2_778
10
14.614313
20
5.3750067
11
15.545613
21
5.3750067
0
LINE
8
DEFAULT_255_2_778
10
15.545613
20
5.3750067
11
15.545613
21
4.9882067
0
LINE
8
DEFAULT_255_2_778
10
15.545613
20
4.9882067
11
14.614313
21
4.9882067
0
LINE
8
DEFAULT_255_2_778
10
14.614313
20
4.9882067
11
14.614313
21
4.5733067
0
LINE
8
DEFAULT_255_2_778
10
14.614313
20
4.5733067
11
15.686913
21
4.5733067
0
LINE
8
DEFAULT_255_2_778
10
15.686913
20
4.5733067
11
15.686913
21
4.1865067
0
LINE
8
DEFAULT_255_2_778
10
15.686913
20
4.1865067
11
14.182213
21
4.1865067
0
LINE
8
DEFAULT_255_2_778
10
14.182213
20
4.1865067
11
14.182213
21
6.1640067
0
LINE
8
DEFAULT_255_2_778
10
16.206213
20
6.1640067
11
17.696613
21
6.1640067
0
LINE
8
DEFAULT_255_2_778
10
17.696613
20
6.1640067
11
17.696613
21
5.7772067
0
LINE
8
DEFAULT_255_2_778
10
17.696613
20
5.7772067
11
16.638313
21
5.7772067
0
LINE
8
DEFAULT_255_2_778
10
16.638313
20
5.7772067
11
16.638313
21
5.3750067
0
LINE
8
DEFAULT_255_2_778
10
16.638313
20
5.3750067
11
17.569713
21
5.3750067
0
LINE
8
DEFAULT_255_2_778
10
17.569713
20
5.3750067
11
17.569713
21
4.9882067
0
LINE
8
DEFAULT_255_2_778
10
17.569713
20
4.9882067
11
16.638313
21
4.9882067
0
LINE
8
DEFAULT_255_2_778
10
16.638313
20
4.9882067
11
16.638313
21
4.5733067
0
LINE
8
DEFAULT_255_2_778
10
16.638313
20
4.5733067
11
17.710913
21
4.5733067
0
LINE
8
DEFAULT_255_2_778
10
17.710913
20
4.5733067
11
17.710913
21
4.1865067
0
LINE
8
DEFAULT_255_2_778
10
17.710913
20
4.1865067
11
16.203613
21
4.1865067
0
LINE
8
DEFAULT_255_2_778
10
16.203613
20
4.1865067
11
16.206213
21
6.1640067
0
LINE
8
DEFAULT_255_2_778
10
18.225013
20
6.1640067
11
18.625913
21
6.1640067
0
LINE
8
DEFAULT_255_2_778
10
18.625913
20
6.1640067
11
19.556113
21
4.9517067
0
LINE
8
DEFAULT_255_2_778
10
19.556113
20
4.9517067
11
19.556113
21
6.1640067
0
LINE
8
DEFAULT_255_2_778
10
19.556113
20
6.1640067
11
19.979513
21
6.1640067
0
LINE
8
DEFAULT_255_2_778
10
19.979513
20
6.1640067
11
19.979513
21
4.1881067
0
LINE
8
DEFAULT_255_2_778
10
19.979513
20
4.1881067
11
19.609613
21
4.1881067
0
LINE
8
DEFAULT_255_2_778
10
19.609613
20
4.1881067
11
18.648313
21
5.4417067
0
LINE
8
DEFAULT_255_2_778
10
18.648313
20
5.4417067
11
18.648313
21
4.1855067
0
LINE
8
DEFAULT_255_2_778
10
18.648313
20
4.1855067
11
18.225013
21
4.1855067
0
LINE
8
DEFAULT_255_2_778
10
18.225013
20
4.1855067
11
18.225013
21
6.1640067
0
LINE
8
DEFAULT_255_2_778
10
20.579313
20
6.1640067
11
21.386313
21
6.1640067
0
LINE
8
DEFAULT_255_2_778
10
21.343913
20
4.7863067
11
21.013713
21
4.7863067
0
LINE
8
DEFAULT_255_2_778
10
21.013713
20
4.7863067
11
21.013713
21
4.1937067
0
LINE
8
DEFAULT_255_2_778
10
21.013713
20
4.1937067
11
20.579013
21
4.1937067
0
LINE
8
DEFAULT_255_2_778
10
20.579013
20
4.1937067
11
20.579313
21
6.1640067
0
LINE
8
DEFAULT_255_2_778
10
21.347113
20
5.7658067
11
21.008413
21
5.7658067
0
LINE
8
DEFAULT_255_2_778
10
21.008413
20
5.7658067
11
21.008413
21
5.1618067
0
LINE
8
DEFAULT_255_2_778
10
21.008413
20
5.1618067
11
21.358513
21
5.1676067
0
LINE
8
DEFAULT_255_2_778
10
22.569513
20
6.1640067
11
23.004213
21
6.1640067
0
LINE
8
DEFAULT_255_2_778
10
23.004213
20
6.1640067
11
23.004213
21
4.5831067
0
LINE
8
DEFAULT_255_2_778
10
23.004213
20
4.5831067
11
23.992113
21
4.5831067
0
LINE
8
DEFAULT_255_2_778
10
23.992113
20
4.5831067
11
23.992113
21
4.1878067
0
LINE
8
DEFAULT_255_2_778
10
23.992113
20
4.1878067
11
22.569513
21
4.1878067
0
LINE
8
DEFAULT_255_2_778
10
22.569513
20
4.1878067
11
22.569513
21
6.1640067
0
LINE
8
DEFAULT_255_2_778
10
24.340913
20
5.0348067
11
24.340913
21
6.1640067
0
LINE
8
DEFAULT_255_2_778
10
24.340913
20
6.1640067
11
24.775613
21
6.1640067
0
LINE
8
DEFAULT_255_2_778
10
24.775613
20
6.1640067
11
24.775613
21
5.0462067
0
LINE
8
DEFAULT_255_2_778
10
25.622213
20
5.0319067
11
25.622213
21
6.1616067
0
LINE
8
DEFAULT_255_2_778
10
25.622213
20
6.1616067
11
26.057013
21
6.1616067
0
LINE
8
DEFAULT_255_2_778
10
26.057013
20
6.1616067
11
26.057013
21
5.0467067
0
LINE
8
DEFAULT_255_2_778
10
24.343813
20
5.0361067
11
24.340913
21
5.0348067
0
LINE
8
DEFAULT_255_2_778
10
26.634813
20
6.1640067
11
27.103113
21
6.1640067
0
LINE
8
DEFAULT_255_2_778
10
27.103113
20
6.1640067
11
27.622513
21
5.3285067
0
LINE
8
DEFAULT_255_2_778
10
27.622513
20
5.3285067
11
28.141913
21
6.1640067
0
LINE
8
DEFAULT_255_2_778
10
28.141913
20
6.1640067
11
28.611813
21
6.1640067
0
LINE
8
DEFAULT_255_2_778
10
28.611813
20
6.1640067
11
28.611813
21
4.1881067
0
LINE
8
DEFAULT_255_2_778
10
28.611813
20
4.1881067
11
28.178613
21
4.1881067
0
LINE
8
DEFAULT_255_2_778
10
28.178613
20
4.1881067
11
28.178613
21
5.4782067
0
LINE
8
DEFAULT_255_2_778
10
28.178613
20
5.4782067
11
27.622513
21
4.6316067
0
LINE
8
DEFAULT_255_2_778
10
27.622513
20
4.6316067
11
27.611113
21
4.6316067
0
LINE
8
DEFAULT_255_2_778
10
27.611113
20
4.6316067
11
27.060813
21
5.4671067
0
LINE
8
DEFAULT_255_2_778
10
27.060813
20
5.4671067
11
27.060813
21
4.1855067
0
LINE
8
DEFAULT_255_2_778
10
27.060813
20
4.1855067
11
26.637413
21
4.1855067
0
LINE
8
DEFAULT_255_2_778
10
26.637413
20
4.1855067
11
26.634813
21
6.1640067
0
LINE
8
DEFAULT_255_2_778
10
9.679013
20
3.1999067
11
10.449713
21
3.1999067
0
LINE
8
DEFAULT_255_2_778
10
10.449713
20
1.2240067
11
9.679013
21
1.2240067
0
LINE
8
DEFAULT_255_2_778
10
9.679013
20
1.2240067
11
9.679013
21
3.1999067
0
LINE
8
DEFAULT_255_2_778
10
10.113713
20
2.8075067
11
10.113713
21
1.6164067
0
LINE
8
DEFAULT_255_2_778
10
10.113713
20
1.6164067
11
10.449713
21
1.6164067
0
LINE
8
DEFAULT_255_2_778
10
10.447113
20
2.7998067
11
10.113713
21
2.8075067
0
LINE
8
DEFAULT_255_2_778
10
12.511613
20
3.2139067
11
12.912213
21
3.2139067
0
LINE
8
DEFAULT_255_2_778
10
12.912213
20
3.2139067
11
13.758913
21
1.2237067
0
LINE
8
DEFAULT_255_2_778
10
13.758913
20
1.2237067
11
13.304313
21
1.2237067
0
LINE
8
DEFAULT_255_2_778
10
13.304313
20
1.2237067
11
13.123613
21
1.6669067
0
LINE
8
DEFAULT_255_2_778
10
13.123613
20
1.6669067
11
12.287513
21
1.6669067
0
LINE
8
DEFAULT_255_2_778
10
12.287513
20
1.6669067
11
12.106813
21
1.2237067
0
LINE
8
DEFAULT_255_2_778
10
12.106813
20
1.2237067
11
11.663413
21
1.2237067
0
LINE
8
DEFAULT_255_2_778
10
11.663413
20
1.2237067
11
12.511613
21
3.2139067
0
LINE
8
DEFAULT_255_2_778
10
12.968813
20
2.0508067
11
12.706313
21
2.6930067
0
LINE
8
DEFAULT_255_2_778
10
12.706313
20
2.6930067
11
12.438113
21
2.0508067
0
LINE
8
DEFAULT_255_2_778
10
12.438113
20
2.0508067
11
12.968813
21
2.0508067
0
LINE
8
DEFAULT_255_2_778
10
14.348913
20
2.7991067
11
13.748313
21
2.7991067
0
LINE
8
DEFAULT_255_2_778
10
13.748313
20
2.7991067
11
13.748313
21
3.1999067
0
LINE
8
DEFAULT_255_2_778
10
13.748313
20
3.1999067
11
15.385513
21
3.1999067
0
LINE
8
DEFAULT_255_2_778
10
15.385513
20
3.1999067
11
15.385513
21
2.7991067
0
LINE
8
DEFAULT_255_2_778
10
15.385513
20
2.7991067
11
14.784113
21
2.7991067
0
LINE
8
DEFAULT_255_2_778
10
14.784113
20
2.7991067
11
14.784113
21
1.2240067
0
LINE
8
DEFAULT_255_2_778
10
14.784113
20
1.2240067
11
14.348913
21
1.2240067
0
LINE
8
DEFAULT_255_2_778
10
14.348913
20
1.2240067
11
14.348913
21
2.7991067
0
LINE
8
DEFAULT_255_2_778
10
16.217913
20
3.2139067
11
16.616413
21
3.2139067
0
LINE
8
DEFAULT_255_2_778
10
16.616413
20
3.2139067
11
17.463013
21
1.2237067
0
LINE
8
DEFAULT_255_2_778
10
17.463013
20
1.2237067
11
17.008513
21
1.2237067
0
LINE
8
DEFAULT_255_2_778
10
17.008513
20
1.2237067
11
16.827813
21
1.6669067
0
LINE
8
DEFAULT_255_2_778
10
16.827813
20
1.6669067
11
15.991713
21
1.6669067
0
LINE
8
DEFAULT_255_2_778
10
15.991713
20
1.6669067
11
15.811013
21
1.2237067
0
LINE
8
DEFAULT_255_2_778
10
15.811013
20
1.2237067
11
15.367513
21
1.2237067
0
LINE
8
DEFAULT_255_2_778
10
15.367513
20
1.2237067
11
16.217913
21
3.2139067
0
LINE
8
DEFAULT_255_2_778
10
16.672513
20
2.0508067
11
16.412613
21
2.6930067
0
LINE
8
DEFAULT_255_2_778
10
16.412613
20
2.6930067
11
16.150213
21
2.0521067
0
LINE
8
DEFAULT_255_2_778
10
16.150213
20
2.0521067
11
16.672513
21
2.0508067
0
LINE
8
DEFAULT_255_2_778
10
17.830013
20
3.1999067
11
18.747313
21
3.1999067
0
LINE
8
DEFAULT_255_2_778
10
18.775413
20
1.2385067
11
17.829713
21
1.2385067
0
LINE
8
DEFAULT_255_2_778
10
17.829713
20
1.2385067
11
17.830013
21
3.1999067
0
LINE
8
DEFAULT_255_2_778
10
18.685413
20
2.8210067
11
18.262113
21
2.8210067
0
LINE
8
DEFAULT_255_2_778
10
18.262113
20
2.8210067
11
18.262113
21
2.3977067
0
LINE
8
DEFAULT_255_2_778
10
18.262113
20
2.3977067
11
18.648913
21
2.3977067
0
LINE
8
DEFAULT_255_2_778
10
18.962213
20
2.6093067
11
18.967713
21
2.6178067
0
LINE
8
DEFAULT_255_2_778
10
18.756013
20
2.0418067
11
18.253313
21
2.0418067
0
LINE
8
DEFAULT_255_2_778
10
18.253313
20
2.0418067
11
18.253313
21
1.6079067
0
LINE
8
DEFAULT_255_2_778
10
18.253313
20
1.6079067
11
18.769813
21
1.6079067
0
LINE
8
DEFAULT_255_2_778
10
18.755813
20
2.0397067
11
18.756013
21
2.0418067
0
LINE
8
DEFAULT_255_2_778
10
20.583513
20
3.2139067
11
20.984413
21
3.2139067
0
LINE
8
DEFAULT_255_2_778
10
20.984413
20
3.2139067
11
21.828613
21
1.2243067
0
LINE
8
DEFAULT_255_2_778
10
21.828613
20
1.2243067
11
21.374113
21
1.2243067
0
LINE
8
DEFAULT_255_2_778
10
21.374113
20
1.2243067
11
21.193413
21
1.6674067
0
LINE
8
DEFAULT_255_2_778
10
21.193413
20
1.6674067
11
20.357313
21
1.6674067
0
LINE
8
DEFAULT_255_2_778
10
20.357313
20
1.6674067
11
20.176613
21
1.2243067
0
LINE
8
DEFAULT_255_2_778
10
20.176613
20
1.2243067
11
19.733113
21
1.2243067
0
LINE
8
DEFAULT_255_2_778
10
19.733113
20
1.2243067
11
20.583513
21
3.2139067
0
LINE
8
DEFAULT_255_2_778
10
21.047913
20
2.0508067
11
20.778013
21
2.6930067
0
LINE
8
DEFAULT_255_2_778
10
20.778013
20
2.6930067
11
20.515513
21
2.0521067
0
LINE
8
DEFAULT_255_2_778
10
20.515513
20
2.0521067
11
21.047913
21
2.0508067
0
LINE
8
DEFAULT_255_2_778
10
22.000413
20
1.5119067
11
22.257013
21
1.8196067
0
LINE
8
DEFAULT_255_2_778
10
23.502113
20
2.9652067
11
23.276213
21
2.6377067
0
LINE
8
DEFAULT_255_2_778
10
22.000613
20
1.5119067
11
22.000413
21
1.5119067
0
LINE
8
DEFAULT_255_2_778
10
24.026313
20
3.1999067
11
25.516713
21
3.1999067
0
LINE
8
DEFAULT_255_2_778
10
25.516713
20
3.1999067
11
25.516713
21
2.8131067
0
LINE
8
DEFAULT_255_2_778
10
25.516713
20
2.8131067
11
24.458313
21
2.8131067
0
LINE
8
DEFAULT_255_2_778
10
24.458313
20
2.8131067
11
24.458313
21
2.4109067
0
LINE
8
DEFAULT_255_2_778
10
24.458313
20
2.4109067
11
25.389713
21
2.4109067
0
LINE
8
DEFAULT_255_2_778
10
25.389713
20
2.4109067
11
25.389713
21
2.0241067
0
LINE
8
DEFAULT_255_2_778
10
25.389713
20
2.0241067
11
24.458313
21
2.0241067
0
LINE
8
DEFAULT_255_2_778
10
24.458313
20
2.0241067
11
24.458313
21
1.6092067
0
LINE
8
DEFAULT_255_2_778
10
24.458313
20
1.6092067
11
25.531013
21
1.6092067
0
LINE
8
DEFAULT_255_2_778
10
25.531013
20
1.6092067
11
25.531013
21
1.2224067
0
LINE
8
DEFAULT_255_2_778
10
25.531013
20
1.2224067
11
24.026313
21
1.2224067
0
LINE
8
DEFAULT_255_2_778
10
24.026313
20
1.2224067
11
24.026313
21
3.1999067
0
ENDSEC
0
EOF