0
SECTION
2
HEADER
9
$MEASUREMENT
70
1
0
ENDSEC
0
SECTION
2
TABLES
0
TABLE
2
LTYPE
0
LTYPE
72
65
70
64
2
CONTINUOUS
3
______
73
0
40
0
0
ENDTAB
0
TABLE
2
LAYER
0
LAYER
2
DEFAULT_255_2_778
70
0
62
255
6
CONTINUOUS
0
ENDTAB
0
ENDSEC
0
SECTION
2
ENTITIES
0
ARC
8
DEFAULT_255_2_778
10
5.9101975
20
5.5742708
40
0.3594677
50
150.0499925
51
159.4582608
0
ARC
8
DEFAULT_255_2_778
10
7.5015865
20
4.9320625
40
2.0754603
50
158.2718582
51
161.2078887
0
ARC
8
DEFAULT_255_2_778
10
9.3694655
20
4.2788932
40
4.0542125
50
160.9727061
51
161.6263386
0
ARC
8
DEFAULT_255_2_778
10
2.3494426
20
2.9674429
40
2.3149668
50
326.128368
51
332.7848764
0
ARC
8
DEFAULT_255_2_778
10
2.7232316
20
2.8844738
40
1.9633305
50
321.8653132
51
322.0557536
0
ARC
8
DEFAULT_255_2_778
10
3.503199
20
2.2434903
40
0.9542892
50
308.3141665
51
323.2183545
0
ARC
8
DEFAULT_255_2_778
10
3.8910749
20
1.7456525
40
0.3232303
50
270.4711068
51
309.0781189
0
ARC
8
DEFAULT_255_2_778
10
3.8805295
20
1.7349796
40
0.3128253
50
234.4553692
51
272.4189491
0
ARC
8
DEFAULT_255_2_778
10
3.8690805
20
1.7039058
40
0.2810223
50
216.9615447
51
232.671353
0
ARC
8
DEFAULT_255_2_778
10
3.9466163
20
1.7394708
40
0.3648155
50
190.888013
51
214.1015387
0
ARC
8
DEFAULT_255_2_778
10
4.6103393
20
1.8873573
40
1.0447132
50
182.0750803
51
191.9769212
0
ARC
8
DEFAULT_255_2_778
10
5.6179721
20
1.9463003
40
2.0539419
50
179.9098238
51
182.7004801
0
ARC
8
DEFAULT_255_2_778
10
4.118866
20
2.1118026
40
0.5551666
50
167.5941518
51
178.0149431
0
ARC
8
DEFAULT_255_2_778
10
6.0390131
20
1.7328924
40
2.5122407
50
165.7305067
51
168.5623859
0
ARC
8
DEFAULT_255_2_778
10
13.3730666
20
-0.1083847
40
10.0738879
50
164.9540458
51
165.8627504
0
ARC
8
DEFAULT_255_2_778
10
-0.4796376
20
8.1888763
40
5.9452828
50
305.5547898
51
313.922744
0
ARC
8
DEFAULT_255_2_778
10
0.0666611
20
7.5503277
40
5.1086465
50
299.5882423
51
304.7344341
0
ARC
8
DEFAULT_255_2_778
10
0.6994164
20
6.4407616
40
3.8313414
50
294.3387979
51
299.5526723
0
ARC
8
DEFAULT_255_2_778
10
1.555206
20
4.5323982
40
1.7399002
50
280.1441277
51
294.5615982
0
ARC
8
DEFAULT_255_2_778
10
1.6027407
20
4.3004661
40
1.5032335
50
270.0378066
51
279.9176253
0
ARC
8
DEFAULT_255_2_778
10
1.5904874
20
4.1087621
40
1.311596
50
254.2615707
51
270.5786114
0
ARC
8
DEFAULT_255_2_778
10
1.5218701
20
3.8398368
40
1.0341635
50
237.6652677
51
253.8792825
0
ARC
8
DEFAULT_255_2_778
10
1.7036855
20
4.1753109
40
1.4151004
50
213.7397931
51
238.7103654
0
ARC
8
DEFAULT_255_2_778
10
2.2874217
20
4.5036016
40
2.0834866
50
194.4376682
51
212.3310012
0
ARC
8
DEFAULT_255_2_778
10
37.1905198
20
9.5148334
40
37.332736
50
188.4874883
51
188.5195075
0
ARC
8
DEFAULT_255_2_778
10
6.3219338
20
4.9626691
40
6.1305847
50
185.0696375
51
188.9892864
0
ARC
8
DEFAULT_255_2_778
10
2.9001781
20
4.6423084
40
2.6939577
50
180.1717511
51
184.7136253
0
ARC
8
DEFAULT_255_2_778
10
0.6292287
20
4.7084271
40
0.4230416
50
168.8777682
51
179.1594576
0
ARC
8
DEFAULT_255_2_778
10
7.4378183
20
4.4215337
40
7.2330787
50
169.1159089
51
177.0797224
0
ARC
8
DEFAULT_255_2_778
10
8.7669
20
4.190313
40
8.5819448
50
167.6692148
51
169.2754705
0
ARC
8
DEFAULT_255_2_778
10
10.4339784
20
3.7623565
40
10.3021444
50
160.0080755
51
167.3240051
0
ARC
8
DEFAULT_255_2_778
10
11.5141609
20
3.3573903
40
11.4556947
50
153.2648287
51
159.9517479
0
ARC
8
DEFAULT_255_2_778
10
9.1624284
20
4.893474
40
8.6289186
50
138.5773991
51
146.7699956
0
ARC
8
DEFAULT_255_2_778
10
7.6183362
20
6.2526039
40
6.5718703
50
132.8933476
51
138.5561305
0
ARC
8
DEFAULT_255_2_778
10
6.7635078
20
7.1665031
40
5.3205026
50
127.7400797
51
132.8477572
0
ARC
8
DEFAULT_255_2_778
10
6.0130599
20
8.1870589
40
4.0542374
50
119.4653154
51
128.1811728
0
ARC
8
DEFAULT_255_2_778
10
5.6545843
20
8.8080873
40
3.3372104
50
112.9944
51
119.351548
0
ARC
8
DEFAULT_255_2_778
10
5.4173676
20
9.3936439
40
2.7055335
50
112.6263221
51
113.2141012
0
ARC
8
DEFAULT_255_2_778
10
5.2512382
20
9.8389914
40
2.230622
50
96.9219718
51
113.0884396
0
ARC
8
DEFAULT_255_2_778
10
5.1926495
20
10.2143358
40
1.8509975
50
90.0345724
51
96.5218543
0
ARC
8
DEFAULT_255_2_778
10
5.1829353
20
10.2629555
40
1.802398
50
62.1602698
51
89.7267017
0
ARC
8
DEFAULT_255_2_778
10
5.0127008
20
9.8879624
40
2.2136243
50
59.8767996
51
62.7967694
0
ARC
8
DEFAULT_255_2_778
10
5.0002629
20
9.958572
40
2.159287
50
46.8143056
51
58.650957
0
ARC
8
DEFAULT_255_2_778
10
4.4691971
20
9.3877093
40
2.9389705
50
38.4118223
51
46.8817092
0
ARC
8
DEFAULT_255_2_778
10
3.7441405
20
8.8020077
40
3.8710107
50
33.6682751
51
38.5369055
0
ARC
8
DEFAULT_255_2_778
10
6.395961
20
10.5508267
40
0.6946412
50
10.8288396
51
34.8768835
0
ARC
8
DEFAULT_255_2_778
10
5.6543473
20
10.4197742
40
1.4477094
50
0.3308143
51
10.4088316
0
ARC
8
DEFAULT_255_2_778
10
6.2291148
20
10.4150817
40
0.8730153
50
343.5912039
51
0.8565855
0
ARC
8
DEFAULT_255_2_778
10
6.554794
20
10.321388
40
0.5341376
50
320.6663792
51
343.3634612
0
ARC
8
DEFAULT_255_2_778
10
6.6548682
20
10.2074462
40
0.3853057
50
268.7455106
51
324.3418221
0
ARC
8
DEFAULT_255_2_778
10
6.6523979
20
10.1779794
40
0.3557964
50
225.8651344
51
269.0393275
0
ARC
8
DEFAULT_255_2_778
10
6.829033
20
10.3913133
40
0.6322819
50
218.3583712
51
227.8394953
0
ARC
8
DEFAULT_255_2_778
10
8.348871
20
11.6083988
40
2.5793757
50
214.2992474
51
218.6069937
0
ARC
8
DEFAULT_255_2_778
10
8.7019667
20
11.8502787
40
3.0073731
50
209.6196591
51
214.3153188
0
ARC
8
DEFAULT_255_2_778
10
8.5116679
20
11.7449309
40
2.7898755
50
209.6272643
51
209.6704222
0
ARC
8
DEFAULT_255_2_778
10
8.912786
20
11.9722717
40
3.2509384
50
206.9173895
51
209.6153364
0
ARC
8
DEFAULT_255_2_778
10
8.973353
20
12.0037653
40
3.3192009
50
206.8402176
51
206.9288275
0
ARC
8
DEFAULT_255_2_778
10
4.5373122
20
9.6965348
40
1.6815905
50
28.741141
51
38.6636884
0
ARC
8
DEFAULT_255_2_778
10
5.1389608
20
10.1842745
40
0.9071064
50
38.3503093
51
56.3099587
0
ARC
8
DEFAULT_255_2_778
10
5.2101801
20
10.2782865
40
0.7894105
50
56.8259868
51
89.9918111
0
ARC
8
DEFAULT_255_2_778
10
5.2102796
20
10.2815155
40
0.7861816
50
89.9990321
51
90.7322336
0
ARC
8
DEFAULT_255_2_778
10
5.2119792
20
10.0397555
40
1.0279446
50
90.6547505
51
113.2429647
0
ARC
8
DEFAULT_255_2_778
10
5.4660896
20
9.4203254
40
1.6974168
50
112.8730219
51
124.1192294
0
ARC
8
DEFAULT_255_2_778
10
5.8605561
20
8.8061648
40
2.4271923
50
123.6960882
51
126.6167943
0
ARC
8
DEFAULT_255_2_778
10
6.8299723
20
7.5144444
40
4.0422076
50
126.7250159
51
134.5157793
0
ARC
8
DEFAULT_255_2_778
10
7.5912184
20
6.7370742
40
5.1302317
50
134.4911363
51
140.2090403
0
ARC
8
DEFAULT_255_2_778
10
8.2592271
20
6.1646167
40
6.0098981
50
140.0913044
51
141.0519357
0
ARC
8
DEFAULT_255_2_778
10
10.0485885
20
4.7228172
40
8.3078518
50
141.0761428
51
145.7366227
0
ARC
8
DEFAULT_255_2_778
10
10.8685391
20
4.1633564
40
9.3004822
50
145.7320604
51
150.2008589
0
ARC
8
DEFAULT_255_2_778
10
13.3031753
20
2.7009414
40
12.1401007
50
149.9218145
51
156.9652523
0
ARC
8
DEFAULT_255_2_778
10
11.7006818
20
3.4050192
40
10.3899005
50
157.080515
51
161.8071721
0
ARC
8
DEFAULT_255_2_778
10
9.8192331
20
4.034319
40
8.4060322
50
161.8782183
51
165.7089166
0
ARC
8
DEFAULT_255_2_778
10
7.7866856
20
4.5441773
40
6.3105307
50
165.6394559
51
170.0739674
0
ARC
8
DEFAULT_255_2_778
10
6.0456708
20
4.8446664
40
4.5437815
50
170.022025
51
176.2408936
0
ARC
8
DEFAULT_255_2_778
10
5.0679369
20
4.9171986
40
3.5634053
50
176.3739344
51
179.9544263
0
ARC
8
DEFAULT_255_2_778
10
4.2207508
20
4.9193619
40
2.7162183
50
179.9858442
51
187.6381303
0
ARC
8
DEFAULT_255_2_778
10
2.8825663
20
4.7328404
40
1.3651334
50
187.3443174
51
201.8024601
0
ARC
8
DEFAULT_255_2_778
10
3.9348123
20
5.1129591
40
2.4835801
50
200.9284596
51
201.0541425
0
ARC
8
DEFAULT_255_2_778
10
2.1554005
20
4.4272351
40
0.5766135
50
200.9853466
51
232.2304975
0
ARC
8
DEFAULT_255_2_778
10
2.0808173
20
4.3256546
40
0.4506467
50
231.8160076
51
271.3497597
0
ARC
8
DEFAULT_255_2_778
10
2.0807967
20
4.6691968
40
0.794135
50
270.7673876
51
288.7006442
0
ARC
8
DEFAULT_255_2_778
10
1.9747195
20
5.0084489
40
1.1495178
50
288.2871785
51
299.0693107
0
ARC
8
DEFAULT_255_2_778
10
1.2035382
20
6.5223409
40
2.8480648
50
297.8317301
51
306.5637415
0
ARC
8
DEFAULT_255_2_778
10
0.7287235
20
7.182366
40
3.6610677
50
306.378768
51
309.3011916
0
ARC
8
DEFAULT_255_2_778
10
0.9019528
20
8.502869
40
4.4378092
50
324.2206044
51
327.8936672
0
ARC
8
DEFAULT_255_2_778
10
2.8179129
20
7.3050192
40
2.1782252
50
327.7973046
51
333.9966297
0
ARC
8
DEFAULT_255_2_778
10
6.0906979
20
7.5412352
40
0.9023239
50
144.9600424
51
160.2913243
0
ARC
8
DEFAULT_255_2_778
10
5.7482229
20
7.7789956
40
0.4854163
50
123.6375623
51
144.7281679
0
ARC
8
DEFAULT_255_2_778
10
5.7854435
20
7.771651
40
0.512856
50
90.97322
51
126.6464067
0
ARC
8
DEFAULT_255_2_778
10
5.7740652
20
7.797176
40
0.4872642
50
71.9017457
51
89.6863484
0
ARC
8
DEFAULT_255_2_778
10
5.8081118
20
7.9011475
40
0.3778603
50
48.2682052
51
71.9114105
0
ARC
8
DEFAULT_255_2_778
10
5.8388658
20
7.9326425
40
0.3338913
50
19.943926
51
48.6090405
0
ARC
8
DEFAULT_255_2_778
10
5.6844162
20
7.8483476
40
0.508525
50
0.0138015
51
22.9374468
0
ARC
8
DEFAULT_255_2_778
10
5.6793902
20
7.8485053
40
0.5135509
50
359.6683846
51
359.9960747
0
ARC
8
DEFAULT_255_2_778
10
3.0559115
20
7.8273321
40
3.1370739
50
0.0000151
51
0.3324242
0
ARC
8
DEFAULT_255_2_778
10
3.0569875
20
7.8272764
40
3.1359979
50
349.9465072
51
0.0010328
0
ARC
8
DEFAULT_255_2_778
10
2.4944722
20
7.9731735
40
3.7156227
50
341.0317641
51
349.2454855
0
ARC
8
DEFAULT_255_2_778
10
-0.6495757
20
8.8271348
40
6.9698175
50
338.4164367
51
342.7942287
0
ARC
8
DEFAULT_255_2_778
10
8.5861373
20
7.2551748
40
4.5854041
50
314.5909424
51
323.4745196
0
ARC
8
DEFAULT_255_2_778
10
7.4979327
20
8.3101922
40
6.1007813
50
313.9144299
51
314.9129418
0
ARC
8
DEFAULT_255_2_778
10
7.9548751
20
7.8071764
40
5.4215289
50
305.3451491
51
314.1227589
0
ARC
8
DEFAULT_255_2_778
10
8.7159953
20
6.7270107
40
4.1001508
50
298.0665411
51
305.4016664
0
ARC
8
DEFAULT_255_2_778
10
9.1084787
20
6.0092371
40
3.2821353
50
294.0418405
51
297.9160983
0
ARC
8
DEFAULT_255_2_778
10
9.6966684
20
4.6647308
40
1.8146676
50
284.3472027
51
294.3763202
0
ARC
8
DEFAULT_255_2_778
10
9.8647716
20
3.9999995
40
1.1290141
50
270.5258117
51
284.4415039
0
ARC
8
DEFAULT_255_2_778
10
9.8562516
20
3.4163467
40
0.5456405
50
223.6332627
51
271.9830217
0
ARC
8
DEFAULT_255_2_778
10
9.8399556
20
3.3796331
40
0.508743
50
196.1697004
51
221.9068036
0
ARC
8
DEFAULT_255_2_778
10
10.3480572
20
3.5414552
40
1.0419026
50
184.5708911
51
196.9353622
0
ARC
8
DEFAULT_255_2_778
10
11.0659898
20
3.6136179
40
1.7633642
50
179.8402988
51
185.049161
0
ARC
8
DEFAULT_255_2_778
10
11.8016954
20
3.60414
40
2.4991043
50
172.4608152
51
179.6700167
0
ARC
8
DEFAULT_255_2_778
10
13.4312986
20
3.394514
40
4.1421282
50
167.5114526
51
172.5437677
0
ARC
8
DEFAULT_255_2_778
10
14.9534861
20
3.0770172
40
5.6969886
50
167.6734
51
167.7043512
0
ARC
8
DEFAULT_255_2_778
10
6.6212568
20
5.868466
40
3.1835987
50
319.548475
51
330.3436776
0
ARC
8
DEFAULT_255_2_778
10
6.844638
20
5.5944612
40
2.8365525
50
307.5384769
51
320.8327323
0
ARC
8
DEFAULT_255_2_778
10
7.2139735
20
5.0925209
40
2.2135458
50
290.2531209
51
307.8741138
0
ARC
8
DEFAULT_255_2_778
10
7.2622364
20
4.953555
40
2.0664668
50
273.0722291
51
290.3314934
0
ARC
8
DEFAULT_255_2_778
10
7.2651825
20
4.9455029
40
2.05827
50
269.995826
51
273.0023479
0
ARC
8
DEFAULT_255_2_778
10
7.2619394
20
4.083224
40
1.1959951
50
270.0000082
51
270.1481835
0
ARC
8
DEFAULT_255_2_778
10
7.2619001
20
4.0553612
40
1.1681323
50
253.4999993
51
270.0019373
0
ARC
8
DEFAULT_255_2_778
10
7.1004312
20
3.6080725
40
0.6939598
50
228.5367007
51
255.7944478
0
ARC
8
DEFAULT_255_2_778
10
7.2400118
20
3.7133372
40
0.8659685
50
207.6086106
51
226.2270281
0
ARC
8
DEFAULT_255_2_778
10
7.5612804
20
3.9006995
40
1.2376035
50
205.022104
51
208.4022752
0
ARC
8
DEFAULT_255_2_778
10
7.3905354
20
3.7409752
40
1.0179118
50
185.9610499
51
200.9370278
0
ARC
8
DEFAULT_255_2_778
10
8.0152318
20
3.8218897
40
1.6477072
50
179.8211516
51
186.503542
0
ARC
8
DEFAULT_255_2_778
10
8.6842861
20
3.7085626
40
2.3218533
50
168.8823099
51
172.2881955
0
ARC
8
DEFAULT_255_2_778
10
10.1709978
20
3.4204609
40
3.8362193
50
165.9811654
51
168.9417541
0
ARC
8
DEFAULT_255_2_778
10
11.5484783
20
3.0790217
40
5.2553843
50
163.2005517
51
166.0074645
0
ARC
8
DEFAULT_255_2_778
10
12.303597
20
2.8571156
40
6.0424149
50
163.1686251
51
163.2556503
0
ARC
8
DEFAULT_255_2_778
10
8.5688048
20
6.7321276
40
1.1210278
50
144.4539192
51
156.56705
0
ARC
8
DEFAULT_255_2_778
10
8.141249
20
7.0363475
40
0.596288
50
125.2113803
51
144.3544971
0
ARC
8
DEFAULT_255_2_778
10
8.1061672
20
7.1198177
40
0.5082352
50
90.0029075
51
127.4063565
0
ARC
8
DEFAULT_255_2_778
10
8.1061176
20
7.113284
40
0.5147688
50
89.4974584
51
89.9973558
0
ARC
8
DEFAULT_255_2_778
10
8.1021659
20
7.0719519
40
0.5561455
50
73.1544734
51
89.1276987
0
ARC
8
DEFAULT_255_2_778
10
8.1853201
20
7.2337093
40
0.3786473
50
53.9720862
51
78.1102234
0
ARC
8
DEFAULT_255_2_778
10
8.175858
20
7.2107531
40
0.4028206
50
31.1680671
51
54.804215
0
ARC
8
DEFAULT_255_2_778
10
8.2415948
20
7.2640804
40
0.3191843
50
359.0220891
51
29.083956
0
ARC
8
DEFAULT_255_2_778
10
8.0838271
20
7.2688614
40
0.4770152
50
345.2511813
51
358.7713389
0
ARC
8
DEFAULT_255_2_778
10
7.6993729
20
7.3550641
40
0.8708687
50
346.1254805
51
346.2060359
0
ARC
8
DEFAULT_255_2_778
10
6.6678626
20
7.7588484
40
1.9744149
50
337.0783698
51
341.9240787
0
ARC
8
DEFAULT_255_2_778
10
6.5518221
20
7.8113547
40
2.1017447
50
333.4808732
51
336.9920638
0
ARC
8
DEFAULT_255_2_778
10
13.1878185
20
3.3285245
40
5.8607337
50
152.8782417
51
157.1102309
0
ARC
8
DEFAULT_255_2_778
10
15.234429
20
2.4421598
40
8.0909695
50
156.9649246
51
158.035567
0
ARC
8
DEFAULT_255_2_778
10
9.8047755
20
4.2265691
40
2.3668388
50
163.3195139
51
176.9759259
0
ARC
8
DEFAULT_255_2_778
10
7.8874929
20
4.3440542
40
0.4463213
50
179.0527151
51
180.0012982
0
ARC
8
DEFAULT_255_2_778
10
7.8857667
20
4.343888
40
0.4445952
50
179.9798904
51
206.9440507
0
ARC
8
DEFAULT_255_2_778
10
7.6515417
20
4.2294324
40
0.183979
50
208.2212063
51
274.548752
0
ARC
8
DEFAULT_255_2_778
10
7.6612545
20
5.1289909
40
1.0829689
50
270.2580822
51
299.3477946
0
ARC
8
DEFAULT_255_2_778
10
7.5570319
20
5.3371285
40
1.3155221
50
298.8615778
51
305.8578001
0
ARC
8
DEFAULT_255_2_778
10
6.7255799
20
6.4954947
40
2.7413953
50
305.7601329
51
320.3123499
0
ARC
8
DEFAULT_255_2_778
10
6.1623074
20
6.9976591
40
3.4956395
50
319.8742687
51
321.7166627
0
ARC
8
DEFAULT_255_2_778
10
4.4663005
20
8.3143541
40
5.6427169
50
321.8914522
51
330.7247442
0
ARC
8
DEFAULT_255_2_778
10
6.5027463
20
7.7706755
40
3.5752187
50
334.9559657
51
342.8248003
0
ARC
8
DEFAULT_255_2_778
10
13.0565289
20
5.7938851
40
3.2703746
50
155.2177081
51
163.6422638
0
ARC
8
DEFAULT_255_2_778
10
11.2363671
20
6.7020317
40
1.238698
50
141.9521816
51
158.0659933
0
ARC
8
DEFAULT_255_2_778
10
10.9959245
20
6.877955
40
0.940975
50
137.7830867
51
141.3645674
0
ARC
8
DEFAULT_255_2_778
10
10.5761647
20
7.2979451
40
0.3490965
50
88.018959
51
142.5472846
0
ARC
8
DEFAULT_255_2_778
10
10.5977085
20
7.288485
40
0.3584732
50
36.5636357
51
91.5147305
0
ARC
8
DEFAULT_255_2_778
10
10.4368719
20
7.1650062
40
0.5612248
50
359.1349327
51
36.9071603
0
ARC
8
DEFAULT_255_2_778
10
10.3950356
20
7.1714439
40
0.6031814
50
345.475667
51
358.5834782
0
ARC
8
DEFAULT_255_2_778
10
9.5879718
20
7.3646173
40
1.4329812
50
339.0064336
51
346.0916125
0
ARC
8
DEFAULT_255_2_778
10
12.4923713
20
4.078988
40
2.4708552
50
165.7132543
51
174.1755669
0
ARC
8
DEFAULT_255_2_778
10
11.8135623
20
4.1551761
40
1.7878324
50
174.3969782
51
179.9020341
0
ARC
8
DEFAULT_255_2_778
10
10.2741623
20
4.1457613
40
0.2487426
50
177.1260566
51
211.9604859
0
ARC
8
DEFAULT_255_2_778
10
10.2231041
20
4.1362587
40
0.2012896
50
217.3666963
51
269.2022298
0
ARC
8
DEFAULT_255_2_778
10
10.2577283
20
4.3570056
40
0.4236734
50
264.9319469
51
270.1087643
0
ARC
8
DEFAULT_255_2_778
10
10.2503327
20
4.6824114
40
0.7491233
50
270.627172
51
286.6405252
0
ARC
8
DEFAULT_255_2_778
10
10.1300129
20
5.1016351
40
1.1852551
50
286.4099106
51
297.0284979
0
ARC
8
DEFAULT_255_2_778
10
9.7402634
20
6.07687
40
2.2331549
50
294.5647238
51
303.6923227
0
ARC
8
DEFAULT_255_2_778
10
9.2118769
20
6.8929619
40
3.2053067
50
303.4585052
51
307.7638268
0
ARC
8
DEFAULT_255_2_778
10
8.1900811
20
8.1763655
40
4.845696
50
308.0216583
51
316.5052886
0
ARC
8
DEFAULT_255_2_778
10
8.9219391
20
7.5460523
40
3.8812199
50
315.8191819
51
327.0658852
0
LINE
8
DEFAULT_255_2_778
10
5.5219326
20
5.556833
11
5.3897326
21
5.138833
0
LINE
8
DEFAULT_255_2_778
10
5.3897326
20
5.138833
11
5.2177326
21
4.578733
0
LINE
8
DEFAULT_255_2_778
10
5.2177326
20
4.578733
11
5.0272326
21
3.945533
0
LINE
8
DEFAULT_255_2_778
10
5.0272326
20
3.945533
11
4.8340326
21
3.312433
0
LINE
8
DEFAULT_255_2_778
10
4.8340326
20
3.312433
11
4.5528326
21
2.332133
0
LINE
8
DEFAULT_255_2_778
10
4.5528326
20
2.332133
11
4.4964326
21
2.131033
0
LINE
8
DEFAULT_255_2_778
10
4.4964326
20
2.131033
11
4.4081326
21
1.908733
0
LINE
8
DEFAULT_255_2_778
10
3.5640326
20
1.949533
11
3.5640326
21
2.131033
0
LINE
8
DEFAULT_255_2_778
10
3.6445326
20
2.506733
11
3.8212326
21
3.130333
0
LINE
8
DEFAULT_255_2_778
10
3.8212326
20
3.130333
11
4.0382326
21
3.851033
0
LINE
8
DEFAULT_255_2_778
10
4.0382326
20
3.851033
11
4.2551326
21
4.525733
0
LINE
8
DEFAULT_255_2_778
10
4.2551326
20
4.525733
11
3.6445326
21
3.906633
0
LINE
8
DEFAULT_255_2_778
10
0.2062326
20
4.634233
11
0.2062326
21
4.714633
0
LINE
8
DEFAULT_255_2_778
10
1.2831326
20
8.510933
11
1.9445326
21
9.622133
0
LINE
8
DEFAULT_255_2_778
10
3.0476326
20
4.349333
11
3.5860326
21
4.831333
0
LINE
8
DEFAULT_255_2_778
10
3.5860326
20
4.831333
11
4.0921326
21
5.377733
0
LINE
8
DEFAULT_255_2_778
10
4.0921326
20
5.377733
11
4.5022326
21
5.908233
0
LINE
8
DEFAULT_255_2_778
10
4.7756326
20
6.350033
11
5.2412326
21
7.845533
0
LINE
8
DEFAULT_255_2_778
10
5.8315326
20
6.263233
11
5.6384326
21
5.732833
0
LINE
8
DEFAULT_255_2_778
10
5.6384326
20
5.732833
11
5.5987326
21
5.753733
0
LINE
8
DEFAULT_255_2_778
10
6.3675326
20
3.827033
11
6.3834326
21
4.020133
0
LINE
8
DEFAULT_255_2_778
10
6.5200326
20
4.606733
11
6.8734326
21
5.643333
0
LINE
8
DEFAULT_255_2_778
10
6.8734326
20
5.643333
11
7.5402326
21
7.177933
0
LINE
8
DEFAULT_255_2_778
10
8.4324326
20
6.872933
11
8.2207326
21
6.476033
0
LINE
8
DEFAULT_255_2_778
10
8.2207326
20
6.476033
11
7.9715326
21
6.000333
0
LINE
8
DEFAULT_255_2_778
10
7.7307326
20
5.468433
11
7.5375326
21
4.905933
0
LINE
8
DEFAULT_255_2_778
10
9.3883326
20
5.555033
11
9.7418326
21
6.257233
0
LINE
8
DEFAULT_255_2_778
10
10.9258326
20
6.851233
11
10.7490326
21
6.401433
0
LINE
8
DEFAULT_255_2_778
10
10.7490326
20
6.401433
11
10.5162326
21
5.857433
0
LINE
8
DEFAULT_255_2_778
10
10.5162326
20
5.857433
11
10.2831326
21
5.270833
0
LINE
8
DEFAULT_255_2_778
10
10.2831326
20
5.270833
11
10.0979326
21
4.688733
0
LINE
8
DEFAULT_255_2_778
10
12.1794326
20
5.435933
11
12.2357326
21
4.583933
0
LINE
8
DEFAULT_255_2_778
10
12.2357326
20
4.583933
11
12.2709326
21
4.526033
0
ARC
8
DEFAULT_255_2_778
10
15.3915053
20
3.6713617
40
3.1793419
50
158.442117
51
163.1125521
0
ARC
8
DEFAULT_255_2_778
10
16.9785569
20
3.1685054
40
4.8440733
50
162.8742749
51
164.002839
0
ARC
8
DEFAULT_255_2_778
10
13.61281
20
4.1070938
40
1.3502361
50
162.9282066
51
173.9170151
0
ARC
8
DEFAULT_255_2_778
10
13.1780407
20
4.1605904
40
0.9122736
50
174.3644096
51
179.9000217
0
ARC
8
DEFAULT_255_2_778
10
12.5837958
20
4.1497587
40
0.3182699
50
177.7629194
51
204.0501652
0
ARC
8
DEFAULT_255_2_778
10
12.4652331
20
4.1056762
40
0.1922037
50
206.4544166
51
209.2087112
0
ARC
8
DEFAULT_255_2_778
10
12.4015621
20
4.0784785
40
0.123574
50
212.6100008
51
276.0972055
0
ARC
8
DEFAULT_255_2_778
10
12.418141
20
4.2395353
40
0.2839528
50
269.3031609
51
270.0055545
0
ARC
8
DEFAULT_255_2_778
10
12.4043247
20
4.473256
40
0.5178589
50
271.5318568
51
289.7239045
0
ARC
8
DEFAULT_255_2_778
10
12.2309132
20
5.0135775
40
1.0851721
50
288.7146245
51
295.4343088
0
ARC
8
DEFAULT_255_2_778
10
11.6281974
20
6.2859245
40
2.4930538
50
295.3850599
51
302.3330669
0
ARC
8
DEFAULT_255_2_778
10
11.1778747
20
7.0214908
40
3.3554485
50
302.1126445
51
304.0422495
0
ARC
8
DEFAULT_255_2_778
10
14.7819615
20
5.4083233
40
0.2402604
50
108.4892407
51
137.0971691
0
ARC
8
DEFAULT_255_2_778
10
14.8168004
20
5.3914194
40
0.2687693
50
92.2457427
51
114.4004885
0
ARC
8
DEFAULT_255_2_778
10
14.8155074
20
5.4575205
40
0.2026724
50
34.2830731
51
92.6127458
0
ARC
8
DEFAULT_255_2_778
10
14.7203522
20
5.3651774
40
0.3340832
50
0.7915754
51
38.1792725
0
ARC
8
DEFAULT_255_2_778
10
14.5090047
20
5.3390658
40
0.5462637
50
359.9702632
51
3.2245586
0
ARC
8
DEFAULT_255_2_778
10
14.408096
20
5.3511401
40
0.6472905
50
337.4173536
51
358.9060608
0
ARC
8
DEFAULT_255_2_778
10
14.1149915
20
5.4542569
40
0.9576772
50
335.0037762
51
338.4551987
0
ARC
8
DEFAULT_255_2_778
10
14.3432922
20
5.3532234
40
0.7080845
50
323.1753431
51
334.6072724
0
ARC
8
DEFAULT_255_2_778
10
14.036006
20
5.5848245
40
1.092874
50
311.9490348
51
323.1117491
0
ARC
8
DEFAULT_255_2_778
10
13.8249969
20
5.8063034
40
1.3986782
50
310.0973153
51
312.3129641
0
ARC
8
DEFAULT_255_2_778
10
8.8939941
20
9.3436788
40
7.3936927
50
307.1538445
51
314.135718
0
ARC
8
DEFAULT_255_2_778
10
11.1370187
20
6.4152613
40
3.7050532
50
294.6885982
51
306.8586461
0
ARC
8
DEFAULT_255_2_778
10
11.960975
20
4.7028723
40
1.805345
50
279.6013348
51
293.6285885
0
ARC
8
DEFAULT_255_2_778
10
12.031464
20
4.3329078
40
1.4288272
50
270.0884013
51
279.2887723
0
ARC
8
DEFAULT_255_2_778
10
12.0204903
20
3.8504546
40
0.9464641
50
255.4489215
51
270.7977913
0
ARC
8
DEFAULT_255_2_778
10
11.9403701
20
3.5165786
40
0.6032011
50
243.5790835
51
254.8472861
0
ARC
8
DEFAULT_255_2_778
10
11.9771065
20
3.5811346
40
0.6773733
50
217.4247121
51
243.2260062
0
ARC
8
DEFAULT_255_2_778
10
12.10762
20
3.622565
40
0.8075341
50
192.2820973
51
214.1297943
0
ARC
8
DEFAULT_255_2_778
10
12.9253868
20
3.7728876
40
1.6387852
50
179.1820419
51
191.3353617
0
ARC
8
DEFAULT_255_2_778
10
13.7941503
20
3.8022077
40
2.5073888
50
180.0019628
51
180.1354003
0
ARC
8
DEFAULT_255_2_778
10
13.7844964
20
3.8023294
40
2.4977347
50
165.4225066
51
180.0047628
0
ARC
8
DEFAULT_255_2_778
10
14.6627735
20
10.6273334
40
0.8297498
50
142.4219429
51
160.3040985
0
ARC
8
DEFAULT_255_2_778
10
14.4319926
20
10.7991173
40
0.5421089
50
123.2486775
51
141.9360708
0
ARC
8
DEFAULT_255_2_778
10
14.5209011
20
10.6037949
40
0.754913
50
109.65894
51
120.7633167
0
ARC
8
DEFAULT_255_2_778
10
14.4632355
20
10.7663689
40
0.5824153
50
90.1443203
51
109.6971989
0
ARC
8
DEFAULT_255_2_778
10
14.4693818
20
10.8858641
40
0.4629807
50
89.9988208
51
90.9422154
0
ARC
8
DEFAULT_255_2_778
10
14.4694251
20
10.8862076
40
0.4626374
50
50.7131634
51
90.0041923
0
ARC
8
DEFAULT_255_2_778
10
14.5382178
20
10.9714182
40
0.3531265
50
9.6610464
51
50.5977972
0
ARC
8
DEFAULT_255_2_778
10
14.2688149
20
10.9055624
40
0.6300689
50
359.6016836
51
11.4537541
0
ARC
8
DEFAULT_255_2_778
10
14.1458381
20
10.9177125
40
0.7532118
50
340.2332383
51
358.7424676
0
LINE
8
DEFAULT_255_2_778
10
13.0562685
20
4.2410822
11
13.4584685
21
4.5352822
0
LINE
8
DEFAULT_255_2_778
10
13.4584685
20
4.5352822
11
13.8746685
21
4.8807822
0
LINE
8
DEFAULT_255_2_778
10
13.8746685
20
4.8807822
11
14.2683685
21
5.2424822
0
LINE
8
DEFAULT_255_2_778
10
14.2683685
20
5.2424822
11
14.6059685
21
5.5718822
0
LINE
8
DEFAULT_255_2_778
10
14.7258685
20
4.7363822
11
14.0426685
21
4.0372822
0
LINE
8
DEFAULT_255_2_778
10
11.3671685
20
4.4309822
11
11.5523685
21
5.0257822
0
LINE
8
DEFAULT_255_2_778
10
11.5523685
20
5.0257822
11
11.9299685
21
5.9981822
0
LINE
8
DEFAULT_255_2_778
10
11.9299685
20
5.9981822
11
12.2834685
21
6.8818822
0
LINE
8
DEFAULT_255_2_778
10
12.2834685
20
6.8818822
11
13.8815685
21
10.9069822
0
LINE
8
DEFAULT_255_2_778
10
14.8546685
20
10.6629822
11
14.7422685
21
10.3957822
0
LINE
8
DEFAULT_255_2_778
10
14.7422685
20
10.3957822
11
14.4289685
21
9.6774822
0
LINE
8
DEFAULT_255_2_778
10
14.4289685
20
9.6774822
11
14.0267685
21
8.7452822
0
LINE
8
DEFAULT_255_2_778
10
14.0267685
20
8.7452822
11
13.6034685
21
7.7007822
0
LINE
8
DEFAULT_255_2_778
10
13.6034685
20
7.7007822
11
13.1695685
21
6.6397822
0
LINE
8
DEFAULT_255_2_778
10
13.1695685
20
6.6397822
11
12.7758685
21
5.6642822
0
LINE
8
DEFAULT_255_2_778
10
12.7758685
20
5.6642822
11
12.4625685
21
4.8662822
0
LINE
8
DEFAULT_255_2_778
10
12.4625685
20
4.8662822
11
12.4345685
21
4.8395822
0
ARC
8
DEFAULT_255_2_778
10
20.5755474
20
5.0508635
40
1.1234863
50
116.6727454
51
124.9266305
0
ARC
8
DEFAULT_255_2_778
10
20.198248
20
5.8176356
40
0.2690351
50
91.3688376
51
118.1744054
0
ARC
8
DEFAULT_255_2_778
10
20.1976083
20
5.8972614
40
0.189421
50
26.5721134
51
91.7507396
0
ARC
8
DEFAULT_255_2_778
10
19.9451419
20
5.7410132
40
0.4858538
50
1.2295396
51
29.735346
0
ARC
8
DEFAULT_255_2_778
10
19.8085987
20
5.7281024
40
0.6227225
50
359.9900259
51
2.1476319
0
ARC
8
DEFAULT_255_2_778
10
19.5868309
20
5.7383363
40
0.8445537
50
336.1090125
51
359.298342
0
ARC
8
DEFAULT_255_2_778
10
19.7444566
20
5.6383478
40
0.6605147
50
307.5950432
51
338.5023896
0
ARC
8
DEFAULT_255_2_778
10
15.6390444
20
6.9915576
40
4.4038535
50
301.1216868
51
307.2867963
0
ARC
8
DEFAULT_255_2_778
10
16.0149578
20
6.3702415
40
3.677669
50
294.4205649
51
301.1111399
0
ARC
8
DEFAULT_255_2_778
10
16.7484572
20
4.7708401
40
1.9181174
50
269.5060487
51
294.222385
0
ARC
8
DEFAULT_255_2_778
10
16.7179463
20
4.2478883
40
1.3951644
50
258.1729333
51
270.5739248
0
ARC
8
DEFAULT_255_2_778
10
16.5815389
20
3.6305902
40
0.7630451
50
234.5784151
51
258.6978844
0
ARC
8
DEFAULT_255_2_778
10
16.4950012
20
3.4901019
40
0.5985029
50
230.3030184
51
233.5344021
0
ARC
8
DEFAULT_255_2_778
10
16.4571092
20
3.470949
40
0.559819
50
181.2385941
51
232.0351892
0
ARC
8
DEFAULT_255_2_778
10
16.7494139
20
3.5110897
40
0.853593
50
179.9661503
51
183.5088152
0
ARC
8
DEFAULT_255_2_778
10
16.0395913
20
3.5433786
40
0.1447042
50
165.0714466
51
173.4862931
0
ARC
8
DEFAULT_255_2_778
10
15.6160875
20
3.6438365
40
0.2906341
50
347.4444074
51
349.4805006
0
ARC
8
DEFAULT_255_2_778
10
15.8047593
20
3.6101246
40
0.098987
50
348.7276856
51
358.7087556
0
ARC
8
DEFAULT_255_2_778
10
16.7612565
20
3.4813452
40
0.8668226
50
157.9460687
51
171.6052971
0
ARC
8
DEFAULT_255_2_778
10
17.5754181
20
3.1621782
40
1.7412812
50
150.2537639
51
158.271392
0
ARC
8
DEFAULT_255_2_778
10
18.1891764
20
2.8312267
40
2.4384307
50
150.2316578
51
150.6574352
0
ARC
8
DEFAULT_255_2_778
10
20.52624
20
1.3716372
40
5.1928684
50
142.2891596
51
149.0549247
0
ARC
8
DEFAULT_255_2_778
10
16.851674
20
6.5495341
40
0.910393
50
324.9338848
51
337.07906
0
ARC
8
DEFAULT_255_2_778
10
17.2946965
20
6.3676752
40
0.4315527
50
336.4099161
51
356.0282913
0
ARC
8
DEFAULT_255_2_778
10
17.4716403
20
6.3480671
40
0.253781
50
357.6778121
51
359.9834996
0
ARC
8
DEFAULT_255_2_778
10
17.5671818
20
6.3532056
40
0.1583252
50
358.1136206
51
0.000616
0
ARC
8
DEFAULT_255_2_778
10
17.566882
20
6.3531051
40
0.1586251
50
0.0369402
51
46.7241973
0
ARC
8
DEFAULT_255_2_778
10
17.535495
20
6.227259
40
0.2790662
50
59.8592915
51
84.6348553
0
ARC
8
DEFAULT_255_2_778
10
17.5005289
20
6.0023323
40
0.5064643
50
83.0755563
51
90.1818784
0
ARC
8
DEFAULT_255_2_778
10
17.4989405
20
5.7239192
40
0.7848747
50
90.0014096
51
91.2202749
0
ARC
8
DEFAULT_255_2_778
10
17.5209662
20
5.524467
40
0.9849112
50
92.2542549
51
115.2693606
0
ARC
8
DEFAULT_255_2_778
10
17.7050124
20
5.0620392
40
1.481978
50
114.0721692
51
115.7909107
0
ARC
8
DEFAULT_255_2_778
10
18.0004672
20
4.496704
40
2.1196426
50
116.3329753
51
129.0233117
0
ARC
8
DEFAULT_255_2_778
10
18.9478451
20
3.2396407
40
3.6931628
50
128.1624881
51
129.2648284
0
ARC
8
DEFAULT_255_2_778
10
19.7253748
20
2.5247759
40
4.7410939
50
131.072356
51
138.3485627
0
ARC
8
DEFAULT_255_2_778
10
12.5063561
20
0.8286239
40
1.2521331
50
320.341167
51
334.1103775
0
ARC
8
DEFAULT_255_2_778
10
12.8835673
20
0.5167156
40
0.7626697
50
299.4652547
51
320.2948514
0
ARC
8
DEFAULT_255_2_778
10
12.9914848
20
0.375837
40
0.587447
50
270.2083682
51
297.0592392
0
ARC
8
DEFAULT_255_2_778
10
12.9823719
20
0.3644685
40
0.5761844
50
247.229734
51
271.1187033
0
ARC
8
DEFAULT_255_2_778
10
12.9327273
20
0.2280466
40
0.4312374
50
234.1753614
51
246.2963479
0
ARC
8
DEFAULT_255_2_778
10
12.8520035
20
0.1032717
40
0.282922
50
195.9121564
51
232.6401768
0
ARC
8
DEFAULT_255_2_778
10
13.1779896
20
0.2114979
40
0.6262616
50
179.5192624
51
197.257695
0
ARC
8
DEFAULT_255_2_778
10
13.4215092
20
0.2238552
40
0.869788
50
179.9974462
51
180.4678882
0
ARC
8
DEFAULT_255_2_778
10
13.539071
20
0.2323844
40
0.9873863
50
165.4108099
51
180.4926867
0
ARC
8
DEFAULT_255_2_778
10
13.5428942
20
0.2987325
40
0.9765512
50
160.2667185
51
169.2373868
0
ARC
8
DEFAULT_255_2_778
10
17.3161876
20
-1.0279722
40
4.9762715
50
159.2103768
51
160.557204
0
ARC
8
DEFAULT_255_2_778
10
13.8697115
20
0.3873395
40
1.2558262
50
155.616014
51
163.7719593
0
ARC
8
DEFAULT_255_2_778
10
9.6036221
20
2.2654675
40
3.4054859
50
336.4683306
51
337.9590559
0
ARC
8
DEFAULT_255_2_778
10
18.3685066
20
5.225737
40
3.5662278
50
153.7221466
51
160.7328967
0
ARC
8
DEFAULT_255_2_778
10
16.8117675
20
6.0165327
40
1.8203696
50
141.8467955
51
154.3474436
0
ARC
8
DEFAULT_255_2_778
10
16.2309834
20
6.4453892
40
1.0989413
50
140.1075266
51
140.7230302
0
ARC
8
DEFAULT_255_2_778
10
15.7384351
20
6.8734456
40
0.4466764
50
116.8343499
51
141.7150743
0
ARC
8
DEFAULT_255_2_778
10
15.6472211
20
7.0435223
40
0.2537811
50
90.4966731
51
115.791957
0
ARC
8
DEFAULT_255_2_778
10
15.6574333
20
6.6604901
40
0.6369248
50
74.6892642
51
91.116624
0
ARC
8
DEFAULT_255_2_778
10
15.7487027
20
6.9896346
40
0.2953643
50
45.6914526
51
74.9061777
0
ARC
8
DEFAULT_255_2_778
10
15.6770352
20
6.9535761
40
0.3721449
50
3.265209
51
41.6702723
0
ARC
8
DEFAULT_255_2_778
10
15.3870216
20
6.9133318
40
0.6644013
50
359.86738
51
5.3060343
0
ARC
8
DEFAULT_255_2_778
10
15.2796661
20
6.9266521
40
0.7718981
50
353.1726573
51
358.8970568
0
ARC
8
DEFAULT_255_2_778
10
14.1246758
20
7.0438421
40
1.932743
50
352.4858108
51
353.7935426
0
ARC
8
DEFAULT_255_2_778
10
15.4855455
20
6.5200009
40
0.4967901
50
343.3457786
51
351.8524038
0
ARC
8
DEFAULT_255_2_778
10
14.487262
20
6.8339395
40
1.5432404
50
340.8972637
51
342.8012574
0
ARC
8
DEFAULT_255_2_778
10
19.5734154
20
3.2151419
40
4.7711548
50
124.8941105
51
132.177493
0
ARC
8
DEFAULT_255_2_778
10
18.2678871
20
5.156213
40
2.4325472
50
112.3641887
51
125.8269743
0
ARC
8
DEFAULT_255_2_778
10
17.850775
20
6.236956
40
1.2746402
50
90.1058057
51
113.5094233
0
ARC
8
DEFAULT_255_2_778
10
17.8505889
20
6.2413189
40
1.2702769
50
80.3115964
51
90.0977755
0
ARC
8
DEFAULT_255_2_778
10
17.8288611
20
6.1266746
40
1.3869444
50
74.5336377
51
80.223833
0
ARC
8
DEFAULT_255_2_778
10
17.924101
20
6.50855
40
0.9935508
50
54.2898911
51
73.9543723
0
ARC
8
DEFAULT_255_2_778
10
18.0900829
20
6.7079592
40
0.7349833
50
29.8869233
51
55.7230149
0
ARC
8
DEFAULT_255_2_778
10
18.1481994
20
6.749615
40
0.6638777
50
359.1300537
51
29.2692176
0
ARC
8
DEFAULT_255_2_778
10
17.9360803
20
6.7334989
40
0.875941
50
359.999674
51
0.3948507
0
ARC
8
DEFAULT_255_2_778
10
17.5796889
20
6.7499339
40
1.232442
50
341.3629464
51
359.2356902
0
ARC
8
DEFAULT_255_2_778
10
16.9772444
20
6.930752
40
1.8612004
50
336.4494312
51
342.0152236
0
ARC
8
DEFAULT_255_2_778
10
14.6121219
20
8.0218346
40
4.4656188
50
333.2661206
51
335.7411799
0
ARC
8
DEFAULT_255_2_778
10
15.4746799
20
7.577703
40
3.4954828
50
325.5527743
51
333.4076941
0
ARC
8
DEFAULT_255_2_778
10
12.8441467
20
9.2135233
40
6.5915075
50
320.556134
51
326.760909
0
ARC
8
DEFAULT_255_2_778
10
18.370944
20
3.0972888
40
1.5787005
50
139.3365103
51
144.4752459
0
ARC
8
DEFAULT_255_2_778
10
17.3710354
20
3.8014525
40
0.3558407
50
143.2018889
51
158.3793849
0
ARC
8
DEFAULT_255_2_778
10
17.1201611
20
3.9036212
40
0.0850099
50
160.094021
51
176.3764168
0
ARC
8
DEFAULT_255_2_778
10
17.19875
20
3.9043793
40
0.1634939
50
178.3825897
51
225.1874727
0
ARC
8
DEFAULT_255_2_778
10
17.2095341
20
3.935719
40
0.1938657
50
229.4583244
51
268.6219012
0
ARC
8
DEFAULT_255_2_778
10
17.2432532
20
4.1702214
40
0.4300282
50
264.879328
51
270.1156486
0
ARC
8
DEFAULT_255_2_778
10
17.2282041
20
4.06317
40
0.323368
50
272.8213965
51
294.339769
0
ARC
8
DEFAULT_255_2_778
10
16.924364
20
4.7977346
40
1.1181696
50
293.0117759
51
301.4590661
0
ARC
8
DEFAULT_255_2_778
10
16.7412034
20
5.1317965
40
1.4988278
50
300.7669529
51
300.8246512
0
ARC
8
DEFAULT_255_2_778
10
15.8138592
20
6.6185943
40
3.2509653
50
301.4325841
51
304.6361327
0
ARC
8
DEFAULT_255_2_778
10
14.6626591
20
8.297552
40
5.2866788
50
304.559458
51
306.6333943
0
ARC
8
DEFAULT_255_2_778
10
13.2905295
20
10.1462297
40
7.5889269
50
306.618296
51
308.3532598
0
LINE
8
DEFAULT_255_2_778
10
20.1474212
20
5.114994
11
19.1430212
21
4.198994
0
LINE
8
DEFAULT_255_2_778
10
19.1430212
20
4.198994
11
18.3069212
21
3.487794
0
LINE
8
DEFAULT_255_2_778
10
15.8958212
20
3.511594
11
15.8958212
21
3.559794
0
LINE
8
DEFAULT_255_2_778
10
16.4181212
20
4.547994
11
16.8520212
21
5.078494
0
LINE
8
DEFAULT_255_2_778
10
16.8520212
20
5.078494
11
17.2753212
21
5.584594
0
LINE
8
DEFAULT_255_2_778
10
17.2753212
20
5.584594
11
17.5968212
21
6.026494
0
LINE
8
DEFAULT_255_2_778
10
16.1828212
20
5.675694
11
15.7947212
21
5.175594
0
LINE
8
DEFAULT_255_2_778
10
15.7947212
20
5.175594
11
15.4571212
21
4.653294
0
LINE
8
DEFAULT_255_2_778
10
15.4571212
20
4.653294
11
15.1999212
21
4.171194
0
LINE
8
DEFAULT_255_2_778
10
15.1999212
20
4.171194
11
15.1116212
21
3.978094
0
LINE
8
DEFAULT_255_2_778
10
15.1116212
20
3.978094
11
14.9909212
21
3.688894
0
LINE
8
DEFAULT_255_2_778
10
14.9909212
20
3.688894
11
14.8462212
21
3.367394
0
LINE
8
DEFAULT_255_2_778
10
14.8462212
20
3.367394
11
14.7096212
21
3.054194
0
LINE
8
DEFAULT_255_2_778
10
14.7096212
20
3.054194
11
14.5972212
21
2.789094
0
LINE
8
DEFAULT_255_2_778
10
14.5972212
20
2.789094
11
14.5250212
21
2.628494
0
LINE
8
DEFAULT_255_2_778
10
14.5250212
20
2.628494
11
14.4445212
21
2.411494
0
LINE
8
DEFAULT_255_2_778
10
14.4445212
20
2.411494
11
14.2998212
21
2.043694
0
LINE
8
DEFAULT_255_2_778
10
14.2998212
20
2.043694
11
14.1310212
21
1.601894
0
LINE
8
DEFAULT_255_2_778
10
14.1310212
20
1.601894
11
13.8336212
21
0.800194
0
LINE
8
DEFAULT_255_2_778
10
13.8336212
20
0.800194
11
13.7614212
21
0.587194
0
LINE
8
DEFAULT_255_2_778
10
13.7614212
20
0.587194
11
13.6328212
21
0.281894
0
LINE
8
DEFAULT_255_2_778
10
12.7602212
20
0.987494
11
12.8486212
21
1.225594
0
LINE
8
DEFAULT_255_2_778
10
12.8486212
20
1.225594
11
13.4272212
21
2.483994
0
LINE
8
DEFAULT_255_2_778
10
13.4272212
20
2.483994
11
13.9977212
21
3.729594
0
LINE
8
DEFAULT_255_2_778
10
13.9977212
20
3.729594
11
14.5038212
21
4.942994
0
LINE
8
DEFAULT_255_2_778
10
14.5038212
20
4.942994
11
14.8896212
21
6.084194
0
LINE
8
DEFAULT_255_2_778
10
14.8896212
20
6.084194
11
15.0020212
21
6.402494
0
LINE
8
DEFAULT_255_2_778
10
16.0408212
20
6.791094
11
16.0117212
21
6.618394
0
LINE
8
DEFAULT_255_2_778
10
16.0117212
20
6.618394
11
15.9773212
21
6.449594
0
LINE
8
DEFAULT_255_2_778
10
15.9455212
20
6.328894
11
16.3699212
21
6.750894
0
LINE
8
DEFAULT_255_2_778
10
17.9344212
20
5.025794
11
17.5111212
21
4.519694
0
LINE
8
DEFAULT_255_2_778
10
17.5111212
20
4.519694
11
17.1734212
21
4.125994
0
LINE
8
DEFAULT_255_2_778
10
17.9995212
20
4.194994
11
18.8006212
21
4.861794
0
LINE
8
DEFAULT_255_2_778
10
18.8006212
20
4.861794
11
19.9955212
21
5.912194
0
LINE
8
DEFAULT_255_2_778
10
19.9955212
20
5.912194
11
19.9323212
21
5.971994
0
ENDSEC
0
EOF