0
SECTION
2
HEADER
9
$MEASUREMENT
70
1
0
ENDSEC
0
SECTION
2
TABLES
0
TABLE
2
LTYPE
0
LTYPE
72
65
70
64
2
CONTINUOUS
3
______
73
0
40
0
0
ENDTAB
0
TABLE
2
LAYER
0
LAYER
2
DEFAULT_255_2_778
70
0
62
255
6
CONTINUOUS
0
ENDTAB
0
ENDSEC
0
SECTION
2
ENTITIES
0
LINE
8
DEFAULT_255_2_778
10
26.8061646
20
73.5481198
11
25.4858646
21
73.5481198
0
LINE
8
DEFAULT_255_2_778
10
25.4858646
20
73.5481198
11
25.4858646
21
73.6785198
0
LINE
8
DEFAULT_255_2_778
10
25.4858646
20
73.6785198
11
26.8061646
21
73.6785198
0
LINE
8
DEFAULT_255_2_778
10
26.8061646
20
73.6785198
11
26.8061646
21
73.5481198
0
LINE
8
DEFAULT_255_2_778
10
26.8061646
20
73.5481198
11
26.8061646
21
73.5481198
0
LINE
8
DEFAULT_255_2_778
10
26.8061646
20
72.5490385
11
25.4858646
21
72.5490385
0
LINE
8
DEFAULT_255_2_778
10
25.4858646
20
72.5490385
11
25.4858646
21
72.6802385
0
LINE
8
DEFAULT_255_2_778
10
25.4858646
20
72.6802385
11
26.5031646
21
73.1782385
0
LINE
8
DEFAULT_255_2_778
10
26.5031646
20
73.1782385
11
25.4858646
21
73.1782385
0
LINE
8
DEFAULT_255_2_778
10
25.4858646
20
73.1782385
11
25.4858646
21
73.3094385
0
LINE
8
DEFAULT_255_2_778
10
25.4858646
20
73.3094385
11
26.8061646
21
73.3094385
0
LINE
8
DEFAULT_255_2_778
10
26.8061646
20
73.3094385
11
26.8061646
21
73.1782385
0
LINE
8
DEFAULT_255_2_778
10
26.8061646
20
73.1782385
11
25.7842646
21
72.6786385
0
LINE
8
DEFAULT_255_2_778
10
25.7842646
20
72.6786385
11
26.8061646
21
72.6786385
0
LINE
8
DEFAULT_255_2_778
10
26.8061646
20
72.6786385
11
26.8061646
21
72.5487385
0
LINE
8
DEFAULT_255_2_778
10
26.8061646
20
72.5487385
11
26.8061646
21
72.5490385
0
ARC
8
DEFAULT_255_2_778
10
26.4933067
20
71.9370112
40
0.3132328
50
310.2190056
51
2.8036216
0
ARC
8
DEFAULT_255_2_778
10
26.4355988
20
72.0254057
40
0.4181944
50
272.3187755
51
308.4359025
0
ARC
8
DEFAULT_255_2_778
10
26.4033319
20
72.2706625
40
0.6649306
50
269.9425014
51
274.2421969
0
ARC
8
DEFAULT_255_2_778
10
26.3900024
20
72.1547972
40
0.5492109
50
250.124365
51
271.3210841
0
ARC
8
DEFAULT_255_2_778
10
26.319464
20
71.9441137
40
0.3271384
50
229.3985675
51
249.19757
0
ARC
8
DEFAULT_255_2_778
10
26.3183067
20
71.929034
40
0.3150626
50
179.2720219
51
227.7734586
0
ARC
8
DEFAULT_255_2_778
10
26.5240181
20
71.9535795
40
0.5211534
50
179.9832055
51
182.2590403
0
ARC
8
DEFAULT_255_2_778
10
26.3434391
20
71.9399826
40
0.1986588
50
176.4358939
51
228.1372881
0
ARC
8
DEFAULT_255_2_778
10
26.3700325
20
71.9970962
40
0.2595875
50
232.1818609
51
268.525756
0
ARC
8
DEFAULT_255_2_778
10
26.4000858
20
72.2319083
40
0.4956766
50
265.7502366
51
270.078468
0
ARC
8
DEFAULT_255_2_778
10
26.4142375
20
72.0407974
40
0.304863
50
267.4670834
51
302.7727559
0
ARC
8
DEFAULT_255_2_778
10
26.4505514
20
71.9685635
40
0.2246334
50
304.9584729
51
308.1993626
0
ARC
8
DEFAULT_255_2_778
10
26.4714212
20
71.9428899
40
0.1915522
50
308.0425415
51
0.5510896
0
LINE
8
DEFAULT_255_2_778
10
26.0028646
20
71.9537323
11
26.0028646
21
72.1868323
0
LINE
8
DEFAULT_255_2_778
10
26.0028646
20
72.1868323
11
25.4858646
21
72.1868323
0
LINE
8
DEFAULT_255_2_778
10
25.4858646
20
72.1868323
11
25.4858646
21
72.3172323
0
LINE
8
DEFAULT_255_2_778
10
25.4858646
20
72.3172323
11
26.8061646
21
72.3172323
0
LINE
8
DEFAULT_255_2_778
10
26.8061646
20
72.3172323
11
26.8061646
21
71.9523323
0
LINE
8
DEFAULT_255_2_778
10
26.8061646
20
71.9523323
11
26.8061646
21
71.9523323
0
LINE
8
DEFAULT_255_2_778
10
26.6955646
20
71.6978323
11
26.6955646
21
71.6978323
0
LINE
8
DEFAULT_255_2_778
10
26.6955646
20
71.6978323
11
26.6955646
21
71.6978323
0
LINE
8
DEFAULT_255_2_778
10
26.4026646
20
71.6057323
11
26.4026646
21
71.6057323
0
LINE
8
DEFAULT_255_2_778
10
26.4026646
20
71.6057323
11
26.4026646
21
71.6057323
0
LINE
8
DEFAULT_255_2_778
10
26.1065646
20
71.6957323
11
26.1065646
21
71.6957323
0
LINE
8
DEFAULT_255_2_778
10
26.1065646
20
71.6957323
11
26.1065646
21
71.6957323
0
LINE
8
DEFAULT_255_2_778
10
26.0028646
20
71.9537323
11
26.0028646
21
71.9537323
0
LINE
8
DEFAULT_255_2_778
10
26.0028646
20
71.9537323
11
26.0028646
21
71.9537323
0
LINE
8
DEFAULT_255_2_778
10
26.6629646
20
72.1868323
11
26.1451646
21
72.1868323
0
LINE
8
DEFAULT_255_2_778
10
26.1451646
20
72.1868323
11
26.1451646
21
71.9523323
0
LINE
8
DEFAULT_255_2_778
10
26.1451646
20
71.9523323
11
26.1451646
21
71.9523323
0
LINE
8
DEFAULT_255_2_778
10
26.2108646
20
71.7920323
11
26.2108646
21
71.7920323
0
LINE
8
DEFAULT_255_2_778
10
26.2108646
20
71.7920323
11
26.2108646
21
71.7920323
0
LINE
8
DEFAULT_255_2_778
10
26.4007646
20
71.7362323
11
26.4007646
21
71.7362323
0
LINE
8
DEFAULT_255_2_778
10
26.4007646
20
71.7362323
11
26.4007646
21
71.7362323
0
LINE
8
DEFAULT_255_2_778
10
26.5894646
20
71.7920323
11
26.5894646
21
71.7920323
0
LINE
8
DEFAULT_255_2_778
10
26.5894646
20
71.7920323
11
26.5894646
21
71.7920323
0
LINE
8
DEFAULT_255_2_778
10
26.6629646
20
71.9447323
11
26.6629646
21
71.9447323
0
LINE
8
DEFAULT_255_2_778
10
26.6629646
20
71.9447323
11
26.6629646
21
72.1865323
0
LINE
8
DEFAULT_255_2_778
10
26.6629646
20
72.1865323
11
26.6629646
21
72.1868323
0
ARC
8
DEFAULT_255_2_778
10
25.8974699
20
71.3025688
40
0.5603303
50
246.1922238
51
271.1214432
0
ARC
8
DEFAULT_255_2_778
10
25.8429339
20
71.1578909
40
0.4060383
50
233.7494495
51
244.9917421
0
ARC
8
DEFAULT_255_2_778
10
25.7879789
20
71.0905854
40
0.3192966
50
184.1918772
51
234.5603837
0
ARC
8
DEFAULT_255_2_778
10
25.7861423
20
71.1140693
40
0.3187364
50
129.2359692
51
182.179829
0
ARC
8
DEFAULT_255_2_778
10
25.8569353
20
71.0127931
40
0.4420537
50
95.7452054
51
128.0400511
0
ARC
8
DEFAULT_255_2_778
10
25.9092707
20
70.7062152
40
0.7526344
50
90.185313
51
97.3732175
0
ARC
8
DEFAULT_255_2_778
10
25.8997191
20
70.8949167
40
0.4350064
50
88.3642558
51
111.2199126
0
ARC
8
DEFAULT_255_2_778
10
25.839062
20
71.0693274
40
0.2505528
50
112.7255307
51
126.611348
0
ARC
8
DEFAULT_255_2_778
10
25.8076574
20
71.1118751
40
0.1976705
50
126.6595504
51
182.8792645
0
ARC
8
DEFAULT_255_2_778
10
25.8083924
20
71.0909778
40
0.1984593
50
176.8318803
51
233.0649727
0
ARC
8
DEFAULT_255_2_778
10
25.8708363
20
71.1959254
40
0.3201391
50
235.4193857
51
266.5713474
0
ARC
8
DEFAULT_255_2_778
10
25.9098953
20
71.4766313
40
0.6030871
50
264.4616511
51
270.1369167
0
LINE
8
DEFAULT_255_2_778
10
26.8061365
20
70.8735458
11
26.8061365
21
70.7423458
0
LINE
8
DEFAULT_255_2_778
10
26.8061365
20
70.7423458
11
25.9084365
21
70.7423458
0
LINE
8
DEFAULT_255_2_778
10
25.9084365
20
70.7423458
11
25.9084365
21
70.7423458
0
LINE
8
DEFAULT_255_2_778
10
25.6028365
20
70.8304458
11
25.6028365
21
70.8304458
0
LINE
8
DEFAULT_255_2_778
10
25.6028365
20
70.8304458
11
25.6028365
21
70.8304458
0
LINE
8
DEFAULT_255_2_778
10
25.4695365
20
71.0672458
11
25.4695365
21
71.0672458
0
LINE
8
DEFAULT_255_2_778
10
25.4695365
20
71.0672458
11
25.4676365
21
71.1019458
0
LINE
8
DEFAULT_255_2_778
10
25.4676365
20
71.1019458
11
25.4676365
21
71.1019458
0
LINE
8
DEFAULT_255_2_778
10
25.5845365
20
71.3609458
11
25.5845365
21
71.3609458
0
LINE
8
DEFAULT_255_2_778
10
25.5845365
20
71.3609458
11
25.5845365
21
71.3609458
0
LINE
8
DEFAULT_255_2_778
10
25.9068365
20
71.4588458
11
25.9068365
21
71.4588458
0
LINE
8
DEFAULT_255_2_778
10
25.9068365
20
71.4588458
11
26.8061365
21
71.4588458
0
LINE
8
DEFAULT_255_2_778
10
26.8061365
20
71.4588458
11
26.8061365
21
71.3297458
0
LINE
8
DEFAULT_255_2_778
10
26.8061365
20
71.3297458
11
25.9121365
21
71.3297458
0
LINE
8
DEFAULT_255_2_778
10
25.9121365
20
71.3297458
11
25.9121365
21
71.3297458
0
LINE
8
DEFAULT_255_2_778
10
25.6896365
20
71.2704458
11
25.6896365
21
71.2704458
0
LINE
8
DEFAULT_255_2_778
10
25.6896365
20
71.2704458
11
25.6896365
21
71.2704458
0
LINE
8
DEFAULT_255_2_778
10
25.6102365
20
71.1019458
11
25.6102365
21
71.1019458
0
LINE
8
DEFAULT_255_2_778
10
25.6102365
20
71.1019458
11
25.6102365
21
71.1019458
0
LINE
8
DEFAULT_255_2_778
10
25.6891365
20
70.9323458
11
25.6891365
21
70.9323458
0
LINE
8
DEFAULT_255_2_778
10
25.6891365
20
70.9323458
11
25.6891365
21
70.9323458
0
LINE
8
DEFAULT_255_2_778
10
25.9113365
20
70.8735458
11
25.9113365
21
70.8735458
0
LINE
8
DEFAULT_255_2_778
10
25.9113365
20
70.8735458
11
26.8061365
21
70.8735458
0
LINE
8
DEFAULT_255_2_778
10
26.8061365
20
70.8735458
11
26.8061365
21
70.8735458
0
LINE
8
DEFAULT_255_2_778
10
26.8061646
20
69.8529875
11
26.6629646
21
69.8529875
0
LINE
8
DEFAULT_255_2_778
10
26.6629646
20
69.8529875
11
26.6629646
21
70.1710875
0
LINE
8
DEFAULT_255_2_778
10
26.6629646
20
70.1710875
11
25.4858646
21
70.1710875
0
LINE
8
DEFAULT_255_2_778
10
25.4858646
20
70.1710875
11
25.4858646
21
70.3006875
0
LINE
8
DEFAULT_255_2_778
10
25.4858646
20
70.3006875
11
26.6629646
21
70.3006875
0
LINE
8
DEFAULT_255_2_778
10
26.6629646
20
70.3006875
11
26.6629646
21
70.6181875
0
LINE
8
DEFAULT_255_2_778
10
26.6629646
20
70.6181875
11
26.8061646
21
70.6181875
0
LINE
8
DEFAULT_255_2_778
10
26.8061646
20
70.6181875
11
26.8061646
21
69.8529875
0
LINE
8
DEFAULT_255_2_778
10
26.8061646
20
69.8529875
11
26.8061646
21
69.8529875
0
LINE
8
DEFAULT_255_2_778
10
25.0085448
20
69.2697478
11
22.0084448
21
69.2697478
0
LINE
8
DEFAULT_255_2_778
10
22.0084448
20
69.2697478
11
22.0084448
21
74.2698478
0
LINE
8
DEFAULT_255_2_778
10
22.0084448
20
74.2698478
11
25.0085448
21
74.2698478
0
LINE
8
DEFAULT_255_2_778
10
25.0085448
20
74.2698478
11
25.0085448
21
69.2697478
0
ARC
8
DEFAULT_255_2_778
10
11.7817869
20
81.9935216
40
0.5320357
50
321.2962383
51
354.2401649
0
ARC
8
DEFAULT_255_2_778
10
11.8383141
20
81.9604465
40
0.4673382
50
308.1090222
51
320.1272008
0
ARC
8
DEFAULT_255_2_778
10
11.7776931
20
82.0524683
40
0.577229
50
276.5925021
51
307.2063891
0
ARC
8
DEFAULT_255_2_778
10
11.7177962
20
82.396486
40
0.9260646
50
269.798321
51
277.8303211
0
ARC
8
DEFAULT_255_2_778
10
11.7002427
20
82.104785
40
0.634519
50
242.7011098
51
271.2908059
0
ARC
8
DEFAULT_255_2_778
10
11.6691257
20
82.021637
40
0.5464608
50
222.7174395
51
241.6019129
0
ARC
8
DEFAULT_255_2_778
10
11.7338041
20
82.0742862
40
0.6297184
50
186.1207589
51
222.2447622
0
ARC
8
DEFAULT_255_2_778
10
12.055727
20
82.130894
40
0.9560941
50
179.8422066
51
187.4368867
0
ARC
8
DEFAULT_255_2_778
10
11.8538239
20
82.2836275
40
0.7543193
50
155.7286207
51
181.0710876
0
ARC
8
DEFAULT_255_2_778
10
11.7349746
20
82.326673
40
0.6283544
50
152.4370478
51
154.8519993
0
ARC
8
DEFAULT_255_2_778
10
11.6672786
20
82.3682868
40
0.5491144
50
119.134444
51
153.0178515
0
ARC
8
DEFAULT_255_2_778
10
11.7184897
20
82.2583188
40
0.6701597
50
88.7818667
51
118.3814402
0
ARC
8
DEFAULT_255_2_778
10
11.7459483
20
82.2068114
40
0.7216367
50
70.0166918
51
91.0490385
0
ARC
8
DEFAULT_255_2_778
10
11.815372
20
82.4168602
40
0.5005517
50
50.3255552
51
69.2681093
0
ARC
8
DEFAULT_255_2_778
10
11.8085062
20
82.4191942
40
0.5031842
50
5.393193
51
49.5541428
0
ARC
8
DEFAULT_255_2_778
10
11.5885749
20
82.3724076
40
0.7270011
50
6.3350848
51
7.4354705
0
ARC
8
DEFAULT_255_2_778
10
11.615398
20
82.3878089
40
0.491531
50
7.5776623
51
29.1398737
0
ARC
8
DEFAULT_255_2_778
10
11.8061867
20
82.4881573
40
0.2760757
50
30.2306672
51
49.5128277
0
ARC
8
DEFAULT_255_2_778
10
11.7725172
20
82.4275199
40
0.3443296
50
51.803604
51
86.7712263
0
ARC
8
DEFAULT_255_2_778
10
11.7342445
20
82.1625858
40
0.6114424
50
84.588279
51
90.1131963
0
ARC
8
DEFAULT_255_2_778
10
11.7173275
20
82.3719413
40
0.4023926
50
87.7626656
51
128.376703
0
ARC
8
DEFAULT_255_2_778
10
11.707652
20
82.39823
40
0.3758784
50
129.7084311
51
139.663473
0
ARC
8
DEFAULT_255_2_778
10
11.7898492
20
82.3422144
40
0.4749075
50
140.9310842
51
171.8564847
0
ARC
8
DEFAULT_255_2_778
10
12.1598447
20
82.2693409
40
0.8517235
50
170.5292814
51
180.3440136
0
ARC
8
DEFAULT_255_2_778
10
12.0161283
20
82.1140297
40
0.7081093
50
178.9563683
51
198.5576308
0
ARC
8
DEFAULT_255_2_778
10
11.7758634
20
82.0390999
40
0.4565227
50
199.2394633
51
217.7788576
0
ARC
8
DEFAULT_255_2_778
10
11.6970019
20
81.9810138
40
0.3586157
50
218.1625627
51
272.8025971
0
ARC
8
DEFAULT_255_2_778
10
11.7269586
20
82.1726509
40
0.5499641
50
268.7057436
51
288.0519627
0
ARC
8
DEFAULT_255_2_778
10
11.800408
20
81.9324071
40
0.2988214
50
288.9364204
51
306.9264079
0
ARC
8
DEFAULT_255_2_778
10
11.7837296
20
81.9304191
40
0.3075954
50
309.6334075
51
343.8129202
0
ARC
8
DEFAULT_255_2_778
10
11.474888
20
82.0446288
40
0.6364695
50
341.6892942
51
350.5042038
0
LINE
8
DEFAULT_255_2_778
10
12.1026365
20
81.9401271
11
12.3111365
21
81.9401271
0
LINE
8
DEFAULT_255_2_778
10
12.3111365
20
81.9401271
11
12.3111365
21
81.9401271
0
LINE
8
DEFAULT_255_2_778
10
12.1267365
20
81.5927271
11
12.1267365
21
81.5927271
0
LINE
8
DEFAULT_255_2_778
10
12.1267365
20
81.5927271
11
12.1267365
21
81.5927271
0
LINE
8
DEFAULT_255_2_778
10
11.7145365
20
81.4704271
11
11.7145365
21
81.4704271
0
LINE
8
DEFAULT_255_2_778
10
11.7145365
20
81.4704271
11
11.7145365
21
81.4704271
0
LINE
8
DEFAULT_255_2_778
10
11.2676365
20
81.6509271
11
11.2676365
21
81.6509271
0
LINE
8
DEFAULT_255_2_778
10
11.2676365
20
81.6509271
11
11.2676365
21
81.6509271
0
LINE
8
DEFAULT_255_2_778
10
11.0996365
20
82.1335271
11
11.0996365
21
82.1335271
0
LINE
8
DEFAULT_255_2_778
10
11.0996365
20
82.1335271
11
11.0996365
21
82.2695271
0
LINE
8
DEFAULT_255_2_778
10
11.0996365
20
82.2695271
11
11.0996365
21
82.2695271
0
LINE
8
DEFAULT_255_2_778
10
11.1779365
20
82.6174271
11
11.1779365
21
82.6174271
0
LINE
8
DEFAULT_255_2_778
10
11.1779365
20
82.6174271
11
11.1779365
21
82.6174271
0
LINE
8
DEFAULT_255_2_778
10
11.3999365
20
82.8479271
11
11.3999365
21
82.8479271
0
LINE
8
DEFAULT_255_2_778
10
11.3999365
20
82.8479271
11
11.3999365
21
82.8479271
0
LINE
8
DEFAULT_255_2_778
10
11.7327365
20
82.9283271
11
11.7327365
21
82.9283271
0
LINE
8
DEFAULT_255_2_778
10
11.7327365
20
82.9283271
11
11.7327365
21
82.9283271
0
LINE
8
DEFAULT_255_2_778
10
12.1349365
20
82.8021271
11
12.1349365
21
82.8021271
0
LINE
8
DEFAULT_255_2_778
10
12.1349365
20
82.8021271
11
12.1349365
21
82.8021271
0
LINE
8
DEFAULT_255_2_778
10
12.3111365
20
82.4526271
11
12.3111365
21
82.4526271
0
LINE
8
DEFAULT_255_2_778
10
12.3111365
20
82.4526271
11
12.1026365
21
82.4526271
0
LINE
8
DEFAULT_255_2_778
10
12.1026365
20
82.4526271
11
12.1026365
21
82.4526271
0
LINE
8
DEFAULT_255_2_778
10
11.9854365
20
82.6981271
11
11.9854365
21
82.6981271
0
LINE
8
DEFAULT_255_2_778
10
11.9854365
20
82.6981271
11
11.9854365
21
82.6981271
0
LINE
8
DEFAULT_255_2_778
10
11.7330365
20
82.7740271
11
11.7330365
21
82.7740271
0
LINE
8
DEFAULT_255_2_778
10
11.7330365
20
82.7740271
11
11.7330365
21
82.7740271
0
LINE
8
DEFAULT_255_2_778
10
11.4211365
20
82.6415271
11
11.4211365
21
82.6415271
0
LINE
8
DEFAULT_255_2_778
10
11.4211365
20
82.6415271
11
11.4211365
21
82.6415271
0
LINE
8
DEFAULT_255_2_778
10
11.3081365
20
82.2642271
11
11.3081365
21
82.2642271
0
LINE
8
DEFAULT_255_2_778
10
11.3081365
20
82.2642271
11
11.3081365
21
82.1269271
0
LINE
8
DEFAULT_255_2_778
10
11.3081365
20
82.1269271
11
11.3081365
21
82.1269271
0
LINE
8
DEFAULT_255_2_778
10
11.4150365
20
81.7594271
11
11.4150365
21
81.7594271
0
LINE
8
DEFAULT_255_2_778
10
11.4150365
20
81.7594271
11
11.4150365
21
81.7594271
0
LINE
8
DEFAULT_255_2_778
10
11.7145365
20
81.6228271
11
11.7145365
21
81.6228271
0
LINE
8
DEFAULT_255_2_778
10
11.7145365
20
81.6228271
11
11.7145365
21
81.6228271
0
LINE
8
DEFAULT_255_2_778
10
11.9799365
20
81.6935271
11
11.9799365
21
81.6935271
0
LINE
8
DEFAULT_255_2_778
10
11.9799365
20
81.6935271
11
11.9799365
21
81.6935271
0
LINE
8
DEFAULT_255_2_778
10
12.1026365
20
81.9396271
11
12.1026365
21
81.9396271
0
LINE
8
DEFAULT_255_2_778
10
12.1026365
20
81.9396271
11
12.1026365
21
81.9401271
0
ARC
8
DEFAULT_255_2_778
10
12.324622
20
82.0827271
40
1.2047192
50
349.2881589
51
0.5912801
0
ARC
8
DEFAULT_255_2_778
10
12.9260914
20
81.9629506
40
0.5914973
50
328.4722565
51
349.8591342
0
ARC
8
DEFAULT_255_2_778
10
13.0862119
20
81.8750809
40
0.4091599
50
322.1921108
51
327.2357043
0
ARC
8
DEFAULT_255_2_778
10
13.0991695
20
81.8745937
40
0.3986955
50
276.819482
51
321.1058569
0
ARC
8
DEFAULT_255_2_778
10
13.0375996
20
82.1749346
40
0.704683
50
269.729853
51
278.8909325
0
ARC
8
DEFAULT_255_2_778
10
13.0212664
20
82.0504763
40
0.5803628
50
248.8878212
51
271.2845781
0
ARC
8
DEFAULT_255_2_778
10
12.9506759
20
81.8535107
40
0.3712266
50
218.8276205
51
248.1016192
0
ARC
8
DEFAULT_255_2_778
10
13.0857845
20
81.9462583
40
0.5347769
50
192.166513
51
217.4928962
0
ARC
8
DEFAULT_255_2_778
10
13.6143998
20
82.0731037
40
1.0783256
50
180.1351933
51
192.8354257
0
ARC
8
DEFAULT_255_2_778
10
13.7071995
20
82.3238807
40
1.1711893
50
169.0285759
51
180.6125683
0
ARC
8
DEFAULT_255_2_778
10
13.1186492
20
82.4441717
40
0.5705353
50
147.3494825
51
169.6391534
0
ARC
8
DEFAULT_255_2_778
10
12.969511
20
82.5289945
40
0.3993038
50
141.7393266
51
146.0517579
0
ARC
8
DEFAULT_255_2_778
10
12.9645465
20
82.5235757
40
0.3988284
50
96.9921763
51
140.6863772
0
ARC
8
DEFAULT_255_2_778
10
13.0286062
20
82.2138986
40
0.7144697
50
89.7136388
51
99.0684491
0
ARC
8
DEFAULT_255_2_778
10
13.0449552
20
82.3227066
40
0.6057875
50
70.2462147
51
91.2086517
0
ARC
8
DEFAULT_255_2_778
10
13.1221972
20
82.5480032
40
0.3676588
50
39.4790875
51
69.7087316
0
ARC
8
DEFAULT_255_2_778
10
13.0051918
20
82.470474
40
0.5074716
50
12.6037139
51
37.8360811
0
ARC
8
DEFAULT_255_2_778
10
12.4747562
20
82.33788
40
1.0541465
50
0.9676337
51
13.3458822
0
ARC
8
DEFAULT_255_2_778
10
11.9962538
20
82.3121678
40
1.5331164
50
0.6312875
51
1.6264385
0
ARC
8
DEFAULT_255_2_778
10
12.3438335
20
82.3536823
40
0.9855157
50
359.3068075
51
10.2606399
0
ARC
8
DEFAULT_255_2_778
10
12.9254659
20
82.4653755
40
0.3933402
50
9.3424895
51
32.3175109
0
ARC
8
DEFAULT_255_2_778
10
13.0544193
20
82.5307189
40
0.2498056
50
35.465536
51
92.43162
0
ARC
8
DEFAULT_255_2_778
10
13.031939
20
82.3392184
40
0.441241
50
88.4569546
51
90.008043
0
ARC
8
DEFAULT_255_2_778
10
13.0176847
20
82.5085941
40
0.2722355
50
87.0116585
51
128.4326634
0
ARC
8
DEFAULT_255_2_778
10
12.9967467
20
82.5497947
40
0.2271332
50
130.7562146
51
146.1661837
0
ARC
8
DEFAULT_255_2_778
10
13.154302
20
82.4585195
40
0.4090016
50
147.8343295
51
170.8650558
0
ARC
8
DEFAULT_255_2_778
10
13.6861253
20
82.3557501
40
0.9505483
50
169.8382717
51
180.0114945
0
ARC
8
DEFAULT_255_2_778
10
13.6956939
20
82.0546171
40
0.9601948
50
179.2694704
51
190.9441863
0
ARC
8
DEFAULT_255_2_778
10
13.1532831
20
81.9450663
40
0.4068765
50
190.2991986
51
212.3819246
0
ARC
8
DEFAULT_255_2_778
10
13.0181243
20
81.8696648
40
0.2525035
50
214.3585522
51
273.5995322
0
ARC
8
DEFAULT_255_2_778
10
13.0512962
20
81.8663569
40
0.2492998
50
266.0164058
51
324.3507023
0
ARC
8
DEFAULT_255_2_778
10
12.9166616
20
81.9389254
40
0.4014722
50
327.1345561
51
350.4620363
0
ARC
8
DEFAULT_255_2_778
10
12.3602726
20
82.050443
40
0.9688115
50
349.4103616
51
359.7821455
0
LINE
8
DEFAULT_255_2_778
10
13.5292771
20
82.3290594
11
13.5292771
21
82.0951594
0
LINE
8
DEFAULT_255_2_778
10
13.5292771
20
82.0951594
11
13.5292771
21
82.0951594
0
LINE
8
DEFAULT_255_2_778
10
13.4094771
20
81.6242594
11
13.4094771
21
81.6242594
0
LINE
8
DEFAULT_255_2_778
10
13.4094771
20
81.6242594
11
13.4094771
21
81.6242594
0
LINE
8
DEFAULT_255_2_778
10
13.0342771
20
81.4702594
11
13.0342771
21
81.4702594
0
LINE
8
DEFAULT_255_2_778
10
13.0342771
20
81.4702594
11
13.0342771
21
81.4702594
0
LINE
8
DEFAULT_255_2_778
10
12.6614771
20
81.6207594
11
12.6614771
21
81.6207594
0
LINE
8
DEFAULT_255_2_778
10
12.6614771
20
81.6207594
11
12.6614771
21
81.6207594
0
LINE
8
DEFAULT_255_2_778
10
12.5360771
20
82.0705594
11
12.5360771
21
82.0705594
0
LINE
8
DEFAULT_255_2_778
10
12.5360771
20
82.0705594
11
12.5360771
21
82.3113594
0
LINE
8
DEFAULT_255_2_778
10
12.5360771
20
82.3113594
11
12.5360771
21
82.3113594
0
LINE
8
DEFAULT_255_2_778
10
12.6559771
20
82.7762594
11
12.6559771
21
82.7762594
0
LINE
8
DEFAULT_255_2_778
10
12.6559771
20
82.7762594
11
12.6559771
21
82.7762594
0
LINE
8
DEFAULT_255_2_778
10
13.0321771
20
82.9283594
11
13.0321771
21
82.9283594
0
LINE
8
DEFAULT_255_2_778
10
13.0321771
20
82.9283594
11
13.0321771
21
82.9283594
0
LINE
8
DEFAULT_255_2_778
10
13.4059771
20
82.7817594
11
13.4059771
21
82.7817594
0
LINE
8
DEFAULT_255_2_778
10
13.4059771
20
82.7817594
11
13.4059771
21
82.7817594
0
LINE
8
DEFAULT_255_2_778
10
13.5292771
20
82.3290594
11
13.5292771
21
82.3290594
0
LINE
8
DEFAULT_255_2_778
10
13.5292771
20
82.3290594
11
13.5292771
21
82.3290594
0
LINE
8
DEFAULT_255_2_778
10
13.3292771
20
82.0464594
11
13.3292771
21
82.3417594
0
LINE
8
DEFAULT_255_2_778
10
13.3292771
20
82.3417594
11
13.3292771
21
82.3417594
0
LINE
8
DEFAULT_255_2_778
10
13.2578771
20
82.6756594
11
13.2578771
21
82.6756594
0
LINE
8
DEFAULT_255_2_778
10
13.2578771
20
82.6756594
11
13.2578771
21
82.6756594
0
LINE
8
DEFAULT_255_2_778
10
13.0318771
20
82.7804594
11
13.0318771
21
82.7804594
0
LINE
8
DEFAULT_255_2_778
10
13.0318771
20
82.7804594
11
13.0318771
21
82.7804594
0
LINE
8
DEFAULT_255_2_778
10
12.8080771
20
82.6762594
11
12.8080771
21
82.6762594
0
LINE
8
DEFAULT_255_2_778
10
12.8080771
20
82.6762594
11
12.8080771
21
82.6762594
0
LINE
8
DEFAULT_255_2_778
10
12.7355771
20
82.3555594
11
12.7355771
21
82.3555594
0
LINE
8
DEFAULT_255_2_778
10
12.7355771
20
82.3555594
11
12.7355771
21
82.0668594
0
LINE
8
DEFAULT_255_2_778
10
12.7355771
20
82.0668594
11
12.7355771
21
82.0668594
0
LINE
8
DEFAULT_255_2_778
10
12.8096771
20
81.7271594
11
12.8096771
21
81.7271594
0
LINE
8
DEFAULT_255_2_778
10
12.8096771
20
81.7271594
11
12.8096771
21
81.7271594
0
LINE
8
DEFAULT_255_2_778
10
13.0339771
20
81.6176594
11
13.0339771
21
81.6176594
0
LINE
8
DEFAULT_255_2_778
10
13.0339771
20
81.6176594
11
13.0339771
21
81.6176594
0
LINE
8
DEFAULT_255_2_778
10
13.2538771
20
81.7210594
11
13.2538771
21
81.7210594
0
LINE
8
DEFAULT_255_2_778
10
13.2538771
20
81.7210594
11
13.2538771
21
81.7210594
0
LINE
8
DEFAULT_255_2_778
10
13.3290771
20
82.0467594
11
13.3290771
21
82.0467594
0
LINE
8
DEFAULT_255_2_778
10
13.3290771
20
82.0467594
11
13.3292771
21
82.0464594
0
LINE
8
DEFAULT_255_2_778
10
14.2223104
20
82.1663542
11
14.2223104
21
82.0192542
0
LINE
8
DEFAULT_255_2_778
10
14.2223104
20
82.0192542
11
13.6947104
21
82.0192542
0
LINE
8
DEFAULT_255_2_778
10
13.6947104
20
82.0192542
11
13.6947104
21
82.1663542
0
LINE
8
DEFAULT_255_2_778
10
13.6947104
20
82.1663542
11
14.2223104
21
82.1663542
0
LINE
8
DEFAULT_255_2_778
10
14.2223104
20
82.1663542
11
14.2223104
21
82.1663542
0
ARC
8
DEFAULT_255_2_778
10
14.178322
20
82.0827271
40
1.2047192
50
349.2881589
51
0.5912801
0
ARC
8
DEFAULT_255_2_778
10
14.7797914
20
81.9629506
40
0.5914973
50
328.4722565
51
349.8591342
0
ARC
8
DEFAULT_255_2_778
10
14.9399119
20
81.8750809
40
0.4091599
50
322.1921108
51
327.2357043
0
ARC
8
DEFAULT_255_2_778
10
14.9528695
20
81.8745937
40
0.3986955
50
276.819482
51
321.1058569
0
ARC
8
DEFAULT_255_2_778
10
14.8912996
20
82.1749346
40
0.704683
50
269.729853
51
278.8909325
0
ARC
8
DEFAULT_255_2_778
10
14.8749664
20
82.0504763
40
0.5803628
50
248.8878212
51
271.2845781
0
ARC
8
DEFAULT_255_2_778
10
14.8043759
20
81.8535107
40
0.3712266
50
218.8276205
51
248.1016192
0
ARC
8
DEFAULT_255_2_778
10
14.940033
20
81.9463901
40
0.5352924
50
192.1690503
51
217.4683608
0
ARC
8
DEFAULT_255_2_778
10
15.4695269
20
82.0734854
40
1.0797537
50
180.1552671
51
192.8389312
0
ARC
8
DEFAULT_255_2_778
10
15.5608995
20
82.3238807
40
1.1711893
50
169.0285759
51
180.6125683
0
ARC
8
DEFAULT_255_2_778
10
14.9723492
20
82.4441717
40
0.5705353
50
147.3494825
51
169.6391534
0
ARC
8
DEFAULT_255_2_778
10
14.823211
20
82.5289945
40
0.3993038
50
141.7393266
51
146.0517579
0
ARC
8
DEFAULT_255_2_778
10
14.8182465
20
82.5235757
40
0.3988284
50
96.9921763
51
140.6863772
0
ARC
8
DEFAULT_255_2_778
10
14.8823062
20
82.2138986
40
0.7144697
50
89.7136388
51
99.0684491
0
ARC
8
DEFAULT_255_2_778
10
14.8986552
20
82.3227066
40
0.6057875
50
70.2462147
51
91.2086517
0
ARC
8
DEFAULT_255_2_778
10
14.9758972
20
82.5480032
40
0.3676588
50
39.4790875
51
69.7087316
0
ARC
8
DEFAULT_255_2_778
10
14.8588918
20
82.470474
40
0.5074716
50
12.6037139
51
37.8360811
0
ARC
8
DEFAULT_255_2_778
10
14.3284562
20
82.33788
40
1.0541465
50
0.9676337
51
13.3458822
0
ARC
8
DEFAULT_255_2_778
10
13.8499538
20
82.3121678
40
1.5331164
50
0.6312875
51
1.6264385
0
ARC
8
DEFAULT_255_2_778
10
14.1975335
20
82.3536823
40
0.9855157
50
359.3068075
51
10.2606399
0
ARC
8
DEFAULT_255_2_778
10
14.7791659
20
82.4653755
40
0.3933402
50
9.3424895
51
32.3175109
0
ARC
8
DEFAULT_255_2_778
10
14.9081193
20
82.5307189
40
0.2498056
50
35.465536
51
92.43162
0
ARC
8
DEFAULT_255_2_778
10
14.885639
20
82.3392184
40
0.441241
50
88.4569546
51
90.008043
0
ARC
8
DEFAULT_255_2_778
10
14.8713847
20
82.5085941
40
0.2722355
50
87.0116585
51
128.4326634
0
ARC
8
DEFAULT_255_2_778
10
14.8504467
20
82.5497947
40
0.2271332
50
130.7562146
51
146.1661837
0
ARC
8
DEFAULT_255_2_778
10
15.008002
20
82.4585195
40
0.4090016
50
147.8343295
51
170.8650558
0
ARC
8
DEFAULT_255_2_778
10
15.5398253
20
82.3557501
40
0.9505483
50
169.8382717
51
180.0114945
0
ARC
8
DEFAULT_255_2_778
10
15.5493939
20
82.0546171
40
0.9601948
50
179.2694704
51
190.9441863
0
ARC
8
DEFAULT_255_2_778
10
15.0069831
20
81.9450663
40
0.4068765
50
190.2991986
51
212.3819246
0
ARC
8
DEFAULT_255_2_778
10
14.8718243
20
81.8696648
40
0.2525035
50
214.3585522
51
273.5995322
0
ARC
8
DEFAULT_255_2_778
10
14.9049962
20
81.8663569
40
0.2492998
50
266.0164058
51
324.3507023
0
ARC
8
DEFAULT_255_2_778
10
14.7703616
20
81.9389254
40
0.4014722
50
327.1345561
51
350.4620363
0
ARC
8
DEFAULT_255_2_778
10
14.2139726
20
82.050443
40
0.9688115
50
349.4103616
51
359.7821455
0
LINE
8
DEFAULT_255_2_778
10
15.3829771
20
82.3290594
11
15.3829771
21
82.0951594
0
LINE
8
DEFAULT_255_2_778
10
15.3829771
20
82.0951594
11
15.3829771
21
82.0951594
0
LINE
8
DEFAULT_255_2_778
10
15.2631771
20
81.6242594
11
15.2631771
21
81.6242594
0
LINE
8
DEFAULT_255_2_778
10
15.2631771
20
81.6242594
11
15.2631771
21
81.6242594
0
LINE
8
DEFAULT_255_2_778
10
14.8879771
20
81.4702594
11
14.8879771
21
81.4702594
0
LINE
8
DEFAULT_255_2_778
10
14.8879771
20
81.4702594
11
14.8879771
21
81.4702594
0
LINE
8
DEFAULT_255_2_778
10
14.5151771
20
81.6207594
11
14.5151771
21
81.6207594
0
LINE
8
DEFAULT_255_2_778
10
14.5151771
20
81.6207594
11
14.5151771
21
81.6207594
0
LINE
8
DEFAULT_255_2_778
10
14.3897771
20
82.0705594
11
14.3897771
21
82.0705594
0
LINE
8
DEFAULT_255_2_778
10
14.3897771
20
82.0705594
11
14.3897771
21
82.3113594
0
LINE
8
DEFAULT_255_2_778
10
14.3897771
20
82.3113594
11
14.3897771
21
82.3113594
0
LINE
8
DEFAULT_255_2_778
10
14.5096771
20
82.7762594
11
14.5096771
21
82.7762594
0
LINE
8
DEFAULT_255_2_778
10
14.5096771
20
82.7762594
11
14.5096771
21
82.7762594
0
LINE
8
DEFAULT_255_2_778
10
14.8858771
20
82.9283594
11
14.8858771
21
82.9283594
0
LINE
8
DEFAULT_255_2_778
10
14.8858771
20
82.9283594
11
14.8858771
21
82.9283594
0
LINE
8
DEFAULT_255_2_778
10
15.2596771
20
82.7817594
11
15.2596771
21
82.7817594
0
LINE
8
DEFAULT_255_2_778
10
15.2596771
20
82.7817594
11
15.2596771
21
82.7817594
0
LINE
8
DEFAULT_255_2_778
10
15.3829771
20
82.3290594
11
15.3829771
21
82.3290594
0
LINE
8
DEFAULT_255_2_778
10
15.3829771
20
82.3290594
11
15.3829771
21
82.3290594
0
LINE
8
DEFAULT_255_2_778
10
15.1829771
20
82.0464594
11
15.1829771
21
82.3417594
0
LINE
8
DEFAULT_255_2_778
10
15.1829771
20
82.3417594
11
15.1829771
21
82.3417594
0
LINE
8
DEFAULT_255_2_778
10
15.1115771
20
82.6756594
11
15.1115771
21
82.6756594
0
LINE
8
DEFAULT_255_2_778
10
15.1115771
20
82.6756594
11
15.1115771
21
82.6756594
0
LINE
8
DEFAULT_255_2_778
10
14.8855771
20
82.7804594
11
14.8855771
21
82.7804594
0
LINE
8
DEFAULT_255_2_778
10
14.8855771
20
82.7804594
11
14.8855771
21
82.7804594
0
LINE
8
DEFAULT_255_2_778
10
14.6617771
20
82.6762594
11
14.6617771
21
82.6762594
0
LINE
8
DEFAULT_255_2_778
10
14.6617771
20
82.6762594
11
14.6617771
21
82.6762594
0
LINE
8
DEFAULT_255_2_778
10
14.5892771
20
82.3555594
11
14.5892771
21
82.3555594
0
LINE
8
DEFAULT_255_2_778
10
14.5892771
20
82.3555594
11
14.5892771
21
82.0668594
0
LINE
8
DEFAULT_255_2_778
10
14.5892771
20
82.0668594
11
14.5892771
21
82.0668594
0
LINE
8
DEFAULT_255_2_778
10
14.6633771
20
81.7271594
11
14.6633771
21
81.7271594
0
LINE
8
DEFAULT_255_2_778
10
14.6633771
20
81.7271594
11
14.6633771
21
81.7271594
0
LINE
8
DEFAULT_255_2_778
10
14.8876771
20
81.6176594
11
14.8876771
21
81.6176594
0
LINE
8
DEFAULT_255_2_778
10
14.8876771
20
81.6176594
11
14.8876771
21
81.6176594
0
LINE
8
DEFAULT_255_2_778
10
15.1075771
20
81.7210594
11
15.1075771
21
81.7210594
0
LINE
8
DEFAULT_255_2_778
10
15.1075771
20
81.7210594
11
15.1075771
21
81.7210594
0
LINE
8
DEFAULT_255_2_778
10
15.1827771
20
82.0467594
11
15.1827771
21
82.0467594
0
LINE
8
DEFAULT_255_2_778
10
15.1827771
20
82.0467594
11
15.1829771
21
82.0464594
0
LINE
8
DEFAULT_255_2_778
10
16.4834719
20
82.9090125
11
16.4834719
21
81.9663125
0
LINE
8
DEFAULT_255_2_778
10
16.4834719
20
81.9663125
11
16.7017719
21
81.9663125
0
LINE
8
DEFAULT_255_2_778
10
16.7017719
20
81.9663125
11
16.7017719
21
81.8192125
0
LINE
8
DEFAULT_255_2_778
10
16.7017719
20
81.8192125
11
16.4834719
21
81.8192125
0
LINE
8
DEFAULT_255_2_778
10
16.4834719
20
81.8192125
11
16.4834719
21
81.4898125
0
LINE
8
DEFAULT_255_2_778
10
16.4834719
20
81.4898125
11
16.2823719
21
81.4898125
0
LINE
8
DEFAULT_255_2_778
10
16.2823719
20
81.4898125
11
16.2823719
21
81.8192125
0
LINE
8
DEFAULT_255_2_778
10
16.2823719
20
81.8192125
11
15.5658719
21
81.8192125
0
LINE
8
DEFAULT_255_2_778
10
15.5658719
20
81.8192125
11
15.5658719
21
81.9255125
0
LINE
8
DEFAULT_255_2_778
10
15.5658719
20
81.9255125
11
16.2706719
21
82.9090125
0
LINE
8
DEFAULT_255_2_778
10
16.2706719
20
82.9090125
11
16.4836719
21
82.9090125
0
LINE
8
DEFAULT_255_2_778
10
16.4836719
20
82.9090125
11
16.4834719
21
82.9090125
0
LINE
8
DEFAULT_255_2_778
10
16.2585719
20
82.6235125
11
15.7925719
21
81.9666125
0
LINE
8
DEFAULT_255_2_778
10
15.7925719
20
81.9666125
11
16.2823719
21
81.9666125
0
LINE
8
DEFAULT_255_2_778
10
16.2823719
20
81.9666125
11
16.2823719
21
82.6624125
0
LINE
8
DEFAULT_255_2_778
10
16.2823719
20
82.6624125
11
16.2585719
21
82.6235125
0
LINE
8
DEFAULT_255_2_778
10
16.2585719
20
82.6235125
11
16.2585719
21
82.6235125
0
LINE
8
DEFAULT_255_2_778
10
17.95345
20
81.4898125
11
17.80315
21
81.8602125
0
LINE
8
DEFAULT_255_2_778
10
17.80315
20
81.8602125
11
17.14405
21
81.8602125
0
LINE
8
DEFAULT_255_2_778
10
17.14405
20
81.8602125
11
16.99585
21
81.4898125
0
LINE
8
DEFAULT_255_2_778
10
16.99585
20
81.4898125
11
16.78185
21
81.4898125
0
LINE
8
DEFAULT_255_2_778
10
16.78185
20
81.4898125
11
17.38275
21
82.9090125
0
LINE
8
DEFAULT_255_2_778
10
17.38275
20
82.9090125
11
17.56425
21
82.9090125
0
LINE
8
DEFAULT_255_2_778
10
17.56425
20
82.9090125
11
18.16615
21
81.4898125
0
LINE
8
DEFAULT_255_2_778
10
18.16615
20
81.4898125
11
17.95315
21
81.4898125
0
LINE
8
DEFAULT_255_2_778
10
17.95315
20
81.4898125
11
17.95345
21
81.4898125
0
LINE
8
DEFAULT_255_2_778
10
17.47345
20
82.6780125
11
17.20655
21
82.0142125
0
LINE
8
DEFAULT_255_2_778
10
17.20655
20
82.0142125
11
17.74145
21
82.0142125
0
LINE
8
DEFAULT_255_2_778
10
17.74145
20
82.0142125
11
17.47345
21
82.6780125
0
LINE
8
DEFAULT_255_2_778
10
17.47345
20
82.6780125
11
17.47345
21
82.6780125
0
ARC
8
DEFAULT_255_2_778
10
18.8364253
20
82.1206451
40
0.7885266
50
65.3212969
51
91.0277846
0
ARC
8
DEFAULT_255_2_778
10
18.876852
20
82.2312718
40
0.6711913
50
62.6146861
51
64.5140976
0
ARC
8
DEFAULT_255_2_778
10
18.9227529
20
82.3085235
40
0.5815071
50
29.4177853
51
63.1293423
0
ARC
8
DEFAULT_255_2_778
10
18.8199924
20
82.2569744
40
0.6963596
50
359.1829716
51
28.9594166
0
ARC
8
DEFAULT_255_2_778
10
18.8110793
20
82.141668
40
0.7053547
50
332.7505622
51
1.1922784
0
ARC
8
DEFAULT_255_2_778
10
18.9017084
20
82.1054771
40
0.6082842
50
330.3376657
51
331.8725233
0
ARC
8
DEFAULT_255_2_778
10
18.9298816
20
82.0875179
40
0.5749176
50
296.3522883
51
330.5034153
0
ARC
8
DEFAULT_255_2_778
10
18.8306677
20
82.2966487
40
0.8063654
50
271.5940643
51
296.0732486
0
ARC
8
DEFAULT_255_2_778
10
18.8043022
20
82.5796343
40
1.0901317
50
270.5034662
51
272.565558
0
ARC
8
DEFAULT_255_2_778
10
18.8170163
20
82.2453839
40
0.6027844
50
268.7418827
51
292.1437061
0
ARC
8
DEFAULT_255_2_778
10
18.8797789
20
82.0725959
40
0.4191422
50
293.1000675
51
315.1789419
0
ARC
8
DEFAULT_255_2_778
10
18.8418784
20
82.097652
40
0.4637735
50
316.283882
51
353.2372136
0
ARC
8
DEFAULT_255_2_778
10
18.5296251
20
82.1570362
40
0.7811627
50
351.6086718
51
0.2353415
0
ARC
8
DEFAULT_255_2_778
10
18.6570334
20
82.2560167
40
0.6538765
50
358.8632602
51
19.861836
0
ARC
8
DEFAULT_255_2_778
10
18.8739494
20
82.3287104
40
0.4251993
50
20.5798703
51
43.0274976
0
ARC
8
DEFAULT_255_2_778
10
18.8705383
20
82.3127429
40
0.4386879
50
44.2481251
51
85.4104388
0
ARC
8
DEFAULT_255_2_778
10
18.8235023
20
82.0395703
40
0.7151861
50
83.4050699
51
89.6732215
0
LINE
8
DEFAULT_255_2_778
10
18.8135813
20
81.4898448
11
18.3780813
21
81.4898448
0
LINE
8
DEFAULT_255_2_778
10
18.3780813
20
81.4898448
11
18.3780813
21
82.9090448
0
LINE
8
DEFAULT_255_2_778
10
18.3780813
20
82.9090448
11
18.8222813
21
82.9090448
0
LINE
8
DEFAULT_255_2_778
10
18.8222813
20
82.9090448
11
18.8222813
21
82.9090448
0
LINE
8
DEFAULT_255_2_778
10
19.1855813
20
82.8272448
11
19.1855813
21
82.8272448
0
LINE
8
DEFAULT_255_2_778
10
19.1855813
20
82.8272448
11
19.1855813
21
82.8272448
0
LINE
8
DEFAULT_255_2_778
10
19.4292813
20
82.5941448
11
19.4292813
21
82.5941448
0
LINE
8
DEFAULT_255_2_778
10
19.4292813
20
82.5941448
11
19.4292813
21
82.5941448
0
LINE
8
DEFAULT_255_2_778
10
19.5162813
20
82.2470448
11
19.5162813
21
82.2470448
0
LINE
8
DEFAULT_255_2_778
10
19.5162813
20
82.2470448
11
19.5162813
21
82.1563448
0
LINE
8
DEFAULT_255_2_778
10
19.5162813
20
82.1563448
11
19.5162813
21
82.1563448
0
LINE
8
DEFAULT_255_2_778
10
19.4302813
20
81.8044448
11
19.4302813
21
81.8044448
0
LINE
8
DEFAULT_255_2_778
10
19.4302813
20
81.8044448
11
19.4302813
21
81.8044448
0
LINE
8
DEFAULT_255_2_778
10
19.1850813
20
81.5723448
11
19.1850813
21
81.5723448
0
LINE
8
DEFAULT_255_2_778
10
19.1850813
20
81.5723448
11
19.1850813
21
81.5723448
0
LINE
8
DEFAULT_255_2_778
10
18.8138813
20
81.4895448
11
18.8138813
21
81.4895448
0
LINE
8
DEFAULT_255_2_778
10
18.8138813
20
81.4895448
11
18.8135813
21
81.4898448
0
LINE
8
DEFAULT_255_2_778
10
18.8275813
20
82.7550448
11
18.5854813
21
82.7550448
0
LINE
8
DEFAULT_255_2_778
10
18.5854813
20
82.7550448
11
18.5854813
21
81.6427448
0
LINE
8
DEFAULT_255_2_778
10
18.5854813
20
81.6427448
11
18.8037813
21
81.6427448
0
LINE
8
DEFAULT_255_2_778
10
18.8037813
20
81.6427448
11
18.8037813
21
81.6427448
0
LINE
8
DEFAULT_255_2_778
10
19.1770813
20
81.7771448
11
19.1770813
21
81.7771448
0
LINE
8
DEFAULT_255_2_778
10
19.1770813
20
81.7771448
11
19.1770813
21
81.7771448
0
LINE
8
DEFAULT_255_2_778
10
19.3107813
20
82.1602448
11
19.3107813
21
82.1602448
0
LINE
8
DEFAULT_255_2_778
10
19.3107813
20
82.1602448
11
19.3107813
21
82.2430448
0
LINE
8
DEFAULT_255_2_778
10
19.3107813
20
82.2430448
11
19.3107813
21
82.2430448
0
LINE
8
DEFAULT_255_2_778
10
19.1847813
20
82.6188448
11
19.1847813
21
82.6188448
0
LINE
8
DEFAULT_255_2_778
10
19.1847813
20
82.6188448
11
19.1847813
21
82.6188448
0
LINE
8
DEFAULT_255_2_778
10
18.8275813
20
82.7547448
11
18.8275813
21
82.7547448
0
LINE
8
DEFAULT_255_2_778
10
18.8275813
20
82.7547448
11
18.8275813
21
82.7550448
0
LINE
8
DEFAULT_255_2_778
10
20.2146104
20
82.1663542
11
20.2146104
21
82.0192542
0
LINE
8
DEFAULT_255_2_778
10
20.2146104
20
82.0192542
11
19.6870104
21
82.0192542
0
LINE
8
DEFAULT_255_2_778
10
19.6870104
20
82.0192542
11
19.6870104
21
82.1663542
0
LINE
8
DEFAULT_255_2_778
10
19.6870104
20
82.1663542
11
20.2146104
21
82.1663542
0
LINE
8
DEFAULT_255_2_778
10
20.2146104
20
82.1663542
11
20.2146104
21
82.1663542
0
ARC
8
DEFAULT_255_2_778
10
19.6691122
20
83.4197548
40
1.7810646
50
315.2247649
51
320.5960194
0
ARC
8
DEFAULT_255_2_778
10
20.5310458
20
82.713582
40
0.666792
50
320.4680237
51
328.6427843
0
ARC
8
DEFAULT_255_2_778
10
20.8362886
20
82.5291539
40
0.3101647
50
328.3935186
51
359.6024941
0
ARC
8
DEFAULT_255_2_778
10
20.9056371
20
82.5348731
40
0.2409373
50
358.127898
51
46.3823868
0
ARC
8
DEFAULT_255_2_778
10
20.8863885
20
82.5042681
40
0.2764659
50
47.8700185
51
92.8077427
0
ARC
8
DEFAULT_255_2_778
10
20.8596711
20
82.4118014
40
0.368836
50
87.9529702
51
117.8643088
0
ARC
8
DEFAULT_255_2_778
10
20.8127808
20
82.5180586
40
0.2531164
50
119.7227773
51
132.7251675
0
ARC
8
DEFAULT_255_2_778
10
20.8333861
20
82.5066396
40
0.2755843
50
134.261664
51
183.2529029
0
ARC
8
DEFAULT_255_2_778
10
20.755972
20
82.5044779
40
0.3979544
50
130.3629522
51
181.9405605
0
ARC
8
DEFAULT_255_2_778
10
20.8238958
20
82.4160621
40
0.5093424
50
94.8062342
51
129.7436413
0
ARC
8
DEFAULT_255_2_778
10
20.8707524
20
82.1229263
40
0.8056777
50
89.8724617
51
96.3802864
0
ARC
8
DEFAULT_255_2_778
10
20.8853105
20
82.2781395
40
0.6505878
50
70.6677285
51
91.1242303
0
ARC
8
DEFAULT_255_2_778
10
20.956702
20
82.4987615
40
0.4188103
50
51.144548
51
69.8920182
0
ARC
8
DEFAULT_255_2_778
10
21.0091299
20
82.5602872
40
0.3380146
50
358.0358583
51
51.5223156
0
ARC
8
DEFAULT_255_2_778
10
20.9288278
20
82.5615118
40
0.4183142
50
331.4276705
51
358.2451985
0
ARC
8
DEFAULT_255_2_778
10
20.4551436
20
82.8022556
40
0.9495709
50
319.6856066
51
332.3402297
0
ARC
8
DEFAULT_255_2_778
10
19.807739
20
83.3320297
40
1.7860369
50
314.1125527
51
320.163692
0
LINE
8
DEFAULT_255_2_778
10
21.4197458
20
81.6369021
11
21.4197458
21
81.4898021
0
LINE
8
DEFAULT_255_2_778
10
21.4197458
20
81.4898021
11
20.3886458
21
81.4898021
0
LINE
8
DEFAULT_255_2_778
10
20.3886458
20
81.4898021
11
20.3886458
21
81.6194021
0
LINE
8
DEFAULT_255_2_778
10
20.3886458
20
81.6194021
11
20.9334458
21
82.1653021
0
LINE
8
DEFAULT_255_2_778
10
20.9334458
20
82.1653021
11
20.9334458
21
82.1653021
0
LINE
8
DEFAULT_255_2_778
10
21.1004458
20
82.3666021
11
21.1004458
21
82.3666021
0
LINE
8
DEFAULT_255_2_778
10
21.1004458
20
82.3666021
11
21.1004458
21
82.3666021
0
LINE
8
DEFAULT_255_2_778
10
21.1464458
20
82.5270021
11
21.1464458
21
82.5270021
0
LINE
8
DEFAULT_255_2_778
10
21.1464458
20
82.5270021
11
21.1464458
21
82.5270021
0
LINE
8
DEFAULT_255_2_778
10
21.0718458
20
82.7093021
11
21.0718458
21
82.7093021
0
LINE
8
DEFAULT_255_2_778
10
21.0718458
20
82.7093021
11
21.0718458
21
82.7093021
0
LINE
8
DEFAULT_255_2_778
10
20.8728458
20
82.7804021
11
20.8728458
21
82.7804021
0
LINE
8
DEFAULT_255_2_778
10
20.8728458
20
82.7804021
11
20.8728458
21
82.7804021
0
LINE
8
DEFAULT_255_2_778
10
20.6410458
20
82.7040021
11
20.6410458
21
82.7040021
0
LINE
8
DEFAULT_255_2_778
10
20.6410458
20
82.7040021
11
20.6410458
21
82.7040021
0
LINE
8
DEFAULT_255_2_778
10
20.5582458
20
82.4910021
11
20.5582458
21
82.4910021
0
LINE
8
DEFAULT_255_2_778
10
20.5582458
20
82.4910021
11
20.3582458
21
82.4910021
0
LINE
8
DEFAULT_255_2_778
10
20.3582458
20
82.4910021
11
20.3582458
21
82.4910021
0
LINE
8
DEFAULT_255_2_778
10
20.4982458
20
82.8077021
11
20.4982458
21
82.8077021
0
LINE
8
DEFAULT_255_2_778
10
20.4982458
20
82.8077021
11
20.4982458
21
82.8077021
0
LINE
8
DEFAULT_255_2_778
10
20.8725458
20
82.9286021
11
20.8725458
21
82.9286021
0
LINE
8
DEFAULT_255_2_778
10
20.8725458
20
82.9286021
11
20.8725458
21
82.9286021
0
LINE
8
DEFAULT_255_2_778
10
21.2194458
20
82.8249021
11
21.2194458
21
82.8249021
0
LINE
8
DEFAULT_255_2_778
10
21.2194458
20
82.8249021
11
21.2194458
21
82.8249021
0
LINE
8
DEFAULT_255_2_778
10
21.3469458
20
82.5487021
11
21.3469458
21
82.5487021
0
LINE
8
DEFAULT_255_2_778
10
21.3469458
20
82.5487021
11
21.3469458
21
82.5487021
0
LINE
8
DEFAULT_255_2_778
10
21.0509458
20
82.0497021
11
21.0509458
21
82.0497021
0
LINE
8
DEFAULT_255_2_778
10
21.0509458
20
82.0497021
11
20.6294458
21
81.6374021
0
LINE
8
DEFAULT_255_2_778
10
20.6294458
20
81.6374021
11
21.4194458
21
81.6374021
0
LINE
8
DEFAULT_255_2_778
10
21.4194458
20
81.6374021
11
21.4197458
21
81.6369021
0
ARC
8
DEFAULT_255_2_778
10
17.3046206
20
79.548491
40
0.9685682
50
348.9568003
51
0.6944527
0
ARC
8
DEFAULT_255_2_778
10
17.8344407
20
79.4396882
40
0.4277506
50
326.6658358
51
349.666943
0
ARC
8
DEFAULT_255_2_778
10
17.9644614
20
79.3691926
40
0.2806629
50
268.861351
51
324.1026601
0
ARC
8
DEFAULT_255_2_778
10
17.9377911
20
79.5770282
40
0.4888981
50
269.9796781
51
272.4727345
0
ARC
8
DEFAULT_255_2_778
10
17.9236943
20
79.4102757
40
0.3224463
50
235.5465017
51
272.4748385
0
ARC
8
DEFAULT_255_2_778
10
17.8963459
20
79.3537486
40
0.2605334
50
215.6421837
51
233.472582
0
ARC
8
DEFAULT_255_2_778
10
18.0482893
20
79.447773
40
0.4389711
50
189.3325727
51
214.0587834
0
ARC
8
DEFAULT_255_2_778
10
18.5324885
20
79.5454863
40
0.9327787
50
180.2368633
51
190.432138
0
ARC
8
DEFAULT_255_2_778
10
18.5346675
20
79.7357289
40
0.9350307
50
168.38955
51
180.7536465
0
ARC
8
DEFAULT_255_2_778
10
18.0265606
20
79.8442377
40
0.4155019
50
146.2911253
51
168.9450977
0
ARC
8
DEFAULT_255_2_778
10
17.9069777
20
79.9079147
40
0.2810052
50
89.5671134
51
143.5590197
0
ARC
8
DEFAULT_255_2_778
10
17.9357399
20
79.6954179
40
0.4942125
50
89.9677949
51
93.0898656
0
ARC
8
DEFAULT_255_2_778
10
17.9495038
20
79.853455
40
0.3364456
50
58.631784
51
92.2972557
0
ARC
8
DEFAULT_255_2_778
10
17.9860849
20
79.9307744
40
0.251547
50
36.0282372
51
56.5783979
0
ARC
8
DEFAULT_255_2_778
10
17.8474592
20
79.8442231
40
0.4147259
50
9.9598415
51
34.4335979
0
ARC
8
DEFAULT_255_2_778
10
17.33171
20
79.7369079
40
0.941408
50
359.983101
51
10.9638109
0
ARC
8
DEFAULT_255_2_778
10
17.3559688
20
79.7578785
40
0.7817328
50
359.1608851
51
10.7596369
0
ARC
8
DEFAULT_255_2_778
10
17.8302318
20
79.8499632
40
0.2986228
50
10.3901159
51
29.8573359
0
ARC
8
DEFAULT_255_2_778
10
17.9473324
20
79.9117363
40
0.1663791
50
31.4842764
51
93.8994327
0
ARC
8
DEFAULT_255_2_778
10
17.924776
20
79.9142367
40
0.1638795
50
86.0665507
51
148.9227647
0
ARC
8
DEFAULT_255_2_778
10
18.0923624
20
79.829267
40
0.3515417
50
151.1615569
51
173.7853955
0
ARC
8
DEFAULT_255_2_778
10
18.5784896
20
79.7538171
40
0.8432769
50
172.2644981
51
179.8020743
0
ARC
8
DEFAULT_255_2_778
10
18.4940964
20
79.5267203
40
0.7589737
50
179.0933187
51
191.6144784
0
ARC
8
DEFAULT_255_2_778
10
18.0517923
20
79.4354632
40
0.3073538
50
191.5508364
51
209.9259981
0
ARC
8
DEFAULT_255_2_778
10
17.9293319
20
79.3653839
40
0.1662603
50
210.0491759
51
272.8565836
0
ARC
8
DEFAULT_255_2_778
10
17.9469276
20
79.3632185
40
0.1641525
50
266.7487353
51
328.4513401
0
ARC
8
DEFAULT_255_2_778
10
17.7899313
20
79.4455886
40
0.3412513
50
330.4578826
51
353.3208339
0
ARC
8
DEFAULT_255_2_778
10
17.2828283
20
79.5279839
40
0.8548016
50
351.7887143
51
359.69477
0
LINE
8
DEFAULT_255_2_778
10
18.2731177
20
79.7369302
11
18.2731177
21
79.5602302
0
LINE
8
DEFAULT_255_2_778
10
17.5997177
20
79.5416302
11
17.5997177
21
79.7234302
0
LINE
8
DEFAULT_255_2_778
10
18.2731177
20
79.7366302
11
18.2731177
21
79.7369302
0
LINE
8
DEFAULT_255_2_778
10
18.1376177
20
79.5234302
11
18.1376177
21
79.7464302
0
LINE
8
DEFAULT_255_2_778
10
17.7352177
20
79.7567302
11
17.7352177
21
79.5387302
0
LINE
8
DEFAULT_255_2_778
10
18.1376177
20
79.5234302
11
18.1376177
21
79.5234302
0
LINE
8
DEFAULT_255_2_778
10
20.6312708
20
80.1750458
11
20.9347708
21
79.2908458
0
LINE
8
DEFAULT_255_2_778
10
20.9347708
20
79.2908458
11
21.2395708
21
80.1750458
0
LINE
8
DEFAULT_255_2_778
10
21.2395708
20
80.1750458
11
21.3935708
21
80.1750458
0
LINE
8
DEFAULT_255_2_778
10
21.3935708
20
80.1750458
11
20.9976708
21
79.1029458
0
LINE
8
DEFAULT_255_2_778
10
20.9976708
20
79.1029458
11
20.8730708
21
79.1029458
0
LINE
8
DEFAULT_255_2_778
10
20.8730708
20
79.1029458
11
20.4780708
21
80.1750458
0
LINE
8
DEFAULT_255_2_778
10
20.4780708
20
80.1750458
11
20.6312708
21
80.1750458
0
LINE
8
DEFAULT_255_2_778
10
20.6312708
20
80.1750458
11
20.6312708
21
80.1750458
0
ARC
8
DEFAULT_255_2_778
10
19.4040206
20
79.548491
40
0.9685682
50
348.9568003
51
0.6944527
0
ARC
8
DEFAULT_255_2_778
10
19.9338407
20
79.4396882
40
0.4277506
50
326.6658358
51
349.666943
0
ARC
8
DEFAULT_255_2_778
10
20.0638614
20
79.3691926
40
0.2806629
50
268.861351
51
324.1026601
0
ARC
8
DEFAULT_255_2_778
10
20.0371911
20
79.5770282
40
0.4888981
50
269.9796781
51
272.4727345
0
ARC
8
DEFAULT_255_2_778
10
20.0230943
20
79.4102757
40
0.3224463
50
235.5465017
51
272.4748385
0
ARC
8
DEFAULT_255_2_778
10
19.9957459
20
79.3537486
40
0.2605334
50
215.6421837
51
233.472582
0
ARC
8
DEFAULT_255_2_778
10
20.1476893
20
79.447773
40
0.4389711
50
189.3325727
51
214.0587834
0
ARC
8
DEFAULT_255_2_778
10
20.6318885
20
79.5454863
40
0.9327787
50
180.2368633
51
190.432138
0
ARC
8
DEFAULT_255_2_778
10
20.6340675
20
79.7357289
40
0.9350307
50
168.38955
51
180.7536465
0
ARC
8
DEFAULT_255_2_778
10
20.1259606
20
79.8442377
40
0.4155019
50
146.2911253
51
168.9450977
0
ARC
8
DEFAULT_255_2_778
10
20.0063777
20
79.9079147
40
0.2810052
50
89.5671134
51
143.5590197
0
ARC
8
DEFAULT_255_2_778
10
20.0351399
20
79.6954179
40
0.4942125
50
89.9677949
51
93.0898656
0
ARC
8
DEFAULT_255_2_778
10
20.0489038
20
79.853455
40
0.3364456
50
58.631784
51
92.2972557
0
ARC
8
DEFAULT_255_2_778
10
20.0854849
20
79.9307744
40
0.251547
50
36.0282372
51
56.5783979
0
ARC
8
DEFAULT_255_2_778
10
19.9468592
20
79.8442231
40
0.4147259
50
9.9598415
51
34.4335979
0
ARC
8
DEFAULT_255_2_778
10
19.43111
20
79.7369079
40
0.941408
50
359.983101
51
10.9638109
0
ARC
8
DEFAULT_255_2_778
10
19.4553688
20
79.7578785
40
0.7817328
50
359.1608851
51
10.7596369
0
ARC
8
DEFAULT_255_2_778
10
19.9296318
20
79.8499632
40
0.2986228
50
10.3901159
51
29.8573359
0
ARC
8
DEFAULT_255_2_778
10
20.0467324
20
79.9117363
40
0.1663791
50
31.4842764
51
93.8994327
0
ARC
8
DEFAULT_255_2_778
10
20.024176
20
79.9142367
40
0.1638795
50
86.0665507
51
148.9227647
0
ARC
8
DEFAULT_255_2_778
10
20.1917624
20
79.829267
40
0.3515417
50
151.1615569
51
173.7853955
0
ARC
8
DEFAULT_255_2_778
10
20.6778896
20
79.7538171
40
0.8432769
50
172.2644981
51
179.8020743
0
ARC
8
DEFAULT_255_2_778
10
20.5934964
20
79.5267203
40
0.7589737
50
179.0933187
51
191.6144784
0
ARC
8
DEFAULT_255_2_778
10
20.1511923
20
79.4354632
40
0.3073538
50
191.5508364
51
209.9259981
0
ARC
8
DEFAULT_255_2_778
10
20.0287319
20
79.3653839
40
0.1662603
50
210.0491759
51
272.8565836
0
ARC
8
DEFAULT_255_2_778
10
20.0463276
20
79.3632185
40
0.1641525
50
266.7487353
51
328.4513401
0
ARC
8
DEFAULT_255_2_778
10
19.8893313
20
79.4455886
40
0.3412513
50
330.4578826
51
353.3208339
0
ARC
8
DEFAULT_255_2_778
10
19.3822283
20
79.5279839
40
0.8548016
50
351.7887143
51
359.69477
0
LINE
8
DEFAULT_255_2_778
10
20.3725177
20
79.7369302
11
20.3725177
21
79.5602302
0
LINE
8
DEFAULT_255_2_778
10
19.6991177
20
79.5416302
11
19.6991177
21
79.7234302
0
LINE
8
DEFAULT_255_2_778
10
20.3725177
20
79.7366302
11
20.3725177
21
79.7369302
0
LINE
8
DEFAULT_255_2_778
10
20.2370177
20
79.5234302
11
20.2370177
21
79.7464302
0
LINE
8
DEFAULT_255_2_778
10
19.8346177
20
79.7567302
11
19.8346177
21
79.5387302
0
LINE
8
DEFAULT_255_2_778
10
20.2370177
20
79.5234302
11
20.2370177
21
79.5234302
0
LINE
8
DEFAULT_255_2_778
10
19.3063125
20
80.1803594
11
19.3063125
21
79.1032594
0
LINE
8
DEFAULT_255_2_778
10
19.3063125
20
79.1032594
11
19.1700125
21
79.1032594
0
LINE
8
DEFAULT_255_2_778
10
19.1700125
20
79.1032594
11
19.1700125
21
80.0110594
0
LINE
8
DEFAULT_255_2_778
10
19.1700125
20
80.0110594
11
18.8967125
21
79.9102594
0
LINE
8
DEFAULT_255_2_778
10
18.8967125
20
79.9102594
11
18.8967125
21
80.0337594
0
LINE
8
DEFAULT_255_2_778
10
18.8967125
20
80.0337594
11
19.2851125
21
80.1803594
0
LINE
8
DEFAULT_255_2_778
10
19.2851125
20
80.1803594
11
19.3063125
21
80.1803594
0
LINE
8
DEFAULT_255_2_778
10
19.3063125
20
80.1803594
11
19.3063125
21
80.1803594
0
LINE
8
DEFAULT_255_2_778
10
18.7429417
20
79.6141625
11
18.7429417
21
79.5030625
0
LINE
8
DEFAULT_255_2_778
10
18.7429417
20
79.5030625
11
18.3852417
21
79.5030625
0
LINE
8
DEFAULT_255_2_778
10
18.3852417
20
79.5030625
11
18.3852417
21
79.6141625
0
LINE
8
DEFAULT_255_2_778
10
18.3852417
20
79.6141625
11
18.7429417
21
79.6141625
0
LINE
8
DEFAULT_255_2_778
10
18.7429417
20
79.6141625
11
18.7429417
21
79.6141625
0
ARC
8
DEFAULT_255_2_778
10
4.0083485
20
77.6698027
40
0.0999088
50
359.947659
51
90.0523124
0
ARC
8
DEFAULT_255_2_778
10
4.0083489
20
76.7698199
40
0.0999085
50
269.947492
51
0.0524794
0
ARC
8
DEFAULT_255_2_778
10
4.1077112
20
77.7691653
40
0.6006464
50
0.0520945
51
89.9479055
0
ARC
8
DEFAULT_255_2_778
10
4.1077112
20
76.6704575
40
0.6006464
50
270.0520945
51
359.9479055
0
ARC
8
DEFAULT_255_2_778
10
2.5089035
20
76.6704575
40
0.6006464
50
180.0520945
51
269.9479055
0
ARC
8
DEFAULT_255_2_778
10
2.5089035
20
77.7691653
40
0.6006464
50
90.0520945
51
179.9479055
0
ARC
8
DEFAULT_255_2_778
10
2.5082657
20
77.7698031
40
0.0999084
50
89.9474432
51
180.0525568
0
ARC
8
DEFAULT_255_2_778
10
2.5083511
20
76.6698051
40
0.0999938
50
179.9390736
51
270.0035784
0
ARC
8
DEFAULT_255_2_778
10
4.1082634
20
76.6698053
40
0.0999938
50
269.9965396
51
0.0608372
0
ARC
8
DEFAULT_255_2_778
10
4.1083487
20
77.7698029
40
0.0999087
50
359.9475207
51
90.0524102
0
LINE
8
DEFAULT_255_2_778
10
4.1082573
20
77.6697114
11
4.1082573
21
76.7699114
0
LINE
8
DEFAULT_255_2_778
10
4.0082573
20
76.6699114
11
2.5083573
21
76.6699114
0
LINE
8
DEFAULT_255_2_778
10
2.5083573
20
76.6699114
11
2.5083573
21
77.7697114
0
LINE
8
DEFAULT_255_2_778
10
2.5083573
20
77.7697114
11
4.0082573
21
77.7697114
0
LINE
8
DEFAULT_255_2_778
10
4.7083573
20
77.7697114
11
4.7083573
21
76.6699114
0
LINE
8
DEFAULT_255_2_778
10
4.1082573
20
76.0698114
11
2.5083573
21
76.0698114
0
LINE
8
DEFAULT_255_2_778
10
1.9082573
20
76.6699114
11
1.9082573
21
77.7697114
0
LINE
8
DEFAULT_255_2_778
10
2.5083573
20
78.3698114
11
4.1082573
21
78.3698114
0
LINE
8
DEFAULT_255_2_778
10
2.4083573
20
77.7697114
11
2.4083573
21
76.6699114
0
LINE
8
DEFAULT_255_2_778
10
2.5083573
20
76.5698114
11
4.1082573
21
76.5698114
0
LINE
8
DEFAULT_255_2_778
10
4.2082573
20
76.6699114
11
4.2082573
21
77.7697114
0
LINE
8
DEFAULT_255_2_778
10
4.1082573
20
77.8697114
11
2.5083573
21
77.8697114
0
ARC
8
DEFAULT_255_2_778
10
4.008355
20
39.1697029
40
0.0999086
50
359.9475612
51
90.0524507
0
ARC
8
DEFAULT_255_2_778
10
2.6082723
20
39.1697028
40
0.0999087
50
89.9476589
51
180.0524102
0
ARC
8
DEFAULT_255_2_778
10
2.6082719
20
38.2697198
40
0.0999084
50
179.9474634
51
270.0525484
0
ARC
8
DEFAULT_255_2_778
10
4.0083551
20
38.2697199
40
0.0999085
50
269.947492
51
0.0524794
0
ARC
8
DEFAULT_255_2_778
10
2.6083938
20
38.2697416
40
0.2000302
50
179.9800103
51
269.9913489
0
ARC
8
DEFAULT_255_2_778
10
4.0081693
20
38.2698055
40
0.2000941
50
270.0269863
51
0.001683
0
ARC
8
DEFAULT_255_2_778
10
4.0084465
20
39.1697944
40
0.1998171
50
359.947541
51
90.052459
0
ARC
8
DEFAULT_255_2_778
10
2.6083725
20
39.1696025
40
0.2000089
50
90.0025526
51
179.9974415
0
ARC
8
DEFAULT_255_2_778
10
4.0082963
20
39.1696513
40
0.7000602
50
31.000236
51
90.0026817
0
ARC
8
DEFAULT_255_2_778
10
2.6084334
20
39.1695416
40
0.7001699
50
90.0057163
51
179.9942837
0
ARC
8
DEFAULT_255_2_778
10
2.6083054
20
38.2697532
40
0.7000418
50
179.9952377
51
270.0047623
0
ARC
8
DEFAULT_255_2_778
10
4.0081989
20
38.2700503
40
0.7003389
50
270.0052944
51
328.9773107
0
LINE
8
DEFAULT_255_2_778
10
4.1082636
20
38.2698114
11
4.1082636
21
39.1696114
0
LINE
8
DEFAULT_255_2_778
10
4.0082636
20
39.2696114
11
2.6083636
21
39.2696114
0
LINE
8
DEFAULT_255_2_778
10
2.5083636
20
39.1696114
11
2.5083636
21
38.2698114
0
LINE
8
DEFAULT_255_2_778
10
2.6083636
20
38.1698114
11
4.0082636
21
38.1698114
0
LINE
8
DEFAULT_255_2_778
10
4.1082636
20
38.2698114
11
4.1082636
21
38.2698114
0
LINE
8
DEFAULT_255_2_778
10
2.4083636
20
39.1696114
11
2.4083636
21
38.2698114
0
LINE
8
DEFAULT_255_2_778
10
2.6083636
20
38.0697114
11
4.0082636
21
38.0697114
0
LINE
8
DEFAULT_255_2_778
10
4.2082636
20
38.2698114
11
4.2082636
21
39.1696114
0
LINE
8
DEFAULT_255_2_778
10
4.0082636
20
39.3696114
11
2.6083636
21
39.3696114
0
LINE
8
DEFAULT_255_2_778
10
2.4083636
20
39.1696114
11
2.4083636
21
39.1696114
0
LINE
8
DEFAULT_255_2_778
10
4.0082636
20
39.8697114
11
2.6083636
21
39.8697114
0
LINE
8
DEFAULT_255_2_778
10
1.9082636
20
39.1696114
11
1.9082636
21
38.2698114
0
LINE
8
DEFAULT_255_2_778
10
2.6083636
20
37.5697114
11
4.0082636
21
37.5697114
0
ARC
8
DEFAULT_255_2_778
10
4.0083551
20
34.7698199
40
0.0999085
50
269.947492
51
0.0524794
0
ARC
8
DEFAULT_255_2_778
10
4.008355
20
35.6698029
40
0.0999086
50
359.9475612
51
90.0524507
0
ARC
8
DEFAULT_255_2_778
10
2.6082723
20
35.6698028
40
0.0999087
50
89.9476589
51
180.0524102
0
ARC
8
DEFAULT_255_2_778
10
2.6082719
20
34.7698198
40
0.0999084
50
179.9474634
51
270.0525484
0
ARC
8
DEFAULT_255_2_778
10
4.0084465
20
35.6698944
40
0.1998171
50
359.947541
51
90.052459
0
ARC
8
DEFAULT_255_2_778
10
2.6083725
20
35.6697025
40
0.2000089
50
90.0025526
51
179.9974415
0
ARC
8
DEFAULT_255_2_778
10
2.6083938
20
34.7698416
40
0.2000302
50
179.9800103
51
269.9913489
0
ARC
8
DEFAULT_255_2_778
10
4.0081693
20
34.7699055
40
0.2000941
50
270.0269863
51
0.001683
0
ARC
8
DEFAULT_255_2_778
10
4.0082963
20
35.6697513
40
0.7000602
50
31.000236
51
90.0026817
0
ARC
8
DEFAULT_255_2_778
10
2.6084334
20
35.6696416
40
0.7001699
50
90.0057163
51
179.9942837
0
ARC
8
DEFAULT_255_2_778
10
2.6083054
20
34.7698532
40
0.7000418
50
179.9952377
51
270.0047623
0
ARC
8
DEFAULT_255_2_778
10
4.0081989
20
34.7701503
40
0.7003389
50
270.0052944
51
328.9773107
0
LINE
8
DEFAULT_255_2_778
10
2.6083636
20
34.6699114
11
4.0082636
21
34.6699114
0
LINE
8
DEFAULT_255_2_778
10
4.1082636
20
34.7699114
11
4.1082636
21
35.6697114
0
LINE
8
DEFAULT_255_2_778
10
4.0082636
20
35.7697114
11
2.6083636
21
35.7697114
0
LINE
8
DEFAULT_255_2_778
10
2.5083636
20
35.6697114
11
2.5083636
21
34.7699114
0
LINE
8
DEFAULT_255_2_778
10
2.6083636
20
34.6699114
11
2.6083636
21
34.6699114
0
LINE
8
DEFAULT_255_2_778
10
4.2082636
20
34.7699114
11
4.2082636
21
35.6697114
0
LINE
8
DEFAULT_255_2_778
10
4.0082636
20
35.8697114
11
2.6083636
21
35.8697114
0
LINE
8
DEFAULT_255_2_778
10
2.4083636
20
35.6697114
11
2.4083636
21
34.7699114
0
LINE
8
DEFAULT_255_2_778
10
2.6083636
20
34.5698114
11
4.0082636
21
34.5698114
0
LINE
8
DEFAULT_255_2_778
10
4.2082636
20
34.7699114
11
4.2082636
21
34.7699114
0
LINE
8
DEFAULT_255_2_778
10
4.0082636
20
36.3698114
11
2.6083636
21
36.3698114
0
LINE
8
DEFAULT_255_2_778
10
1.9082636
20
35.6697114
11
1.9082636
21
34.7699114
0
LINE
8
DEFAULT_255_2_778
10
2.6083636
20
34.0698114
11
4.0082636
21
34.0698114
0
ARC
8
DEFAULT_255_2_778
10
2.6083938
20
31.2697416
40
0.2000302
50
179.9800103
51
269.9913489
0
ARC
8
DEFAULT_255_2_778
10
4.0081693
20
31.2698055
40
0.2000941
50
270.0269863
51
0.001683
0
ARC
8
DEFAULT_255_2_778
10
4.0084465
20
32.1697944
40
0.1998171
50
359.947541
51
90.052459
0
ARC
8
DEFAULT_255_2_778
10
2.6083725
20
32.1696025
40
0.2000089
50
90.0025526
51
179.9974415
0
ARC
8
DEFAULT_255_2_778
10
4.0083551
20
31.2697199
40
0.0999085
50
269.947492
51
0.0524794
0
ARC
8
DEFAULT_255_2_778
10
4.008355
20
32.1697029
40
0.0999086
50
359.9475612
51
90.0524507
0
ARC
8
DEFAULT_255_2_778
10
2.6082723
20
32.1697028
40
0.0999087
50
89.9476589
51
180.0524102
0
ARC
8
DEFAULT_255_2_778
10
2.6082719
20
31.2697198
40
0.0999084
50
179.9474634
51
270.0525484
0
ARC
8
DEFAULT_255_2_778
10
4.0082963
20
32.1696513
40
0.7000602
50
31.000236
51
90.0026817
0
ARC
8
DEFAULT_255_2_778
10
2.6084334
20
32.1695416
40
0.7001699
50
90.0057163
51
179.9942837
0
ARC
8
DEFAULT_255_2_778
10
2.6083054
20
31.2697532
40
0.7000418
50
179.9952377
51
270.0047623
0
ARC
8
DEFAULT_255_2_778
10
4.0081989
20
31.2700503
40
0.7003389
50
270.0052944
51
328.9773107
0
LINE
8
DEFAULT_255_2_778
10
2.4083636
20
32.1696114
11
2.4083636
21
31.2698114
0
LINE
8
DEFAULT_255_2_778
10
2.6083636
20
31.0697114
11
4.0082636
21
31.0697114
0
LINE
8
DEFAULT_255_2_778
10
4.2082636
20
31.2698114
11
4.2082636
21
32.1696114
0
LINE
8
DEFAULT_255_2_778
10
4.0082636
20
32.3696114
11
2.6083636
21
32.3696114
0
LINE
8
DEFAULT_255_2_778
10
2.4083636
20
32.1696114
11
2.4083636
21
32.1696114
0
LINE
8
DEFAULT_255_2_778
10
2.6083636
20
31.1698114
11
4.0082636
21
31.1698114
0
LINE
8
DEFAULT_255_2_778
10
4.1082636
20
31.2698114
11
4.1082636
21
32.1696114
0
LINE
8
DEFAULT_255_2_778
10
4.0082636
20
32.2696114
11
2.6083636
21
32.2696114
0
LINE
8
DEFAULT_255_2_778
10
2.5083636
20
32.1696114
11
2.5083636
21
31.2698114
0
LINE
8
DEFAULT_255_2_778
10
2.6083636
20
31.1698114
11
2.6083636
21
31.1698114
0
LINE
8
DEFAULT_255_2_778
10
4.0082636
20
32.8697114
11
2.6083636
21
32.8697114
0
LINE
8
DEFAULT_255_2_778
10
1.9082636
20
32.1696114
11
1.9082636
21
31.2698114
0
LINE
8
DEFAULT_255_2_778
10
2.6083636
20
30.5697114
11
4.0082636
21
30.5697114
0
ARC
8
DEFAULT_255_2_778
10
2.608272
20
28.669803
40
0.0999084
50
89.9474718
51
180.0525282
0
ARC
8
DEFAULT_255_2_778
10
2.6082719
20
27.7697197
40
0.0999084
50
179.9473944
51
270.052577
0
ARC
8
DEFAULT_255_2_778
10
4.0083552
20
27.7697198
40
0.0999084
50
269.9474634
51
0.0525484
0
ARC
8
DEFAULT_255_2_778
10
4.008355
20
28.6698028
40
0.0999086
50
359.9476101
51
90.0524305
0
ARC
8
DEFAULT_255_2_778
10
4.0084465
20
28.6695944
40
0.1998171
50
359.947541
51
90.052459
0
ARC
8
DEFAULT_255_2_778
10
2.6083725
20
28.6694025
40
0.2000089
50
90.0025526
51
179.9974415
0
ARC
8
DEFAULT_255_2_778
10
2.6083938
20
27.7695416
40
0.2000302
50
179.9800103
51
269.9913489
0
ARC
8
DEFAULT_255_2_778
10
4.0081693
20
27.7696055
40
0.2000941
50
270.0269863
51
0.001683
0
ARC
8
DEFAULT_255_2_778
10
4.0082963
20
28.6694513
40
0.7000602
50
31.000236
51
90.0026817
0
ARC
8
DEFAULT_255_2_778
10
2.6084334
20
28.6693416
40
0.7001699
50
90.0057163
51
179.9942837
0
ARC
8
DEFAULT_255_2_778
10
2.6083054
20
27.7695532
40
0.7000418
50
179.9952377
51
270.0047623
0
ARC
8
DEFAULT_255_2_778
10
4.0081989
20
27.7698503
40
0.7003389
50
270.0052944
51
328.9773107
0
LINE
8
DEFAULT_255_2_778
10
4.0082636
20
28.7697114
11
2.6083636
21
28.7697114
0
LINE
8
DEFAULT_255_2_778
10
2.5083636
20
28.6697114
11
2.5083636
21
27.7698114
0
LINE
8
DEFAULT_255_2_778
10
2.6083636
20
27.6698114
11
4.0082636
21
27.6698114
0
LINE
8
DEFAULT_255_2_778
10
4.1082636
20
27.7698114
11
4.1082636
21
28.6697114
0
LINE
8
DEFAULT_255_2_778
10
4.0082636
20
28.7697114
11
4.0082636
21
28.7697114
0
LINE
8
DEFAULT_255_2_778
10
4.2082636
20
27.7696114
11
4.2082636
21
28.6694114
0
LINE
8
DEFAULT_255_2_778
10
4.0082636
20
28.8694114
11
2.6083636
21
28.8694114
0
LINE
8
DEFAULT_255_2_778
10
2.4083636
20
28.6694114
11
2.4083636
21
27.7696114
0
LINE
8
DEFAULT_255_2_778
10
2.6083636
20
27.5695114
11
4.0082636
21
27.5695114
0
LINE
8
DEFAULT_255_2_778
10
4.2082636
20
27.7696114
11
4.2082636
21
27.7696114
0
LINE
8
DEFAULT_255_2_778
10
4.0082636
20
29.3695114
11
2.6083636
21
29.3695114
0
LINE
8
DEFAULT_255_2_778
10
1.9082636
20
28.6694114
11
1.9082636
21
27.7696114
0
LINE
8
DEFAULT_255_2_778
10
2.6083636
20
27.0695114
11
4.0082636
21
27.0695114
0
ARC
8
DEFAULT_255_2_778
10
4.008355
20
21.6697029
40
0.0999086
50
359.9475612
51
90.0524507
0
ARC
8
DEFAULT_255_2_778
10
2.6082723
20
21.6697028
40
0.0999087
50
89.9476589
51
180.0524102
0
ARC
8
DEFAULT_255_2_778
10
2.6082719
20
20.7697198
40
0.0999084
50
179.9474634
51
270.0525484
0
ARC
8
DEFAULT_255_2_778
10
4.0083551
20
20.7697199
40
0.0999085
50
269.947492
51
0.0524794
0
ARC
8
DEFAULT_255_2_778
10
4.0084465
20
21.6697944
40
0.1998171
50
359.947541
51
90.052459
0
ARC
8
DEFAULT_255_2_778
10
2.6083725
20
21.6696025
40
0.2000089
50
90.0025526
51
179.9974415
0
ARC
8
DEFAULT_255_2_778
10
2.6083938
20
20.7697416
40
0.2000302
50
179.9800103
51
269.9913489
0
ARC
8
DEFAULT_255_2_778
10
4.0081693
20
20.7698055
40
0.2000941
50
270.0269863
51
0.001683
0
ARC
8
DEFAULT_255_2_778
10
4.0082963
20
21.6696513
40
0.7000602
50
31.000236
51
90.0026817
0
ARC
8
DEFAULT_255_2_778
10
2.6084334
20
21.6695416
40
0.7001699
50
90.0057163
51
179.9942837
0
ARC
8
DEFAULT_255_2_778
10
2.6083054
20
20.7697532
40
0.7000418
50
179.9952377
51
270.0047623
0
ARC
8
DEFAULT_255_2_778
10
4.0081989
20
20.7700503
40
0.7003389
50
270.0052944
51
328.9773107
0
LINE
8
DEFAULT_255_2_778
10
4.1082636
20
20.7698114
11
4.1082636
21
21.6696114
0
LINE
8
DEFAULT_255_2_778
10
4.0082636
20
21.7696114
11
2.6083636
21
21.7696114
0
LINE
8
DEFAULT_255_2_778
10
2.5083636
20
21.6696114
11
2.5083636
21
20.7698114
0
LINE
8
DEFAULT_255_2_778
10
2.6083636
20
20.6698114
11
4.0082636
21
20.6698114
0
LINE
8
DEFAULT_255_2_778
10
4.1082636
20
20.7698114
11
4.1082636
21
20.7698114
0
LINE
8
DEFAULT_255_2_778
10
4.2082636
20
20.7698114
11
4.2082636
21
21.6696114
0
LINE
8
DEFAULT_255_2_778
10
4.0082636
20
21.8696114
11
2.6083636
21
21.8696114
0
LINE
8
DEFAULT_255_2_778
10
2.4083636
20
21.6696114
11
2.4083636
21
20.7698114
0
LINE
8
DEFAULT_255_2_778
10
2.6083636
20
20.5697114
11
4.0082636
21
20.5697114
0
LINE
8
DEFAULT_255_2_778
10
4.2082636
20
20.7698114
11
4.2082636
21
20.7698114
0
LINE
8
DEFAULT_255_2_778
10
4.0082636
20
22.3697114
11
2.6083636
21
22.3697114
0
LINE
8
DEFAULT_255_2_778
10
1.9082636
20
21.6696114
11
1.9082636
21
20.7698114
0
LINE
8
DEFAULT_255_2_778
10
2.6083636
20
20.0697114
11
4.0082636
21
20.0697114
0
ARC
8
DEFAULT_255_2_778
10
2.6082723
20
18.1698028
40
0.0999087
50
89.9476589
51
180.0524102
0
ARC
8
DEFAULT_255_2_778
10
2.6082719
20
17.2698198
40
0.0999084
50
179.9474634
51
270.0525484
0
ARC
8
DEFAULT_255_2_778
10
4.0083551
20
17.2698199
40
0.0999085
50
269.947492
51
0.0524794
0
ARC
8
DEFAULT_255_2_778
10
4.008355
20
18.1698029
40
0.0999086
50
359.9475612
51
90.0524507
0
ARC
8
DEFAULT_255_2_778
10
2.6083938
20
17.2698416
40
0.2000302
50
179.9800103
51
269.9913489
0
ARC
8
DEFAULT_255_2_778
10
4.0081693
20
17.2699055
40
0.2000941
50
270.0269863
51
0.001683
0
ARC
8
DEFAULT_255_2_778
10
4.0084465
20
18.1698944
40
0.1998171
50
359.947541
51
90.052459
0
ARC
8
DEFAULT_255_2_778
10
2.6083725
20
18.1697025
40
0.2000089
50
90.0025526
51
179.9974415
0
ARC
8
DEFAULT_255_2_778
10
4.0082963
20
18.1697513
40
0.7000602
50
31.000236
51
90.0026817
0
ARC
8
DEFAULT_255_2_778
10
2.6084334
20
18.1696416
40
0.7001699
50
90.0057163
51
179.9942837
0
ARC
8
DEFAULT_255_2_778
10
2.6083054
20
17.2698532
40
0.7000418
50
179.9952377
51
270.0047623
0
ARC
8
DEFAULT_255_2_778
10
4.0081989
20
17.2701503
40
0.7003389
50
270.0052944
51
328.9773107
0
LINE
8
DEFAULT_255_2_778
10
4.0082636
20
18.2697114
11
2.6083636
21
18.2697114
0
LINE
8
DEFAULT_255_2_778
10
2.5083636
20
18.1697114
11
2.5083636
21
17.2699114
0
LINE
8
DEFAULT_255_2_778
10
2.6083636
20
17.1699114
11
4.0082636
21
17.1699114
0
LINE
8
DEFAULT_255_2_778
10
4.1082636
20
17.2699114
11
4.1082636
21
18.1697114
0
LINE
8
DEFAULT_255_2_778
10
4.0082636
20
18.2697114
11
4.0082636
21
18.2697114
0
LINE
8
DEFAULT_255_2_778
10
2.4083636
20
18.1697114
11
2.4083636
21
17.2699114
0
LINE
8
DEFAULT_255_2_778
10
2.6083636
20
17.0698114
11
4.0082636
21
17.0698114
0
LINE
8
DEFAULT_255_2_778
10
4.2082636
20
17.2699114
11
4.2082636
21
18.1697114
0
LINE
8
DEFAULT_255_2_778
10
4.0082636
20
18.3697114
11
2.6083636
21
18.3697114
0
LINE
8
DEFAULT_255_2_778
10
2.4083636
20
18.1697114
11
2.4083636
21
18.1697114
0
LINE
8
DEFAULT_255_2_778
10
4.0082636
20
18.8698114
11
2.6083636
21
18.8698114
0
LINE
8
DEFAULT_255_2_778
10
1.9082636
20
18.1697114
11
1.9082636
21
17.2699114
0
LINE
8
DEFAULT_255_2_778
10
2.6083636
20
16.5698114
11
4.0082636
21
16.5698114
0
ARC
8
DEFAULT_255_2_778
10
2.6082723
20
14.6699028
40
0.0999087
50
89.9476589
51
180.0524102
0
ARC
8
DEFAULT_255_2_778
10
2.6082719
20
13.7699198
40
0.0999084
50
179.9474634
51
270.0525484
0
ARC
8
DEFAULT_255_2_778
10
4.0083551
20
13.7699199
40
0.0999085
50
269.947492
51
0.0524794
0
ARC
8
DEFAULT_255_2_778
10
4.008355
20
14.6699029
40
0.0999086
50
359.9475612
51
90.0524507
0
ARC
8
DEFAULT_255_2_778
10
4.0082547
20
14.6698026
40
0.2000089
50
0.0025281
51
89.9974516
0
ARC
8
DEFAULT_255_2_778
10
2.6083725
20
14.6698025
40
0.2000089
50
90.0025526
51
179.9974415
0
ARC
8
DEFAULT_255_2_778
10
2.6082659
20
13.7698138
40
0.1999024
50
179.9433584
51
270.0280008
0
ARC
8
DEFAULT_255_2_778
10
4.0081693
20
13.7700055
40
0.2000941
50
270.0269863
51
0.001683
0
ARC
8
DEFAULT_255_2_778
10
4.0082963
20
14.6698513
40
0.7000602
50
31.000236
51
90.0026817
0
ARC
8
DEFAULT_255_2_778
10
2.6084334
20
14.6697416
40
0.7001699
50
90.0057163
51
179.9942837
0
ARC
8
DEFAULT_255_2_778
10
2.6083054
20
13.7699532
40
0.7000418
50
179.9952377
51
270.0047623
0
ARC
8
DEFAULT_255_2_778
10
4.0081989
20
13.7702503
40
0.7003389
50
270.0052944
51
328.9773107
0
LINE
8
DEFAULT_255_2_778
10
4.0082636
20
14.7698114
11
2.6083636
21
14.7698114
0
LINE
8
DEFAULT_255_2_778
10
2.5083636
20
14.6698114
11
2.5083636
21
13.7700114
0
LINE
8
DEFAULT_255_2_778
10
2.6083636
20
13.6700114
11
4.0082636
21
13.6700114
0
LINE
8
DEFAULT_255_2_778
10
4.1082636
20
13.7700114
11
4.1082636
21
14.6698114
0
LINE
8
DEFAULT_255_2_778
10
4.0082636
20
14.7698114
11
4.0082636
21
14.7698114
0
LINE
8
DEFAULT_255_2_778
10
4.2082636
20
13.7700114
11
4.2082636
21
14.6698114
0
LINE
8
DEFAULT_255_2_778
10
4.0082636
20
14.8698114
11
2.6083636
21
14.8698114
0
LINE
8
DEFAULT_255_2_778
10
2.4083636
20
14.6698114
11
2.4083636
21
13.7700114
0
LINE
8
DEFAULT_255_2_778
10
2.6083636
20
13.5699114
11
4.0082636
21
13.5699114
0
LINE
8
DEFAULT_255_2_778
10
4.2082636
20
13.7700114
11
4.2082636
21
13.7700114
0
LINE
8
DEFAULT_255_2_778
10
4.0082636
20
15.3699114
11
2.6083636
21
15.3699114
0
LINE
8
DEFAULT_255_2_778
10
1.9082636
20
14.6698114
11
1.9082636
21
13.7700114
0
LINE
8
DEFAULT_255_2_778
10
2.6083636
20
13.0699114
11
4.0082636
21
13.0699114
0
ARC
8
DEFAULT_255_2_778
10
4.0082963
20
11.1696513
40
0.7000602
50
31.000236
51
90.0026817
0
ARC
8
DEFAULT_255_2_778
10
2.6084334
20
11.1695416
40
0.7001699
50
90.0057163
51
179.9942837
0
ARC
8
DEFAULT_255_2_778
10
2.6083054
20
10.2697532
40
0.7000418
50
179.9952377
51
270.0047623
0
ARC
8
DEFAULT_255_2_778
10
4.0081989
20
10.2700503
40
0.7003389
50
270.0052944
51
328.9773107
0
ARC
8
DEFAULT_255_2_778
10
2.6082719
20
10.2697198
40
0.0999084
50
179.9474634
51
270.0525484
0
ARC
8
DEFAULT_255_2_778
10
4.0077761
20
10.2702989
40
0.1004887
50
270.2779537
51
359.7220581
0
ARC
8
DEFAULT_255_2_778
10
4.0077113
20
11.1690592
40
0.1005538
50
0.3146753
51
89.6853247
0
ARC
8
DEFAULT_255_2_778
10
2.6082723
20
11.1697028
40
0.0999087
50
89.9476589
51
180.0524102
0
ARC
8
DEFAULT_255_2_778
10
2.6082659
20
10.2696138
40
0.1999024
50
179.9433584
51
270.0280008
0
ARC
8
DEFAULT_255_2_778
10
4.0081693
20
10.2698055
40
0.2000941
50
270.0269863
51
0.001683
0
ARC
8
DEFAULT_255_2_778
10
4.0082547
20
11.1696026
40
0.2000089
50
0.0025281
51
89.9974516
0
ARC
8
DEFAULT_255_2_778
10
2.6083725
20
11.1696025
40
0.2000089
50
90.0025526
51
179.9974415
0
LINE
8
DEFAULT_255_2_778
10
4.0082636
20
11.8697114
11
2.6083636
21
11.8697114
0
LINE
8
DEFAULT_255_2_778
10
1.9082636
20
11.1696114
11
1.9082636
21
10.2698114
0
LINE
8
DEFAULT_255_2_778
10
2.6083636
20
9.5697114
11
4.0082636
21
9.5697114
0
LINE
8
DEFAULT_255_2_778
10
2.5083636
20
11.1696114
11
2.5083636
21
10.2698114
0
LINE
8
DEFAULT_255_2_778
10
2.6083636
20
10.1698114
11
4.0082636
21
10.1698114
0
LINE
8
DEFAULT_255_2_778
10
4.1082636
20
10.2698114
11
4.1082636
21
11.1696114
0
LINE
8
DEFAULT_255_2_778
10
4.0082636
20
11.2696114
11
2.6083636
21
11.2696114
0
LINE
8
DEFAULT_255_2_778
10
2.5083636
20
11.1696114
11
2.5083636
21
11.1696114
0
LINE
8
DEFAULT_255_2_778
10
2.4083636
20
11.1696114
11
2.4083636
21
10.2698114
0
LINE
8
DEFAULT_255_2_778
10
2.6083636
20
10.0697114
11
4.0082636
21
10.0697114
0
LINE
8
DEFAULT_255_2_778
10
4.2082636
20
10.2698114
11
4.2082636
21
11.1696114
0
LINE
8
DEFAULT_255_2_778
10
4.0082636
20
11.3696114
11
2.6083636
21
11.3696114
0
LINE
8
DEFAULT_255_2_778
10
2.4083636
20
11.1696114
11
2.4083636
21
11.1696114
0
LINE
8
DEFAULT_255_2_778
10
5.8083084
20
41.0199177
11
5.8083084
21
43.4199177
0
LINE
8
DEFAULT_255_2_778
10
5.8083084
20
43.4199177
11
6.3084084
21
42.9198177
0
LINE
8
DEFAULT_255_2_778
10
6.3084084
20
42.9198177
11
6.3084084
21
41.5199177
0
LINE
8
DEFAULT_255_2_778
10
6.3084084
20
41.5199177
11
9.4085084
21
41.5199177
0
LINE
8
DEFAULT_255_2_778
10
9.4085084
20
42.9198177
11
6.3084084
21
42.9198177
0
LINE
8
DEFAULT_255_2_778
10
5.8083084
20
43.4199177
11
9.9083084
21
43.4199177
0
LINE
8
DEFAULT_255_2_778
10
9.9083084
20
43.4199177
11
9.4082084
21
42.9198177
0
LINE
8
DEFAULT_255_2_778
10
9.4082084
20
42.9198177
11
9.4082084
21
41.5199177
0
LINE
8
DEFAULT_255_2_778
10
9.4082084
20
41.5199177
11
9.9083084
21
41.0199177
0
LINE
8
DEFAULT_255_2_778
10
9.9083084
20
41.0199177
11
5.8083084
21
41.0199177
0
LINE
8
DEFAULT_255_2_778
10
5.8083084
20
41.0199177
11
6.3084084
21
41.5199177
0
LINE
8
DEFAULT_255_2_778
10
9.9083084
20
43.4199177
11
9.9083084
21
41.0199177
0
LINE
8
DEFAULT_255_2_778
10
6.3083761
20
39.4199177
11
6.3083761
21
38.0200177
0
LINE
8
DEFAULT_255_2_778
10
5.8082761
20
37.5200177
11
5.8082761
21
39.9200177
0
LINE
8
DEFAULT_255_2_778
10
6.3083761
20
38.5886177
11
9.4084761
21
38.5886177
0
LINE
8
DEFAULT_255_2_778
10
9.9084761
20
39.9200177
11
9.9084761
21
37.5200177
0
LINE
8
DEFAULT_255_2_778
10
9.9084761
20
37.5200177
11
9.4084761
21
38.0200177
0
LINE
8
DEFAULT_255_2_778
10
9.4084761
20
38.0200177
11
9.4084761
21
39.4199177
0
LINE
8
DEFAULT_255_2_778
10
9.4084761
20
39.4199177
11
6.3083761
21
39.4199177
0
LINE
8
DEFAULT_255_2_778
10
6.3083761
20
39.4199177
11
5.8082761
21
39.9200177
0
LINE
8
DEFAULT_255_2_778
10
5.8082761
20
39.9200177
11
9.9082761
21
39.9200177
0
LINE
8
DEFAULT_255_2_778
10
9.9082761
20
39.9200177
11
9.4081761
21
39.4199177
0
LINE
8
DEFAULT_255_2_778
10
9.9082761
20
37.5200177
11
5.8082761
21
37.5200177
0
LINE
8
DEFAULT_255_2_778
10
5.8082761
20
37.5200177
11
6.3083761
21
38.0200177
0
LINE
8
DEFAULT_255_2_778
10
6.3083761
20
38.0200177
11
9.4084761
21
38.0200177
0
LINE
8
DEFAULT_255_2_778
10
9.9083084
20
34.0198177
11
5.8083084
21
34.0198177
0
LINE
8
DEFAULT_255_2_778
10
6.3084084
20
34.5198177
11
5.8083084
21
34.0198177
0
LINE
8
DEFAULT_255_2_778
10
5.8083084
20
34.0198177
11
5.8083084
21
36.4198177
0
LINE
8
DEFAULT_255_2_778
10
5.8083084
20
36.4198177
11
6.3084084
21
35.9197177
0
LINE
8
DEFAULT_255_2_778
10
9.9083084
20
36.4198177
11
9.9083084
21
34.0198177
0
LINE
8
DEFAULT_255_2_778
10
9.9083084
20
34.0198177
11
9.4082084
21
34.5198177
0
LINE
8
DEFAULT_255_2_778
10
9.4082084
20
34.5198177
11
9.4082084
21
35.9197177
0
LINE
8
DEFAULT_255_2_778
10
5.8083084
20
36.4198177
11
9.9083084
21
36.4198177
0
LINE
8
DEFAULT_255_2_778
10
9.9083084
20
36.4198177
11
9.4082084
21
35.9197177
0
LINE
8
DEFAULT_255_2_778
10
9.4082084
20
35.9197177
11
6.3084084
21
35.9197177
0
LINE
8
DEFAULT_255_2_778
10
6.3084084
20
35.9197177
11
6.3084084
21
34.5198177
0
LINE
8
DEFAULT_255_2_778
10
6.3084084
20
34.5198177
11
9.4085084
21
34.5198177
0
LINE
8
DEFAULT_255_2_778
10
5.8083084
20
30.5199177
11
5.8083084
21
32.9199177
0
LINE
8
DEFAULT_255_2_778
10
9.9083084
20
32.9199177
11
9.9083084
21
30.5199177
0
LINE
8
DEFAULT_255_2_778
10
9.9083084
20
30.5199177
11
9.4082084
21
31.0199177
0
LINE
8
DEFAULT_255_2_778
10
9.4082084
20
31.0199177
11
9.4082084
21
32.4198177
0
LINE
8
DEFAULT_255_2_778
10
9.4082084
20
32.4198177
11
6.3084084
21
32.4198177
0
LINE
8
DEFAULT_255_2_778
10
6.3084084
20
32.4198177
11
6.3084084
21
31.0199177
0
LINE
8
DEFAULT_255_2_778
10
6.3084084
20
32.4198177
11
5.8083084
21
32.9199177
0
LINE
8
DEFAULT_255_2_778
10
5.8083084
20
32.9199177
11
9.9083084
21
32.9199177
0
LINE
8
DEFAULT_255_2_778
10
9.9083084
20
32.9199177
11
9.4082084
21
32.4198177
0
LINE
8
DEFAULT_255_2_778
10
9.9083084
20
30.5199177
11
5.8083084
21
30.5199177
0
LINE
8
DEFAULT_255_2_778
10
5.8083084
20
30.5199177
11
6.3084084
21
31.0199177
0
LINE
8
DEFAULT_255_2_778
10
6.3084084
20
31.0199177
11
9.4085084
21
31.0199177
0
LINE
8
DEFAULT_255_2_778
10
9.9083084
20
29.4200177
11
9.9083084
21
27.0200177
0
LINE
8
DEFAULT_255_2_778
10
9.9083084
20
27.0200177
11
9.4082084
21
27.5200177
0
LINE
8
DEFAULT_255_2_778
10
9.4082084
20
27.5200177
11
9.4082084
21
28.9199177
0
LINE
8
DEFAULT_255_2_778
10
9.4082084
20
28.9199177
11
6.3084084
21
28.9199177
0
LINE
8
DEFAULT_255_2_778
10
5.8083084
20
27.0200177
11
5.8083084
21
29.4200177
0
LINE
8
DEFAULT_255_2_778
10
9.9083084
20
27.0200177
11
5.8083084
21
27.0200177
0
LINE
8
DEFAULT_255_2_778
10
5.8083084
20
27.0200177
11
6.3084084
21
27.5200177
0
LINE
8
DEFAULT_255_2_778
10
6.3084084
20
27.5200177
11
6.3084084
21
28.9199177
0
LINE
8
DEFAULT_255_2_778
10
6.3084084
20
28.9199177
11
5.8083084
21
29.4200177
0
LINE
8
DEFAULT_255_2_778
10
5.8083084
20
29.4200177
11
9.9083084
21
29.4200177
0
LINE
8
DEFAULT_255_2_778
10
9.9083084
20
29.4200177
11
9.4082084
21
28.9199177
0
LINE
8
DEFAULT_255_2_778
10
6.3081084
20
27.5200177
11
9.4082084
21
27.5200177
0
LINE
8
DEFAULT_255_2_778
10
9.9083084
20
25.9198177
11
9.9083084
21
23.5198177
0
LINE
8
DEFAULT_255_2_778
10
9.9083084
20
23.5198177
11
9.4082084
21
24.0198177
0
LINE
8
DEFAULT_255_2_778
10
9.4082084
20
24.0198177
11
9.4082084
21
25.4197177
0
LINE
8
DEFAULT_255_2_778
10
9.4082084
20
25.4197177
11
6.3084084
21
25.4197177
0
LINE
8
DEFAULT_255_2_778
10
6.3084084
20
25.4197177
11
6.3084084
21
24.0198177
0
LINE
8
DEFAULT_255_2_778
10
6.3084084
20
25.4197177
11
5.8083084
21
25.9198177
0
LINE
8
DEFAULT_255_2_778
10
5.8083084
20
25.9198177
11
9.9083084
21
25.9198177
0
LINE
8
DEFAULT_255_2_778
10
9.9083084
20
25.9198177
11
9.4082084
21
25.4197177
0
LINE
8
DEFAULT_255_2_778
10
9.9083084
20
23.5198177
11
5.8083084
21
23.5198177
0
LINE
8
DEFAULT_255_2_778
10
5.8083084
20
23.5198177
11
6.3084084
21
24.0198177
0
LINE
8
DEFAULT_255_2_778
10
6.3084084
20
24.0198177
11
9.4085084
21
24.0198177
0
LINE
8
DEFAULT_255_2_778
10
5.8086084
20
23.5198177
11
5.8086084
21
25.9198177
0
LINE
8
DEFAULT_255_2_778
10
6.3083761
20
21.9198177
11
6.3083761
21
20.5199177
0
LINE
8
DEFAULT_255_2_778
10
5.8082761
20
20.0199177
11
5.8082761
21
22.4199177
0
LINE
8
DEFAULT_255_2_778
10
9.9082761
20
20.0199177
11
5.8082761
21
20.0199177
0
LINE
8
DEFAULT_255_2_778
10
5.8082761
20
20.0199177
11
6.3083761
21
20.5199177
0
LINE
8
DEFAULT_255_2_778
10
6.3083761
20
20.5199177
11
9.4084761
21
20.5199177
0
LINE
8
DEFAULT_255_2_778
10
9.9084761
20
22.4199177
11
9.9084761
21
20.0199177
0
LINE
8
DEFAULT_255_2_778
10
9.9084761
20
20.0199177
11
9.4084761
21
20.5199177
0
LINE
8
DEFAULT_255_2_778
10
9.4084761
20
20.5199177
11
9.4084761
21
21.9198177
0
LINE
8
DEFAULT_255_2_778
10
9.4084761
20
21.9198177
11
6.3083761
21
21.9198177
0
LINE
8
DEFAULT_255_2_778
10
6.3083761
20
21.9198177
11
5.8082761
21
22.4199177
0
LINE
8
DEFAULT_255_2_778
10
5.8082761
20
22.4199177
11
9.9082761
21
22.4199177
0
LINE
8
DEFAULT_255_2_778
10
9.9082761
20
22.4199177
11
9.4081761
21
21.9198177
0
LINE
8
DEFAULT_255_2_778
10
9.9083084
20
16.5200177
11
5.8083084
21
16.5200177
0
LINE
8
DEFAULT_255_2_778
10
9.4082084
20
18.4199177
11
6.3084084
21
18.4199177
0
LINE
8
DEFAULT_255_2_778
10
6.3084084
20
18.4199177
11
5.8083084
21
18.9200177
0
LINE
8
DEFAULT_255_2_778
10
5.8083084
20
18.9200177
11
5.8083084
21
16.5200177
0
LINE
8
DEFAULT_255_2_778
10
5.8083084
20
16.5200177
11
6.3084084
21
17.0200177
0
LINE
8
DEFAULT_255_2_778
10
9.9083084
20
18.9200177
11
9.9083084
21
16.5200177
0
LINE
8
DEFAULT_255_2_778
10
9.9083084
20
16.5200177
11
9.4082084
21
17.0200177
0
LINE
8
DEFAULT_255_2_778
10
9.4082084
20
17.0200177
11
9.4082084
21
18.4199177
0
LINE
8
DEFAULT_255_2_778
10
9.4082084
20
18.4199177
11
9.9083084
21
18.9200177
0
LINE
8
DEFAULT_255_2_778
10
9.9083084
20
18.9200177
11
5.8083084
21
18.9200177
0
LINE
8
DEFAULT_255_2_778
10
6.3084084
20
18.4199177
11
6.3084084
21
17.0200177
0
LINE
8
DEFAULT_255_2_778
10
6.3084084
20
17.0200177
11
9.4085084
21
17.0200177
0
LINE
8
DEFAULT_255_2_778
10
5.8082761
20
13.0199177
11
5.8082761
21
15.4199177
0
LINE
8
DEFAULT_255_2_778
10
5.8082761
20
15.4199177
11
9.9082761
21
15.4199177
0
LINE
8
DEFAULT_255_2_778
10
9.9082761
20
15.4199177
11
9.4081761
21
14.9198177
0
LINE
8
DEFAULT_255_2_778
10
9.4081761
20
14.9198177
11
6.3083761
21
14.9198177
0
LINE
8
DEFAULT_255_2_778
10
6.3083761
20
14.9198177
11
5.8082761
21
15.4199177
0
LINE
8
DEFAULT_255_2_778
10
9.9082761
20
13.0199177
11
5.8082761
21
13.0199177
0
LINE
8
DEFAULT_255_2_778
10
5.8082761
20
13.0199177
11
6.3083761
21
13.5199177
0
LINE
8
DEFAULT_255_2_778
10
6.3083761
20
13.5199177
11
9.4084761
21
13.5199177
0
LINE
8
DEFAULT_255_2_778
10
9.4084761
20
13.5199177
11
9.9084761
21
13.0199177
0
LINE
8
DEFAULT_255_2_778
10
9.9084761
20
13.0199177
11
9.9084761
21
15.4199177
0
LINE
8
DEFAULT_255_2_778
10
9.4084761
20
13.5199177
11
9.4084761
21
14.9198177
0
LINE
8
DEFAULT_255_2_778
10
6.3083761
20
14.9198177
11
6.3083761
21
13.5199177
0
LINE
8
DEFAULT_255_2_778
10
9.9081761
20
11.9200177
11
9.9081761
21
9.5200177
0
LINE
8
DEFAULT_255_2_778
10
9.9081761
20
9.5200177
11
9.4081761
21
10.0200177
0
LINE
8
DEFAULT_255_2_778
10
9.4081761
20
10.0200177
11
9.4081761
21
11.4199177
0
LINE
8
DEFAULT_255_2_778
10
9.4081761
20
11.4199177
11
6.3082761
21
11.4199177
0
LINE
8
DEFAULT_255_2_778
10
6.3082761
20
11.4199177
11
5.8082761
21
11.9200177
0
LINE
8
DEFAULT_255_2_778
10
5.8082761
20
11.9200177
11
9.9081761
21
11.9200177
0
LINE
8
DEFAULT_255_2_778
10
9.9081761
20
11.9200177
11
9.4081761
21
11.4199177
0
LINE
8
DEFAULT_255_2_778
10
6.3080761
20
11.4199177
11
6.3080761
21
10.0200177
0
LINE
8
DEFAULT_255_2_778
10
5.8079761
20
9.5200177
11
5.8079761
21
11.9200177
0
LINE
8
DEFAULT_255_2_778
10
9.9079761
20
9.5200177
11
5.8082761
21
9.5200177
0
LINE
8
DEFAULT_255_2_778
10
5.8082761
20
9.5200177
11
6.3082761
21
10.0200177
0
LINE
8
DEFAULT_255_2_778
10
6.3082761
20
10.0200177
11
9.4083761
21
10.0200177
0
LINE
8
DEFAULT_255_2_778
10
6.3083761
20
6.5200177
11
9.4084761
21
6.5200177
0
LINE
8
DEFAULT_255_2_778
10
9.4084761
20
6.5200177
11
9.9084761
21
6.0200177
0
LINE
8
DEFAULT_255_2_778
10
9.9084761
20
6.0200177
11
9.9084761
21
8.4200177
0
LINE
8
DEFAULT_255_2_778
10
9.4084761
20
6.5200177
11
9.4084761
21
7.9199177
0
LINE
8
DEFAULT_255_2_778
10
5.8085761
20
6.0200177
11
5.8085761
21
8.4200177
0
LINE
8
DEFAULT_255_2_778
10
9.9084761
20
6.0200177
11
5.8082761
21
6.0200177
0
LINE
8
DEFAULT_255_2_778
10
5.8082761
20
6.0200177
11
6.3083761
21
6.5200177
0
LINE
8
DEFAULT_255_2_778
10
6.3083761
20
6.5200177
11
6.3083761
21
7.9199177
0
LINE
8
DEFAULT_255_2_778
10
6.3083761
20
7.9199177
11
5.8082761
21
8.4200177
0
LINE
8
DEFAULT_255_2_778
10
5.8082761
20
8.4200177
11
9.9082761
21
8.4200177
0
LINE
8
DEFAULT_255_2_778
10
9.9082761
20
8.4200177
11
9.4081761
21
7.9199177
0
LINE
8
DEFAULT_255_2_778
10
9.4081761
20
7.9199177
11
6.3083761
21
7.9199177
0
ARC
8
DEFAULT_255_2_778
10
1.9582732
20
1.4697581
40
1.6999406
50
180.0012956
51
224.9999493
0
ARC
8
DEFAULT_255_2_778
10
1.9583433
20
1.4699345
40
1.7001149
50
225.0024839
51
269.9962718
0
ARC
8
DEFAULT_255_2_778
10
25.5582942
20
1.4697602
40
1.6999406
50
270.0012956
51
314.9999493
0
ARC
8
DEFAULT_255_2_778
10
25.5582921
20
1.4697581
40
1.6999406
50
315.0000507
51
359.9987044
0
ARC
8
DEFAULT_255_2_778
10
1.958447
20
83.0698092
40
1.7001143
50
135.0024747
51
179.9962776
0
ARC
8
DEFAULT_255_2_778
10
1.9583433
20
83.0697045
40
1.700115
50
90.0037291
51
134.997511
0
ARC
8
DEFAULT_255_2_778
10
25.5582827
20
83.0705756
40
1.6992441
50
44.9903231
51
90.0084321
0
ARC
8
DEFAULT_255_2_778
10
25.5569805
20
83.0693206
40
1.7010523
50
0.0201775
51
44.9892071
0
LINE
8
DEFAULT_255_2_778
10
22.0084327
20
74.2698197
11
25.0085327
21
74.2698197
0
LINE
8
DEFAULT_255_2_778
10
25.0085327
20
74.2698197
11
22.0084327
21
69.2697197
0
LINE
8
DEFAULT_255_2_778
10
22.0084327
20
69.2697197
11
22.0084327
21
74.2698197
0
LINE
8
DEFAULT_255_2_778
10
15.7584327
20
14.2697197
11
15.7084327
21
14.2697197
0
LINE
8
DEFAULT_255_2_778
10
15.7584327
20
15.2696197
11
15.7084327
21
15.2696197
0
LINE
8
DEFAULT_255_2_778
10
15.7584327
20
25.9696197
11
15.7084327
21
25.9696197
0
LINE
8
DEFAULT_255_2_778
10
15.7584327
20
27.6695197
11
15.7084327
21
27.6695197
0
LINE
8
DEFAULT_255_2_778
10
15.7084327
20
24.5694197
11
15.7584327
21
24.5694197
0
LINE
8
DEFAULT_255_2_778
10
15.7084327
20
30.8795197
11
15.7584327
21
30.8795197
0
LINE
8
DEFAULT_255_2_778
10
15.7584327
20
31.0795197
11
15.7084327
21
31.0795197
0
LINE
8
DEFAULT_255_2_778
10
11.6084327
20
43.9695197
11
15.7084327
21
43.9695197
0
LINE
8
DEFAULT_255_2_778
10
15.7084327
20
43.9695197
11
15.7084327
21
5.4694197
0
LINE
8
DEFAULT_255_2_778
10
15.7084327
20
5.4694197
11
11.6084327
21
5.4694197
0
LINE
8
DEFAULT_255_2_778
10
11.6084327
20
5.4694197
11
11.6084327
21
43.9697197
0
LINE
8
DEFAULT_255_2_778
10
11.6084327
20
43.9697197
11
4.6083327
21
43.9697197
0
LINE
8
DEFAULT_255_2_778
10
4.6083327
20
43.9697197
11
4.6083327
21
5.4697197
0
LINE
8
DEFAULT_255_2_778
10
4.6083327
20
5.4697197
11
11.6084327
21
5.4697197
0
LINE
8
DEFAULT_255_2_778
10
15.7584327
20
4.2870197
11
8.0585327
21
4.2198197
0
LINE
8
DEFAULT_255_2_778
10
8.0585327
20
4.2198197
11
8.0585327
21
4.1698197
0
LINE
8
DEFAULT_255_2_778
10
9.6584327
20
4.2338197
11
9.6584327
21
4.7699197
0
LINE
8
DEFAULT_255_2_778
10
14.9585327
20
43.9700197
11
14.9585327
21
45.2699197
0
LINE
8
DEFAULT_255_2_778
10
9.9585327
20
44.6698197
11
9.9585327
21
45.1098197
0
LINE
8
DEFAULT_255_2_778
10
9.9585327
20
45.1098197
11
7.9585327
21
45.1098197
0
LINE
8
DEFAULT_255_2_778
10
7.9585327
20
4.1698197
11
7.9585327
21
4.7696197
0
LINE
8
DEFAULT_255_2_778
10
7.9585327
20
44.6696197
11
7.9585327
21
45.2696197
0
LINE
8
DEFAULT_255_2_778
10
14.8585327
20
43.9697197
11
14.8585327
21
44.6698197
0
LINE
8
DEFAULT_255_2_778
10
14.8585327
20
44.6698197
11
7.9582327
21
44.6698197
0
LINE
8
DEFAULT_255_2_778
10
7.9582327
20
44.6698197
11
7.9582327
21
43.9697197
0
LINE
8
DEFAULT_255_2_778
10
7.9582327
20
5.4697197
11
7.9582327
21
4.7696197
0
LINE
8
DEFAULT_255_2_778
10
7.9582327
20
4.7696197
11
14.8583327
21
4.7696197
0
LINE
8
DEFAULT_255_2_778
10
14.8583327
20
4.7696197
11
14.8583327
21
5.4697197
0
LINE
8
DEFAULT_255_2_778
10
7.4584327
20
43.9697197
11
7.4584327
21
45.2696197
0
LINE
8
DEFAULT_255_2_778
10
7.4584327
20
45.2696197
11
15.7584327
21
45.2696197
0
LINE
8
DEFAULT_255_2_778
10
15.7584327
20
45.2696197
11
15.7584327
21
76.7699197
0
LINE
8
DEFAULT_255_2_778
10
15.7584327
20
76.7699197
11
15.7584327
21
4.1698197
0
LINE
8
DEFAULT_255_2_778
10
15.7584327
20
4.1698197
11
7.4584327
21
4.1698197
0
LINE
8
DEFAULT_255_2_778
10
7.4584327
20
4.1698197
11
7.4584327
21
5.4697197
0
LINE
8
DEFAULT_255_2_778
10
9.4584327
20
4.7696197
11
9.4584327
21
4.2320197
0
LINE
8
DEFAULT_255_2_778
10
7.4584327
20
-0.2259803
11
7.4584327
21
4.1698197
0
LINE
8
DEFAULT_255_2_778
10
1.9582327
20
-0.2301803
11
7.4584327
21
-0.2301803
0
LINE
8
DEFAULT_255_2_778
10
7.4584327
20
-0.2301803
11
7.4584327
21
-0.2301803
0
LINE
8
DEFAULT_255_2_778
10
7.4584327
20
-0.2301803
11
25.5583327
21
-0.2301803
0
LINE
8
DEFAULT_255_2_778
10
1.9582327
20
84.7698197
11
7.4581327
21
84.7698197
0
LINE
8
DEFAULT_255_2_778
10
7.4581327
20
84.7698197
11
7.4581327
21
76.7699197
0
LINE
8
DEFAULT_255_2_778
10
7.4581327
20
76.7699197
11
15.7581327
21
76.7699197
0
LINE
8
DEFAULT_255_2_778
10
15.7581327
20
76.7699197
11
7.4581327
21
76.7699197
0
LINE
8
DEFAULT_255_2_778
10
7.4581327
20
76.7699197
11
7.4581327
21
84.7698197
0
LINE
8
DEFAULT_255_2_778
10
7.4581327
20
84.7698197
11
25.5580327
21
84.7698197
0
LINE
8
DEFAULT_255_2_778
10
27.2580327
20
83.0699197
11
27.2580327
21
1.4697197
0
LINE
8
DEFAULT_255_2_778
10
27.2580327
20
1.4697197
11
27.2580327
21
1.4845197
0
LINE
8
DEFAULT_255_2_778
10
0.2583327
20
1.4845197
11
0.2583327
21
1.4697197
0
LINE
8
DEFAULT_255_2_778
10
0.2583327
20
1.4697197
11
0.2583327
21
83.0699197
0
LINE
8
DEFAULT_255_2_778
10
0.2583327
20
83.0699197
11
0.2583327
21
83.0550197
0
LINE
8
DEFAULT_255_2_778
10
26.1782327
20
83.0550197
11
26.1782327
21
83.0699197
0
ARC
8
DEFAULT_255_2_778
10
16.528992
20
11.9736895
40
1.5696665
50
318.2026205
51
323.8288009
0
ARC
8
DEFAULT_255_2_778
10
17.3082065
20
11.4034905
40
0.6041088
50
323.8671978
51
331.1405063
0
ARC
8
DEFAULT_255_2_778
10
17.5689179
20
11.2599048
40
0.3064726
50
331.1250578
51
359.7952037
0
ARC
8
DEFAULT_255_2_778
10
17.6414803
20
11.26758
40
0.2340727
50
357.8526426
51
42.5970762
0
ARC
8
DEFAULT_255_2_778
10
17.6591366
20
11.2755783
40
0.2157469
50
44.207357
51
92.5630851
0
ARC
8
DEFAULT_255_2_778
10
17.6349597
20
11.2325547
40
0.2589626
50
86.7837915
51
131.1915406
0
ARC
8
DEFAULT_255_2_778
10
17.6121182
20
11.2707524
40
0.2153229
50
133.3121715
51
135.7475141
0
ARC
8
DEFAULT_255_2_778
10
17.6542516
20
11.2435243
40
0.2646873
50
137.890783
51
182.1759715
0
ARC
8
DEFAULT_255_2_778
10
17.8379876
20
11.2257473
40
0.448299
50
179.0123579
51
180.0048462
0
ARC
8
DEFAULT_255_2_778
10
17.607237
20
11.2412878
40
0.3832652
50
134.2311513
51
182.3295177
0
ARC
8
DEFAULT_255_2_778
10
17.6215722
20
11.2106599
40
0.4153588
50
90.6688192
51
132.7007648
0
ARC
8
DEFAULT_255_2_778
10
17.6492142
20
10.9819872
40
0.6448222
50
89.9756189
51
92.8881586
0
ARC
8
DEFAULT_255_2_778
10
17.6628647
20
11.1619611
40
0.4650407
50
64.0924794
51
91.6482495
0
ARC
8
DEFAULT_255_2_778
10
17.7130779
20
11.2844139
40
0.3330595
50
47.9188404
51
62.6584243
0
ARC
8
DEFAULT_255_2_778
10
17.7175617
20
11.2917606
40
0.3246057
50
357.6250487
51
47.6371652
0
ARC
8
DEFAULT_255_2_778
10
17.6136355
20
11.2912202
40
0.4284477
50
332.4047996
51
358.2731889
0
ARC
8
DEFAULT_255_2_778
10
17.1300679
20
11.5269566
40
0.9663216
50
321.0472722
51
333.2989358
0
ARC
8
DEFAULT_255_2_778
10
16.5675772
20
11.9601133
40
1.6761514
50
317.1833471
51
321.6207109
0
LINE
8
DEFAULT_255_2_778
10
18.1013886
20
10.4433094
11
18.1013886
21
10.3084094
0
LINE
8
DEFAULT_255_2_778
10
18.1013886
20
10.3084094
11
17.2488886
21
10.3084094
0
LINE
8
DEFAULT_255_2_778
10
17.2488886
20
10.3084094
11
17.2488886
21
10.4272094
0
LINE
8
DEFAULT_255_2_778
10
17.2488886
20
10.4272094
11
17.6991886
21
10.9275094
0
LINE
8
DEFAULT_255_2_778
10
17.6991886
20
10.9275094
11
17.6991886
21
10.9275094
0
LINE
8
DEFAULT_255_2_778
10
17.8372886
20
11.1119094
11
17.8372886
21
11.1119094
0
LINE
8
DEFAULT_255_2_778
10
17.8372886
20
11.1119094
11
17.8372886
21
11.1119094
0
LINE
8
DEFAULT_255_2_778
10
17.8753886
20
11.2588094
11
17.8753886
21
11.2588094
0
LINE
8
DEFAULT_255_2_778
10
17.8753886
20
11.2588094
11
17.8753886
21
11.2588094
0
LINE
8
DEFAULT_255_2_778
10
17.8137886
20
11.4260094
11
17.8137886
21
11.4260094
0
LINE
8
DEFAULT_255_2_778
10
17.8137886
20
11.4260094
11
17.8137886
21
11.4260094
0
LINE
8
DEFAULT_255_2_778
10
17.6494886
20
11.4911094
11
17.6494886
21
11.4911094
0
LINE
8
DEFAULT_255_2_778
10
17.6494886
20
11.4911094
11
17.6494886
21
11.4911094
0
LINE
8
DEFAULT_255_2_778
10
17.4578886
20
11.4210094
11
17.4578886
21
11.4210094
0
LINE
8
DEFAULT_255_2_778
10
17.4578886
20
11.4210094
11
17.4578886
21
11.4210094
0
LINE
8
DEFAULT_255_2_778
10
17.3896886
20
11.2257094
11
17.3896886
21
11.2257094
0
LINE
8
DEFAULT_255_2_778
10
17.3896886
20
11.2257094
11
17.2242886
21
11.2257094
0
LINE
8
DEFAULT_255_2_778
10
17.2242886
20
11.2257094
11
17.2242886
21
11.2257094
0
LINE
8
DEFAULT_255_2_778
10
17.3398886
20
11.5159094
11
17.3398886
21
11.5159094
0
LINE
8
DEFAULT_255_2_778
10
17.3398886
20
11.5159094
11
17.3398886
21
11.5159094
0
LINE
8
DEFAULT_255_2_778
10
17.6494886
20
11.6268094
11
17.6494886
21
11.6268094
0
LINE
8
DEFAULT_255_2_778
10
17.6494886
20
11.6268094
11
17.6494886
21
11.6268094
0
LINE
8
DEFAULT_255_2_778
10
17.9362886
20
11.5316094
11
17.9362886
21
11.5316094
0
LINE
8
DEFAULT_255_2_778
10
17.9362886
20
11.5316094
11
17.9362886
21
11.5316094
0
LINE
8
DEFAULT_255_2_778
10
18.0418886
20
11.2783094
11
18.0418886
21
11.2783094
0
LINE
8
DEFAULT_255_2_778
10
18.0418886
20
11.2783094
11
18.0418886
21
11.2783094
0
LINE
8
DEFAULT_255_2_778
10
17.7970886
20
10.8209094
11
17.7970886
21
10.8209094
0
LINE
8
DEFAULT_255_2_778
10
17.7970886
20
10.8209094
11
17.4486886
21
10.4431094
0
LINE
8
DEFAULT_255_2_778
10
17.4486886
20
10.4431094
11
18.1018886
21
10.4431094
0
LINE
8
DEFAULT_255_2_778
10
18.1018886
20
10.4431094
11
18.1013886
21
10.4433094
0
LINE
8
DEFAULT_255_2_778
10
18.9741969
20
11.6090458
11
18.9741969
21
10.7451458
0
LINE
8
DEFAULT_255_2_778
10
18.9741969
20
10.7451458
11
19.1545969
21
10.7451458
0
LINE
8
DEFAULT_255_2_778
10
19.1545969
20
10.7451458
11
19.1545969
21
10.6102458
0
LINE
8
DEFAULT_255_2_778
10
19.1545969
20
10.6102458
11
18.9741969
21
10.6102458
0
LINE
8
DEFAULT_255_2_778
10
18.9741969
20
10.6102458
11
18.9741969
21
10.3083458
0
LINE
8
DEFAULT_255_2_778
10
18.9741969
20
10.3083458
11
18.8079969
21
10.3083458
0
LINE
8
DEFAULT_255_2_778
10
18.8079969
20
10.3083458
11
18.8079969
21
10.6102458
0
LINE
8
DEFAULT_255_2_778
10
18.8079969
20
10.6102458
11
18.2155969
21
10.6102458
0
LINE
8
DEFAULT_255_2_778
10
18.2155969
20
10.6102458
11
18.2155969
21
10.7076458
0
LINE
8
DEFAULT_255_2_778
10
18.2155969
20
10.7076458
11
18.7981969
21
11.6090458
0
LINE
8
DEFAULT_255_2_778
10
18.7981969
20
11.6090458
11
18.9741969
21
11.6090458
0
LINE
8
DEFAULT_255_2_778
10
18.9741969
20
11.6090458
11
18.9741969
21
11.6090458
0
LINE
8
DEFAULT_255_2_778
10
18.7883969
20
11.3473458
11
18.4034969
21
10.7451458
0
LINE
8
DEFAULT_255_2_778
10
18.4034969
20
10.7451458
11
18.8082969
21
10.7451458
0
LINE
8
DEFAULT_255_2_778
10
18.8082969
20
10.7451458
11
18.8082969
21
11.3830458
0
LINE
8
DEFAULT_255_2_778
10
18.8082969
20
11.3830458
11
18.7886969
21
11.3473458
0
LINE
8
DEFAULT_255_2_778
10
18.7886969
20
11.3473458
11
18.7883969
21
11.3473458
0
LINE
8
DEFAULT_255_2_778
10
19.4075938
20
11.6090458
11
19.7774938
21
10.5361458
0
LINE
8
DEFAULT_255_2_778
10
19.7774938
20
10.5361458
11
20.1491938
21
11.6090458
0
LINE
8
DEFAULT_255_2_778
10
20.1491938
20
11.6090458
11
20.3367938
21
11.6090458
0
LINE
8
DEFAULT_255_2_778
10
20.3367938
20
11.6090458
11
19.8541938
21
10.3083458
0
LINE
8
DEFAULT_255_2_778
10
19.8541938
20
10.3083458
11
19.7022938
21
10.3083458
0
LINE
8
DEFAULT_255_2_778
10
19.7022938
20
10.3083458
11
19.2207938
21
11.6090458
0
LINE
8
DEFAULT_255_2_778
10
19.2207938
20
11.6090458
11
19.4075938
21
11.6090458
0
LINE
8
DEFAULT_255_2_778
10
19.4075938
20
11.6090458
11
19.4075938
21
11.6090458
0
ARC
8
DEFAULT_255_2_778
10
17.6995712
20
31.6926141
40
0.5282337
50
326.8494549
51
354.8542957
0
ARC
8
DEFAULT_255_2_778
10
17.803983
20
31.6350489
40
0.4094341
50
311.126215
51
325.6037719
0
ARC
8
DEFAULT_255_2_778
10
17.7709229
20
31.6864062
40
0.4699479
50
273.1684683
51
310.0440228
0
ARC
8
DEFAULT_255_2_778
10
17.7335364
20
31.9484561
40
0.7340192
50
269.925034
51
274.9520005
0
ARC
8
DEFAULT_255_2_778
10
17.715855
20
31.6722972
40
0.458165
50
219.667291
51
272.0915141
0
ARC
8
DEFAULT_255_2_778
10
17.8267754
20
31.7563774
40
0.5972492
50
187.0770832
51
219.0838426
0
ARC
8
DEFAULT_255_2_778
10
18.1669112
20
31.8184121
40
0.9426417
50
179.7857204
51
188.2718921
0
ARC
8
DEFAULT_255_2_778
10
17.9793425
20
31.9608352
40
0.7551906
50
157.7698605
51
181.0392951
0
ARC
8
DEFAULT_255_2_778
10
17.8381224
20
32.0079858
40
0.6067077
50
154.8179396
51
156.8460834
0
ARC
8
DEFAULT_255_2_778
10
17.7300367
20
32.0682058
40
0.4833458
50
122.1715779
51
155.8263698
0
ARC
8
DEFAULT_255_2_778
10
17.7373004
20
32.040564
40
0.510683
50
88.8133856
51
121.2100716
0
ARC
8
DEFAULT_255_2_778
10
17.7616066
20
32.0320093
40
0.5193097
50
63.1295426
51
91.5150754
0
ARC
8
DEFAULT_255_2_778
10
17.8057053
20
32.1388305
40
0.4041895
50
47.2294264
51
61.8617115
0
ARC
8
DEFAULT_255_2_778
10
17.7573916
20
32.0984803
40
0.4666876
50
6.8879974
51
46.2391379
0
ARC
8
DEFAULT_255_2_778
10
17.5220393
20
32.0458797
40
0.7070568
50
5.6375504
51
8.8328249
0
ARC
8
DEFAULT_255_2_778
10
17.5733906
20
32.059238
40
0.4830541
50
6.6690935
51
26.6947302
0
ARC
8
DEFAULT_255_2_778
10
17.7854884
20
32.1609115
40
0.2479277
50
27.7222094
51
46.4281039
0
ARC
8
DEFAULT_255_2_778
10
17.7712376
20
32.1272209
40
0.2824539
50
49.0451406
51
90.3636404
0
ARC
8
DEFAULT_255_2_778
10
17.7480735
20
31.9221784
40
0.487959
50
87.4897692
51
90.02318
0
ARC
8
DEFAULT_255_2_778
10
17.7350094
20
32.1033882
40
0.307019
50
87.598132
51
142.887604
0
ARC
8
DEFAULT_255_2_778
10
17.8563127
20
32.0220921
40
0.4528825
50
143.945597
51
172.0229376
0
ARC
8
DEFAULT_255_2_778
10
18.2472493
20
31.9482657
40
0.8504906
50
170.7523287
51
180.3656874
0
ARC
8
DEFAULT_255_2_778
10
18.1037708
20
31.8042202
40
0.7071092
50
178.9694892
51
197.3313429
0
ARC
8
DEFAULT_255_2_778
10
17.8391806
20
31.726921
40
0.4315338
50
197.9993334
51
214.8811096
0
ARC
8
DEFAULT_255_2_778
10
17.7215566
20
31.6401985
40
0.2854738
50
214.1032205
51
272.2122062
0
ARC
8
DEFAULT_255_2_778
10
17.745042
20
31.7462562
40
0.3915172
50
268.1753847
51
293.4125393
0
ARC
8
DEFAULT_255_2_778
10
17.8015799
20
31.5984142
40
0.2334829
50
295.0966486
51
310.0692831
0
ARC
8
DEFAULT_255_2_778
10
17.7602483
20
31.6262936
40
0.2817563
50
312.8529164
51
345.1764402
0
ARC
8
DEFAULT_255_2_778
10
17.4366003
20
31.7365884
40
0.6233062
50
342.9862419
51
351.5724517
0
LINE
8
DEFAULT_255_2_778
10
18.0531761
20
31.6452375
11
18.2256761
21
31.6452375
0
LINE
8
DEFAULT_255_2_778
10
18.2256761
20
31.6452375
11
18.2256761
21
31.6452375
0
LINE
8
DEFAULT_255_2_778
10
18.0732761
20
31.3266375
11
18.0732761
21
31.3266375
0
LINE
8
DEFAULT_255_2_778
10
18.0732761
20
31.3266375
11
18.0732761
21
31.3266375
0
LINE
8
DEFAULT_255_2_778
10
17.7325761
20
31.2144375
11
17.7325761
21
31.2144375
0
LINE
8
DEFAULT_255_2_778
10
17.7325761
20
31.2144375
11
17.7325761
21
31.2144375
0
LINE
8
DEFAULT_255_2_778
10
17.3631761
20
31.3798375
11
17.3631761
21
31.3798375
0
LINE
8
DEFAULT_255_2_778
10
17.3631761
20
31.3798375
11
17.3631761
21
31.3798375
0
LINE
8
DEFAULT_255_2_778
10
17.2242761
20
31.8219375
11
17.2242761
21
31.8219375
0
LINE
8
DEFAULT_255_2_778
10
17.2242761
20
31.8219375
11
17.2242761
21
31.9471375
0
LINE
8
DEFAULT_255_2_778
10
17.2242761
20
31.9471375
11
17.2242761
21
31.9471375
0
LINE
8
DEFAULT_255_2_778
10
17.2890761
20
32.2661375
11
17.2890761
21
32.2661375
0
LINE
8
DEFAULT_255_2_778
10
17.2890761
20
32.2661375
11
17.2890761
21
32.2661375
0
LINE
8
DEFAULT_255_2_778
10
17.4726761
20
32.4773375
11
17.4726761
21
32.4773375
0
LINE
8
DEFAULT_255_2_778
10
17.4726761
20
32.4773375
11
17.4726761
21
32.4773375
0
LINE
8
DEFAULT_255_2_778
10
17.7478761
20
32.5511375
11
17.7478761
21
32.5511375
0
LINE
8
DEFAULT_255_2_778
10
17.7478761
20
32.5511375
11
17.7478761
21
32.5511375
0
LINE
8
DEFAULT_255_2_778
10
18.0801761
20
32.4355375
11
18.0801761
21
32.4355375
0
LINE
8
DEFAULT_255_2_778
10
18.0801761
20
32.4355375
11
18.0801761
21
32.4355375
0
LINE
8
DEFAULT_255_2_778
10
18.2256761
20
32.1153375
11
18.2256761
21
32.1153375
0
LINE
8
DEFAULT_255_2_778
10
18.2256761
20
32.1153375
11
18.0531761
21
32.1153375
0
LINE
8
DEFAULT_255_2_778
10
18.0531761
20
32.1153375
11
18.0531761
21
32.1153375
0
LINE
8
DEFAULT_255_2_778
10
17.9563761
20
32.3405375
11
17.9563761
21
32.3405375
0
LINE
8
DEFAULT_255_2_778
10
17.9563761
20
32.3405375
11
17.9563761
21
32.3405375
0
LINE
8
DEFAULT_255_2_778
10
17.7478761
20
32.4101375
11
17.7478761
21
32.4101375
0
LINE
8
DEFAULT_255_2_778
10
17.7478761
20
32.4101375
11
17.7478761
21
32.4101375
0
LINE
8
DEFAULT_255_2_778
10
17.4901761
20
32.2886375
11
17.4901761
21
32.2886375
0
LINE
8
DEFAULT_255_2_778
10
17.4901761
20
32.2886375
11
17.4901761
21
32.2886375
0
LINE
8
DEFAULT_255_2_778
10
17.3967761
20
31.9428375
11
17.3967761
21
31.9428375
0
LINE
8
DEFAULT_255_2_778
10
17.3967761
20
31.9428375
11
17.3967761
21
31.8169375
0
LINE
8
DEFAULT_255_2_778
10
17.3967761
20
31.8169375
11
17.3967761
21
31.8169375
0
LINE
8
DEFAULT_255_2_778
10
17.4851761
20
31.4801375
11
17.4851761
21
31.4801375
0
LINE
8
DEFAULT_255_2_778
10
17.4851761
20
31.4801375
11
17.4851761
21
31.4801375
0
LINE
8
DEFAULT_255_2_778
10
17.7325761
20
31.3549375
11
17.7325761
21
31.3549375
0
LINE
8
DEFAULT_255_2_778
10
17.7325761
20
31.3549375
11
17.7325761
21
31.3549375
0
LINE
8
DEFAULT_255_2_778
10
17.9518761
20
31.4197375
11
17.9518761
21
31.4197375
0
LINE
8
DEFAULT_255_2_778
10
17.9518761
20
31.4197375
11
17.9518761
21
31.4197375
0
LINE
8
DEFAULT_255_2_778
10
18.0531761
20
31.6452375
11
18.0531761
21
31.6452375
0
LINE
8
DEFAULT_255_2_778
10
18.0531761
20
31.6452375
11
18.0531761
21
31.6452375
0
LINE
8
DEFAULT_255_2_778
10
19.4594698
20
32.5331458
11
19.4594698
21
31.2324458
0
LINE
8
DEFAULT_255_2_778
10
19.4594698
20
31.2324458
11
19.2869698
21
31.2324458
0
LINE
8
DEFAULT_255_2_778
10
19.2869698
20
31.2324458
11
19.2869698
21
31.8335458
0
LINE
8
DEFAULT_255_2_778
10
19.2869698
20
31.8335458
11
18.6309698
21
31.8335458
0
LINE
8
DEFAULT_255_2_778
10
18.6309698
20
31.8335458
11
18.6309698
21
31.2324458
0
LINE
8
DEFAULT_255_2_778
10
18.6309698
20
31.2324458
11
18.4595698
21
31.2324458
0
LINE
8
DEFAULT_255_2_778
10
18.4595698
20
31.2324458
11
18.4595698
21
32.5331458
0
LINE
8
DEFAULT_255_2_778
10
18.4595698
20
32.5331458
11
18.6309698
21
32.5331458
0
LINE
8
DEFAULT_255_2_778
10
18.6309698
20
32.5331458
11
18.6309698
21
31.9740458
0
LINE
8
DEFAULT_255_2_778
10
18.6309698
20
31.9740458
11
19.2869698
21
31.9740458
0
LINE
8
DEFAULT_255_2_778
10
19.2869698
20
31.9740458
11
19.2869698
21
32.5331458
0
LINE
8
DEFAULT_255_2_778
10
19.2869698
20
32.5331458
11
19.4594698
21
32.5331458
0
LINE
8
DEFAULT_255_2_778
10
19.4594698
20
32.5331458
11
19.4594698
21
32.5331458
0
LINE
8
DEFAULT_255_2_778
10
20.4190969
20
32.5331458
11
20.4190969
21
31.6692458
0
LINE
8
DEFAULT_255_2_778
10
20.4190969
20
31.6692458
11
20.5994969
21
31.6692458
0
LINE
8
DEFAULT_255_2_778
10
20.5994969
20
31.6692458
11
20.5994969
21
31.5343458
0
LINE
8
DEFAULT_255_2_778
10
20.5994969
20
31.5343458
11
20.4190969
21
31.5343458
0
LINE
8
DEFAULT_255_2_778
10
20.4190969
20
31.5343458
11
20.4190969
21
31.2324458
0
LINE
8
DEFAULT_255_2_778
10
20.4190969
20
31.2324458
11
20.2528969
21
31.2324458
0
LINE
8
DEFAULT_255_2_778
10
20.2528969
20
31.2324458
11
20.2528969
21
31.5343458
0
LINE
8
DEFAULT_255_2_778
10
20.2528969
20
31.5343458
11
19.6604969
21
31.5343458
0
LINE
8
DEFAULT_255_2_778
10
19.6604969
20
31.5343458
11
19.6604969
21
31.6317458
0
LINE
8
DEFAULT_255_2_778
10
19.6604969
20
31.6317458
11
20.2430969
21
32.5331458
0
LINE
8
DEFAULT_255_2_778
10
20.2430969
20
32.5331458
11
20.4190969
21
32.5331458
0
LINE
8
DEFAULT_255_2_778
10
20.4190969
20
32.5331458
11
20.4190969
21
32.5331458
0
LINE
8
DEFAULT_255_2_778
10
20.2332969
20
32.2714458
11
19.8483969
21
31.6692458
0
LINE
8
DEFAULT_255_2_778
10
19.8483969
20
31.6692458
11
20.2531969
21
31.6692458
0
LINE
8
DEFAULT_255_2_778
10
20.2531969
20
31.6692458
11
20.2531969
21
32.3071458
0
LINE
8
DEFAULT_255_2_778
10
20.2531969
20
32.3071458
11
20.2335969
21
32.2714458
0
LINE
8
DEFAULT_255_2_778
10
20.2335969
20
32.2714458
11
20.2332969
21
32.2714458
0
ARC
8
DEFAULT_255_2_778
10
17.6995712
20
35.1052141
40
0.5282337
50
326.8494549
51
354.8542957
0
ARC
8
DEFAULT_255_2_778
10
17.803983
20
35.0476489
40
0.4094341
50
311.126215
51
325.6037719
0
ARC
8
DEFAULT_255_2_778
10
17.7709229
20
35.0990062
40
0.4699479
50
273.1684683
51
310.0440228
0
ARC
8
DEFAULT_255_2_778
10
17.7335364
20
35.3610561
40
0.7340192
50
269.925034
51
274.9520005
0
ARC
8
DEFAULT_255_2_778
10
17.715855
20
35.0848972
40
0.458165
50
219.667291
51
272.0915141
0
ARC
8
DEFAULT_255_2_778
10
17.8267754
20
35.1689774
40
0.5972492
50
187.0770832
51
219.0838426
0
ARC
8
DEFAULT_255_2_778
10
18.1669112
20
35.2310121
40
0.9426417
50
179.7857204
51
188.2718921
0
ARC
8
DEFAULT_255_2_778
10
17.9793425
20
35.3734352
40
0.7551906
50
157.7698605
51
181.0392951
0
ARC
8
DEFAULT_255_2_778
10
17.8381224
20
35.4205858
40
0.6067077
50
154.8179396
51
156.8460834
0
ARC
8
DEFAULT_255_2_778
10
17.7300367
20
35.4808058
40
0.4833458
50
122.1715779
51
155.8263698
0
ARC
8
DEFAULT_255_2_778
10
17.7373004
20
35.453164
40
0.510683
50
88.8133856
51
121.2100716
0
ARC
8
DEFAULT_255_2_778
10
17.7616066
20
35.4446093
40
0.5193097
50
63.1295426
51
91.5150754
0
ARC
8
DEFAULT_255_2_778
10
17.8057053
20
35.5514305
40
0.4041895
50
47.2294264
51
61.8617115
0
ARC
8
DEFAULT_255_2_778
10
17.7573916
20
35.5110803
40
0.4666876
50
6.8879974
51
46.2391379
0
ARC
8
DEFAULT_255_2_778
10
17.5220393
20
35.4584797
40
0.7070568
50
5.6375504
51
8.8328249
0
ARC
8
DEFAULT_255_2_778
10
17.5733906
20
35.471838
40
0.4830541
50
6.6690935
51
26.6947302
0
ARC
8
DEFAULT_255_2_778
10
17.7854884
20
35.5735115
40
0.2479277
50
27.7222094
51
46.4281039
0
ARC
8
DEFAULT_255_2_778
10
17.7712376
20
35.5398209
40
0.2824539
50
49.0451406
51
90.3636404
0
ARC
8
DEFAULT_255_2_778
10
17.7480735
20
35.3347784
40
0.487959
50
87.4897692
51
90.02318
0
ARC
8
DEFAULT_255_2_778
10
17.7350094
20
35.5159882
40
0.307019
50
87.598132
51
142.887604
0
ARC
8
DEFAULT_255_2_778
10
17.8563127
20
35.4346921
40
0.4528825
50
143.945597
51
172.0229376
0
ARC
8
DEFAULT_255_2_778
10
18.2472493
20
35.3608657
40
0.8504906
50
170.7523287
51
180.3656874
0
ARC
8
DEFAULT_255_2_778
10
18.1037708
20
35.2168202
40
0.7071092
50
178.9694892
51
197.3313429
0
ARC
8
DEFAULT_255_2_778
10
17.8391806
20
35.139521
40
0.4315338
50
197.9993334
51
214.8811096
0
ARC
8
DEFAULT_255_2_778
10
17.7215566
20
35.0527985
40
0.2854738
50
214.1032205
51
272.2122062
0
ARC
8
DEFAULT_255_2_778
10
17.745042
20
35.1588562
40
0.3915172
50
268.1753847
51
293.4125393
0
ARC
8
DEFAULT_255_2_778
10
17.8015799
20
35.0110142
40
0.2334829
50
295.0966486
51
310.0692831
0
ARC
8
DEFAULT_255_2_778
10
17.7602483
20
35.0388936
40
0.2817563
50
312.8529164
51
345.1764402
0
ARC
8
DEFAULT_255_2_778
10
17.4366003
20
35.1491884
40
0.6233062
50
342.9862419
51
351.5724517
0
LINE
8
DEFAULT_255_2_778
10
18.0531761
20
35.0578375
11
18.2256761
21
35.0578375
0
LINE
8
DEFAULT_255_2_778
10
18.2256761
20
35.0578375
11
18.2256761
21
35.0578375
0
LINE
8
DEFAULT_255_2_778
10
18.0732761
20
34.7392375
11
18.0732761
21
34.7392375
0
LINE
8
DEFAULT_255_2_778
10
18.0732761
20
34.7392375
11
18.0732761
21
34.7392375
0
LINE
8
DEFAULT_255_2_778
10
17.7325761
20
34.6270375
11
17.7325761
21
34.6270375
0
LINE
8
DEFAULT_255_2_778
10
17.7325761
20
34.6270375
11
17.7325761
21
34.6270375
0
LINE
8
DEFAULT_255_2_778
10
17.3631761
20
34.7924375
11
17.3631761
21
34.7924375
0
LINE
8
DEFAULT_255_2_778
10
17.3631761
20
34.7924375
11
17.3631761
21
34.7924375
0
LINE
8
DEFAULT_255_2_778
10
17.2242761
20
35.2345375
11
17.2242761
21
35.2345375
0
LINE
8
DEFAULT_255_2_778
10
17.2242761
20
35.2345375
11
17.2242761
21
35.3597375
0
LINE
8
DEFAULT_255_2_778
10
17.2242761
20
35.3597375
11
17.2242761
21
35.3597375
0
LINE
8
DEFAULT_255_2_778
10
17.2890761
20
35.6787375
11
17.2890761
21
35.6787375
0
LINE
8
DEFAULT_255_2_778
10
17.2890761
20
35.6787375
11
17.2890761
21
35.6787375
0
LINE
8
DEFAULT_255_2_778
10
17.4726761
20
35.8899375
11
17.4726761
21
35.8899375
0
LINE
8
DEFAULT_255_2_778
10
17.4726761
20
35.8899375
11
17.4726761
21
35.8899375
0
LINE
8
DEFAULT_255_2_778
10
17.7478761
20
35.9637375
11
17.7478761
21
35.9637375
0
LINE
8
DEFAULT_255_2_778
10
17.7478761
20
35.9637375
11
17.7478761
21
35.9637375
0
LINE
8
DEFAULT_255_2_778
10
18.0801761
20
35.8481375
11
18.0801761
21
35.8481375
0
LINE
8
DEFAULT_255_2_778
10
18.0801761
20
35.8481375
11
18.0801761
21
35.8481375
0
LINE
8
DEFAULT_255_2_778
10
18.2256761
20
35.5279375
11
18.2256761
21
35.5279375
0
LINE
8
DEFAULT_255_2_778
10
18.2256761
20
35.5279375
11
18.0531761
21
35.5279375
0
LINE
8
DEFAULT_255_2_778
10
18.0531761
20
35.5279375
11
18.0531761
21
35.5279375
0
LINE
8
DEFAULT_255_2_778
10
17.9563761
20
35.7531375
11
17.9563761
21
35.7531375
0
LINE
8
DEFAULT_255_2_778
10
17.9563761
20
35.7531375
11
17.9563761
21
35.7531375
0
LINE
8
DEFAULT_255_2_778
10
17.7478761
20
35.8227375
11
17.7478761
21
35.8227375
0
LINE
8
DEFAULT_255_2_778
10
17.7478761
20
35.8227375
11
17.7478761
21
35.8227375
0
LINE
8
DEFAULT_255_2_778
10
17.4901761
20
35.7012375
11
17.4901761
21
35.7012375
0
LINE
8
DEFAULT_255_2_778
10
17.4901761
20
35.7012375
11
17.4901761
21
35.7012375
0
LINE
8
DEFAULT_255_2_778
10
17.3967761
20
35.3554375
11
17.3967761
21
35.3554375
0
LINE
8
DEFAULT_255_2_778
10
17.3967761
20
35.3554375
11
17.3967761
21
35.2295375
0
LINE
8
DEFAULT_255_2_778
10
17.3967761
20
35.2295375
11
17.3967761
21
35.2295375
0
LINE
8
DEFAULT_255_2_778
10
17.4851761
20
34.8927375
11
17.4851761
21
34.8927375
0
LINE
8
DEFAULT_255_2_778
10
17.4851761
20
34.8927375
11
17.4851761
21
34.8927375
0
LINE
8
DEFAULT_255_2_778
10
17.7325761
20
34.7675375
11
17.7325761
21
34.7675375
0
LINE
8
DEFAULT_255_2_778
10
17.7325761
20
34.7675375
11
17.7325761
21
34.7675375
0
LINE
8
DEFAULT_255_2_778
10
17.9518761
20
34.8323375
11
17.9518761
21
34.8323375
0
LINE
8
DEFAULT_255_2_778
10
17.9518761
20
34.8323375
11
17.9518761
21
34.8323375
0
LINE
8
DEFAULT_255_2_778
10
18.0531761
20
35.0578375
11
18.0531761
21
35.0578375
0
LINE
8
DEFAULT_255_2_778
10
18.0531761
20
35.0578375
11
18.0531761
21
35.0578375
0
LINE
8
DEFAULT_255_2_778
10
19.4594698
20
35.9457458
11
19.4594698
21
34.6450458
0
LINE
8
DEFAULT_255_2_778
10
19.4594698
20
34.6450458
11
19.2869698
21
34.6450458
0
LINE
8
DEFAULT_255_2_778
10
19.2869698
20
34.6450458
11
19.2869698
21
35.2461458
0
LINE
8
DEFAULT_255_2_778
10
19.2869698
20
35.2461458
11
18.6309698
21
35.2461458
0
LINE
8
DEFAULT_255_2_778
10
18.6309698
20
35.2461458
11
18.6309698
21
34.6450458
0
LINE
8
DEFAULT_255_2_778
10
18.6309698
20
34.6450458
11
18.4595698
21
34.6450458
0
LINE
8
DEFAULT_255_2_778
10
18.4595698
20
34.6450458
11
18.4595698
21
35.9457458
0
LINE
8
DEFAULT_255_2_778
10
18.4595698
20
35.9457458
11
18.6309698
21
35.9457458
0
LINE
8
DEFAULT_255_2_778
10
18.6309698
20
35.9457458
11
18.6309698
21
35.3866458
0
LINE
8
DEFAULT_255_2_778
10
18.6309698
20
35.3866458
11
19.2869698
21
35.3866458
0
LINE
8
DEFAULT_255_2_778
10
19.2869698
20
35.3866458
11
19.2869698
21
35.9457458
0
LINE
8
DEFAULT_255_2_778
10
19.2869698
20
35.9457458
11
19.4594698
21
35.9457458
0
LINE
8
DEFAULT_255_2_778
10
19.4594698
20
35.9457458
11
19.4594698
21
35.9457458
0
ARC
8
DEFAULT_255_2_778
10
20.0950536
20
35.6564906
40
0.2808742
50
268.0873506
51
306.1482245
0
ARC
8
DEFAULT_255_2_778
10
20.1292086
20
35.5954474
40
0.2116029
50
308.430867
51
311.6658963
0
ARC
8
DEFAULT_255_2_778
10
20.1310024
20
35.5895195
40
0.2059984
50
312.3892838
51
2.6581068
0
ARC
8
DEFAULT_255_2_778
10
20.0758841
20
35.6118146
40
0.2612061
50
357.2039867
51
30.6429315
0
ARC
8
DEFAULT_255_2_778
10
20.1419488
20
35.6307118
40
0.195512
50
35.7529305
51
89.4207793
0
ARC
8
DEFAULT_255_2_778
10
20.1096625
20
35.4248475
40
0.402826
50
85.1207526
51
90.0971881
0
ARC
8
DEFAULT_255_2_778
10
20.097173
20
35.5903553
40
0.2376111
50
87.1519711
51
132.1302339
0
ARC
8
DEFAULT_255_2_778
10
20.087951
20
35.6138565
40
0.2141818
50
134.5186588
51
182.5377888
0
ARC
8
DEFAULT_255_2_778
10
20.0407
20
35.6116324
40
0.3321002
50
131.2619237
51
181.2525414
0
ARC
8
DEFAULT_255_2_778
10
20.0935689
20
35.5526752
40
0.4112864
50
87.8527151
51
131.3816421
0
ARC
8
DEFAULT_255_2_778
10
20.1222881
20
35.4976601
40
0.4662028
50
64.5653919
51
91.635869
0
ARC
8
DEFAULT_255_2_778
10
20.1743639
20
35.6260675
40
0.327976
50
47.0868605
51
63.1467066
0
ARC
8
DEFAULT_255_2_778
10
20.1585671
20
35.6200547
40
0.3432171
50
359.4964805
51
45.8388511
0
ARC
8
DEFAULT_255_2_778
10
19.950629
20
35.595822
40
0.5515502
50
359.9845122
51
2.204546
0
ARC
8
DEFAULT_255_2_778
10
20.217985
20
35.5995916
40
0.2842212
50
323.7109946
51
359.2099993
0
ARC
8
DEFAULT_255_2_778
10
20.1755037
20
35.6196616
40
0.3304631
50
291.6790729
51
325.2656646
0
ARC
8
DEFAULT_255_2_778
10
20.2100916
20
35.0054346
40
0.3193556
50
37.5513349
51
74.1005313
0
ARC
8
DEFAULT_255_2_778
10
20.208782
20
35.0177766
40
0.3130508
50
358.2053979
51
35.6140195
0
ARC
8
DEFAULT_255_2_778
10
20.1672792
20
34.9913755
40
0.3547884
50
312.5895203
51
2.6813333
0
ARC
8
DEFAULT_255_2_778
10
20.1320006
20
35.0492397
40
0.42147
50
269.331675
51
310.7966583
0
ARC
8
DEFAULT_255_2_778
10
20.1101456
20
35.2641642
40
0.6365913
50
269.9940246
51
271.5247499
0
ARC
8
DEFAULT_255_2_778
10
20.0959345
20
35.0934514
40
0.4660931
50
239.8129271
51
271.7390397
0
ARC
8
DEFAULT_255_2_778
10
20.0600615
20
35.0138151
40
0.3793263
50
229.1755227
51
238.448119
0
ARC
8
DEFAULT_255_2_778
10
20.0259126
20
34.9766004
40
0.3288442
50
177.9483986
51
229.4389772
0
ARC
8
DEFAULT_255_2_778
10
20.0760534
20
34.979159
40
0.2127738
50
177.5181155
51
226.79242
0
ARC
8
DEFAULT_255_2_778
10
20.0969386
20
35.0170503
40
0.2549163
50
229.2024144
51
272.9548181
0
ARC
8
DEFAULT_255_2_778
10
20.1233758
20
35.0308983
40
0.2687545
50
267.1641369
51
303.5220831
0
ARC
8
DEFAULT_255_2_778
10
20.1604849
20
34.9598207
40
0.1891881
50
306.0415127
51
314.4960055
0
ARC
8
DEFAULT_255_2_778
10
20.1212501
20
34.9856632
40
0.2353269
50
316.9007991
51
1.9584877
0
ARC
8
DEFAULT_255_2_778
10
19.9381069
20
35.0045063
40
0.4184722
50
358.5210438
51
0.0091229
0
ARC
8
DEFAULT_255_2_778
10
20.1384545
20
35.0184205
40
0.2185638
50
356.3674672
51
47.1558925
0
ARC
8
DEFAULT_255_2_778
10
20.1143642
20
34.9632195
40
0.2761351
50
51.2831122
51
87.6759754
0
ARC
8
DEFAULT_255_2_778
10
20.0803879
20
34.7236505
40
0.5174527
50
84.9916847
51
89.3808862
0
LINE
8
DEFAULT_255_2_778
10
19.9615792
20
35.2408729
11
19.9615792
21
35.3757729
0
LINE
8
DEFAULT_255_2_778
10
19.9615792
20
35.3757729
11
20.0856792
21
35.3757729
0
LINE
8
DEFAULT_255_2_778
10
20.0856792
20
35.3757729
11
20.0856792
21
35.3757729
0
LINE
8
DEFAULT_255_2_778
10
20.2698792
20
35.4373729
11
20.2698792
21
35.4373729
0
LINE
8
DEFAULT_255_2_778
10
20.2698792
20
35.4373729
11
20.2698792
21
35.4373729
0
LINE
8
DEFAULT_255_2_778
10
20.3367792
20
35.5990729
11
20.3367792
21
35.5990729
0
LINE
8
DEFAULT_255_2_778
10
20.3367792
20
35.5990729
11
20.3367792
21
35.5990729
0
LINE
8
DEFAULT_255_2_778
10
20.1089792
20
35.8276729
11
20.1089792
21
35.8276729
0
LINE
8
DEFAULT_255_2_778
10
20.1089792
20
35.8276729
11
20.1089792
21
35.8276729
0
LINE
8
DEFAULT_255_2_778
10
19.9377792
20
35.7665729
11
19.9377792
21
35.7665729
0
LINE
8
DEFAULT_255_2_778
10
19.9377792
20
35.7665729
11
19.9377792
21
35.7665729
0
LINE
8
DEFAULT_255_2_778
10
19.8739792
20
35.6043729
11
19.8739792
21
35.6043729
0
LINE
8
DEFAULT_255_2_778
10
19.8739792
20
35.6043729
11
19.7086792
21
35.6043729
0
LINE
8
DEFAULT_255_2_778
10
19.7086792
20
35.6043729
11
19.7086792
21
35.6043729
0
LINE
8
DEFAULT_255_2_778
10
19.8216792
20
35.8612729
11
19.8216792
21
35.8612729
0
LINE
8
DEFAULT_255_2_778
10
19.8216792
20
35.8612729
11
19.8216792
21
35.8612729
0
LINE
8
DEFAULT_255_2_778
10
20.1089792
20
35.9636729
11
20.1089792
21
35.9636729
0
LINE
8
DEFAULT_255_2_778
10
20.1089792
20
35.9636729
11
20.1089792
21
35.9636729
0
LINE
8
DEFAULT_255_2_778
10
20.3976792
20
35.8662729
11
20.3976792
21
35.8662729
0
LINE
8
DEFAULT_255_2_778
10
20.3976792
20
35.8662729
11
20.3976792
21
35.8662729
0
LINE
8
DEFAULT_255_2_778
10
20.5021792
20
35.5956729
11
20.5021792
21
35.5956729
0
LINE
8
DEFAULT_255_2_778
10
20.5021792
20
35.5956729
11
20.5021792
21
35.5956729
0
LINE
8
DEFAULT_255_2_778
10
20.4470792
20
35.4313729
11
20.4470792
21
35.4313729
0
LINE
8
DEFAULT_255_2_778
10
20.4470792
20
35.4313729
11
20.4470792
21
35.4313729
0
LINE
8
DEFAULT_255_2_778
10
20.2975792
20
35.3125729
11
20.2975792
21
35.3125729
0
LINE
8
DEFAULT_255_2_778
10
20.2975792
20
35.3125729
11
20.2975792
21
35.3125729
0
LINE
8
DEFAULT_255_2_778
10
20.4632792
20
35.2000729
11
20.4632792
21
35.2000729
0
LINE
8
DEFAULT_255_2_778
10
20.4632792
20
35.2000729
11
20.4632792
21
35.2000729
0
LINE
8
DEFAULT_255_2_778
10
20.5216792
20
35.0079729
11
20.5216792
21
35.0079729
0
LINE
8
DEFAULT_255_2_778
10
20.5216792
20
35.0079729
11
20.5216792
21
35.0079729
0
LINE
8
DEFAULT_255_2_778
10
20.4073792
20
34.7301729
11
20.4073792
21
34.7301729
0
LINE
8
DEFAULT_255_2_778
10
20.4073792
20
34.7301729
11
20.4073792
21
34.7301729
0
LINE
8
DEFAULT_255_2_778
10
20.1100792
20
34.6275729
11
20.1100792
21
34.6275729
0
LINE
8
DEFAULT_255_2_778
10
20.1100792
20
34.6275729
11
20.1100792
21
34.6275729
0
LINE
8
DEFAULT_255_2_778
10
19.8120792
20
34.7267729
11
19.8120792
21
34.7267729
0
LINE
8
DEFAULT_255_2_778
10
19.8120792
20
34.7267729
11
19.8120792
21
34.7267729
0
LINE
8
DEFAULT_255_2_778
10
19.6972792
20
34.9883729
11
19.6972792
21
34.9883729
0
LINE
8
DEFAULT_255_2_778
10
19.6972792
20
34.9883729
11
19.8634792
21
34.9883729
0
LINE
8
DEFAULT_255_2_778
10
19.8634792
20
34.9883729
11
19.8634792
21
34.9883729
0
LINE
8
DEFAULT_255_2_778
10
19.9303792
20
34.8240729
11
19.9303792
21
34.8240729
0
LINE
8
DEFAULT_255_2_778
10
19.9303792
20
34.8240729
11
19.9303792
21
34.8240729
0
LINE
8
DEFAULT_255_2_778
10
20.1100792
20
34.7624729
11
20.1100792
21
34.7624729
0
LINE
8
DEFAULT_255_2_778
10
20.1100792
20
34.7624729
11
20.1100792
21
34.7624729
0
LINE
8
DEFAULT_255_2_778
10
20.2930792
20
34.8248729
11
20.2930792
21
34.8248729
0
LINE
8
DEFAULT_255_2_778
10
20.2930792
20
34.8248729
11
20.2930792
21
34.8248729
0
LINE
8
DEFAULT_255_2_778
10
20.3565792
20
35.0045729
11
20.3565792
21
35.0045729
0
LINE
8
DEFAULT_255_2_778
10
20.3565792
20
35.0045729
11
20.3565792
21
35.0045729
0
LINE
8
DEFAULT_255_2_778
10
20.2870792
20
35.1786729
11
20.2870792
21
35.1786729
0
LINE
8
DEFAULT_255_2_778
10
20.2870792
20
35.1786729
11
20.2870792
21
35.1786729
0
LINE
8
DEFAULT_255_2_778
10
20.0859792
20
35.2410729
11
20.0859792
21
35.2410729
0
LINE
8
DEFAULT_255_2_778
10
20.0859792
20
35.2410729
11
19.9618792
21
35.2410729
0
LINE
8
DEFAULT_255_2_778
10
19.9618792
20
35.2410729
11
19.9615792
21
35.2408729
0
ARC
8
DEFAULT_255_2_778
10
16.6096893
20
27.930048
40
1.5459589
50
351.4419372
51
0.4475591
0
ARC
8
DEFAULT_255_2_778
10
17.3739488
20
27.809258
40
0.7722553
50
335.8036461
51
351.8659076
0
ARC
8
DEFAULT_255_2_778
10
17.6472165
20
27.694278
40
0.4759223
50
326.2867887
51
334.9459255
0
ARC
8
DEFAULT_255_2_778
10
17.7291981
20
27.6439753
40
0.3798256
50
270.886154
51
325.734736
0
ARC
8
DEFAULT_255_2_778
10
17.6918306
20
27.898848
40
0.6361242
50
269.9523044
51
273.8977949
0
ARC
8
DEFAULT_255_2_778
10
17.6777882
20
27.7267542
40
0.464227
50
242.6232461
51
271.6680171
0
ARC
8
DEFAULT_255_2_778
10
17.6380224
20
27.6285129
40
0.3588383
50
214.2757091
51
241.0482046
0
ARC
8
DEFAULT_255_2_778
10
17.8446574
20
27.7589015
40
0.6030818
50
192.2808277
51
213.4560831
0
ARC
8
DEFAULT_255_2_778
10
18.4466265
20
27.9025151
40
1.2218848
50
181.7234473
51
192.8569592
0
ARC
8
DEFAULT_255_2_778
10
19.0165465
20
27.9371806
40
1.7926751
50
180.6889902
51
182.2830733
0
ARC
8
DEFAULT_255_2_778
10
18.7240174
20
28.189706
40
1.5000674
50
171.1411026
51
180.472945
0
ARC
8
DEFAULT_255_2_778
10
17.9771991
20
28.3116825
40
0.7433942
50
155.0191608
51
171.5657896
0
ARC
8
DEFAULT_255_2_778
10
17.7208016
20
28.4229989
40
0.4640309
50
145.9341218
51
154.1081492
0
ARC
8
DEFAULT_255_2_778
10
17.6486037
20
28.466755
40
0.3797361
50
91.5873047
51
145.3012914
0
ARC
8
DEFAULT_255_2_778
10
17.6883794
20
28.2082421
40
0.6400821
50
89.9354032
51
94.5066605
0
ARC
8
DEFAULT_255_2_778
10
17.7025259
20
28.3658991
40
0.4826116
50
64.3062375
51
91.5940043
0
ARC
8
DEFAULT_255_2_778
10
17.7513037
20
28.4876032
40
0.3519033
50
34.8763255
51
62.8714718
0
ARC
8
DEFAULT_255_2_778
10
17.567061
20
28.3720176
40
0.5692438
50
12.7212218
51
33.8167741
0
ARC
8
DEFAULT_255_2_778
10
16.963699
20
28.2229767
40
1.1906809
50
2.2809667
51
13.3235801
0
ARC
8
DEFAULT_255_2_778
10
16.3287545
20
28.1799467
40
1.8269209
50
0.5167655
51
2.8368732
0
ARC
8
DEFAULT_255_2_778
10
16.6939432
20
28.2219136
40
1.2741096
50
359.4833099
51
8.1464179
0
ARC
8
DEFAULT_255_2_778
10
17.4365627
20
28.334871
40
0.5230187
50
7.4249234
51
25.0330781
0
ARC
8
DEFAULT_255_2_778
10
17.6448152
20
28.423289
40
0.2970235
50
26.5779889
51
30.3622226
0
ARC
8
DEFAULT_255_2_778
10
17.7034286
20
28.4599454
40
0.2279293
50
29.8589978
51
93.6039766
0
ARC
8
DEFAULT_255_2_778
10
17.6748139
20
28.46318
40
0.2246986
50
86.3544557
51
150.4715599
0
ARC
8
DEFAULT_255_2_778
10
17.8983213
20
28.3471176
40
0.4764652
50
151.5743044
51
171.2403219
0
ARC
8
DEFAULT_255_2_778
10
18.5751577
20
28.2266812
40
1.1638576
50
170.4547994
51
180.0717417
0
ARC
8
DEFAULT_255_2_778
10
18.639696
20
27.8991488
40
1.2284563
50
179.4274732
51
188.9174549
0
ARC
8
DEFAULT_255_2_778
10
17.9318431
20
27.7818382
40
0.5110121
50
188.22593
51
206.9411884
0
ARC
8
DEFAULT_255_2_778
10
17.7497665
20
27.698937
40
0.3112538
50
208.5227177
51
210.2524444
0
ARC
8
DEFAULT_255_2_778
10
17.6811961
20
27.649995
40
0.2274956
50
208.3051773
51
272.5458256
0
ARC
8
DEFAULT_255_2_778
10
17.7030655
20
27.6465547
40
0.2241398
50
266.9913287
51
330.2179147
0
ARC
8
DEFAULT_255_2_778
10
17.5022923
20
27.7569696
40
0.453255
50
330.7100533
51
350.2131604
0
ARC
8
DEFAULT_255_2_778
10
16.8709265
20
27.8813242
40
1.0966764
50
349.4177961
51
358.8612159
0
ARC
8
DEFAULT_255_2_778
10
16.2897571
20
27.9091271
40
1.6783621
50
358.3065664
51
359.3205329
0
LINE
8
DEFAULT_255_2_778
10
18.1556011
20
28.1966239
11
18.1556011
21
27.9421239
0
LINE
8
DEFAULT_255_2_778
10
17.2240011
20
27.9156239
11
17.2240011
21
28.1773239
0
LINE
8
DEFAULT_255_2_778
10
18.1556011
20
28.1964239
11
18.1556011
21
28.1966239
0
LINE
8
DEFAULT_255_2_778
10
17.9680011
20
27.8892239
11
17.9680011
21
28.2104239
0
LINE
8
DEFAULT_255_2_778
10
17.4113011
20
28.2252239
11
17.4113011
21
27.9114239
0
LINE
8
DEFAULT_255_2_778
10
17.9680011
20
27.8892239
11
17.9680011
21
27.8892239
0
LINE
8
DEFAULT_255_2_778
10
18.5135844
20
28.8273573
11
18.9331844
21
27.5544573
0
LINE
8
DEFAULT_255_2_778
10
18.9331844
20
27.5544573
11
19.3548844
21
28.8273573
0
LINE
8
DEFAULT_255_2_778
10
19.3548844
20
28.8273573
11
19.5678844
21
28.8273573
0
LINE
8
DEFAULT_255_2_778
10
19.5678844
20
28.8273573
11
19.0204844
21
27.2840573
0
LINE
8
DEFAULT_255_2_778
10
19.0204844
20
27.2840573
11
18.8482844
21
27.2840573
0
LINE
8
DEFAULT_255_2_778
10
18.8482844
20
27.2840573
11
18.3018844
21
28.8273573
0
LINE
8
DEFAULT_255_2_778
10
18.3018844
20
28.8273573
11
18.5137844
21
28.8273573
0
LINE
8
DEFAULT_255_2_778
10
18.5137844
20
28.8273573
11
18.5135844
21
28.8273573
0
ARC
8
DEFAULT_255_2_778
10
16.6104344
20
7.0826872
40
1.5452138
50
351.4398789
51
0.4475199
0
ARC
8
DEFAULT_255_2_778
10
17.3740742
20
6.961969
40
0.7721334
50
335.8010754
51
351.8634285
0
ARC
8
DEFAULT_255_2_778
10
17.6471337
20
6.8470658
40
0.476022
50
326.2867593
51
334.9437705
0
ARC
8
DEFAULT_255_2_778
10
17.7291602
20
6.7965514
40
0.379769
50
270.8920059
51
325.7574343
0
ARC
8
DEFAULT_255_2_778
10
17.6918334
20
7.0509657
40
0.6356098
50
269.9520127
51
273.9007011
0
ARC
8
DEFAULT_255_2_778
10
17.6777921
20
6.8791525
40
0.463993
50
242.6077301
51
271.6683714
0
ARC
8
DEFAULT_255_2_778
10
17.6381518
20
6.7811953
40
0.3589171
50
214.2574974
51
241.0315581
0
ARC
8
DEFAULT_255_2_778
10
17.8441036
20
6.9114316
40
0.6025083
50
192.2778907
51
213.4690778
0
ARC
8
DEFAULT_255_2_778
10
18.4467659
20
7.0552097
40
1.2220234
50
181.7221597
51
192.8560681
0
ARC
8
DEFAULT_255_2_778
10
19.0174926
20
7.0899169
40
1.7936212
50
180.6887533
51
182.2824554
0
ARC
8
DEFAULT_255_2_778
10
18.7240174
20
7.3426383
40
1.5000674
50
171.1411026
51
180.472945
0
ARC
8
DEFAULT_255_2_778
10
17.9771991
20
7.4646148
40
0.7433942
50
155.0191608
51
171.5657896
0
ARC
8
DEFAULT_255_2_778
10
17.7208016
20
7.5759312
40
0.4640309
50
145.9341218
51
154.1081492
0
ARC
8
DEFAULT_255_2_778
10
17.6486037
20
7.6196873
40
0.3797361
50
91.5873047
51
145.3012914
0
ARC
8
DEFAULT_255_2_778
10
17.6883794
20
7.3611744
40
0.6400821
50
89.9354032
51
94.5066605
0
ARC
8
DEFAULT_255_2_778
10
17.7025259
20
7.5188314
40
0.4826116
50
64.3062375
51
91.5940043
0
ARC
8
DEFAULT_255_2_778
10
17.7513037
20
7.6405355
40
0.3519033
50
34.8763255
51
62.8714718
0
ARC
8
DEFAULT_255_2_778
10
17.567061
20
7.5249499
40
0.5692438
50
12.7212218
51
33.8167741
0
ARC
8
DEFAULT_255_2_778
10
16.963699
20
7.375909
40
1.1906809
50
2.2809667
51
13.3235801
0
ARC
8
DEFAULT_255_2_778
10
16.3287545
20
7.332879
40
1.8269209
50
0.5167655
51
2.8368732
0
ARC
8
DEFAULT_255_2_778
10
16.6925923
20
7.3745947
40
1.2754609
50
359.4816655
51
8.1422149
0
ARC
8
DEFAULT_255_2_778
10
17.4370547
20
7.4876985
40
0.5225248
50
7.4267213
51
24.9738786
0
ARC
8
DEFAULT_255_2_778
10
17.6461443
20
7.5763235
40
0.2956736
50
26.5126976
51
30.4251494
0
ARC
8
DEFAULT_255_2_778
10
17.7033991
20
7.6127223
40
0.2278829
50
29.8237739
51
93.5972803
0
ARC
8
DEFAULT_255_2_778
10
17.6748139
20
7.6159123
40
0.2246986
50
86.3544557
51
150.4715599
0
ARC
8
DEFAULT_255_2_778
10
17.8983492
20
7.4998537
40
0.4764879
50
151.5762998
51
171.2446121
0
ARC
8
DEFAULT_255_2_778
10
18.5759323
20
7.3793207
40
1.1646322
50
170.4579754
51
180.0720481
0
ARC
8
DEFAULT_255_2_778
10
18.639696
20
7.0517811
40
1.2284563
50
179.4274732
51
188.9174549
0
ARC
8
DEFAULT_255_2_778
10
17.9318431
20
6.9344704
40
0.5110121
50
188.22593
51
206.9411884
0
ARC
8
DEFAULT_255_2_778
10
17.7497665
20
6.8515693
40
0.3112538
50
208.5227177
51
210.2524444
0
ARC
8
DEFAULT_255_2_778
10
17.6811643
20
6.8027618
40
0.2275315
50
208.3387888
51
272.5534191
0
ARC
8
DEFAULT_255_2_778
10
17.7030959
20
6.7993304
40
0.2241847
50
266.9841622
51
330.1822583
0
ARC
8
DEFAULT_255_2_778
10
17.5016868
20
6.9097899
40
0.4538751
50
330.7267546
51
350.208991
0
ARC
8
DEFAULT_255_2_778
10
16.8711246
20
7.0339909
40
1.0964788
50
349.4166975
51
358.8598267
0
ARC
8
DEFAULT_255_2_778
10
16.290994
20
7.0617532
40
1.6771253
50
358.3059292
51
359.3202432
0
LINE
8
DEFAULT_255_2_778
10
18.1556011
20
7.3493562
11
18.1556011
21
7.0947562
0
LINE
8
DEFAULT_255_2_778
10
17.2240011
20
7.0683562
11
17.2240011
21
7.3302562
0
LINE
8
DEFAULT_255_2_778
10
18.1556011
20
7.3493562
11
18.1556011
21
7.3493562
0
LINE
8
DEFAULT_255_2_778
10
17.9680011
20
7.0418562
11
17.9680011
21
7.3630562
0
LINE
8
DEFAULT_255_2_778
10
17.4113011
20
7.3778562
11
17.4113011
21
7.0640562
0
LINE
8
DEFAULT_255_2_778
10
17.9680011
20
7.0418562
11
17.9680011
21
7.0418562
0
LINE
8
DEFAULT_255_2_778
10
18.5135844
20
7.9800573
11
18.9331844
21
6.7071573
0
LINE
8
DEFAULT_255_2_778
10
18.9331844
20
6.7071573
11
19.3548844
21
7.9800573
0
LINE
8
DEFAULT_255_2_778
10
19.3548844
20
7.9800573
11
19.5678844
21
7.9800573
0
LINE
8
DEFAULT_255_2_778
10
19.5678844
20
7.9800573
11
19.0204844
21
6.4367573
0
LINE
8
DEFAULT_255_2_778
10
19.0204844
20
6.4367573
11
18.8482844
21
6.4367573
0
LINE
8
DEFAULT_255_2_778
10
18.8482844
20
6.4367573
11
18.3018844
21
7.9800573
0
LINE
8
DEFAULT_255_2_778
10
18.3018844
20
7.9800573
11
18.5137844
21
7.9800573
0
LINE
8
DEFAULT_255_2_778
10
18.5137844
20
7.9800573
11
18.5135844
21
7.9800573
0
ARC
8
DEFAULT_255_2_778
10
17.6995712
20
38.6617141
40
0.5282337
50
326.8494549
51
354.8542957
0
ARC
8
DEFAULT_255_2_778
10
17.803983
20
38.6041489
40
0.4094341
50
311.126215
51
325.6037719
0
ARC
8
DEFAULT_255_2_778
10
17.7709229
20
38.6555062
40
0.4699479
50
273.1684683
51
310.0440228
0
ARC
8
DEFAULT_255_2_778
10
17.7335364
20
38.9175561
40
0.7340192
50
269.925034
51
274.9520005
0
ARC
8
DEFAULT_255_2_778
10
17.715855
20
38.6413972
40
0.458165
50
219.667291
51
272.0915141
0
ARC
8
DEFAULT_255_2_778
10
17.8267754
20
38.7254774
40
0.5972492
50
187.0770832
51
219.0838426
0
ARC
8
DEFAULT_255_2_778
10
18.1669112
20
38.7875121
40
0.9426417
50
179.7857204
51
188.2718921
0
ARC
8
DEFAULT_255_2_778
10
17.9793425
20
38.9299352
40
0.7551906
50
157.7698605
51
181.0392951
0
ARC
8
DEFAULT_255_2_778
10
17.8381224
20
38.9770858
40
0.6067077
50
154.8179396
51
156.8460834
0
ARC
8
DEFAULT_255_2_778
10
17.7300367
20
39.0373058
40
0.4833458
50
122.1715779
51
155.8263698
0
ARC
8
DEFAULT_255_2_778
10
17.7373004
20
39.009664
40
0.510683
50
88.8133856
51
121.2100716
0
ARC
8
DEFAULT_255_2_778
10
17.7616066
20
39.0011093
40
0.5193097
50
63.1295426
51
91.5150754
0
ARC
8
DEFAULT_255_2_778
10
17.8057053
20
39.1079305
40
0.4041895
50
47.2294264
51
61.8617115
0
ARC
8
DEFAULT_255_2_778
10
17.7573916
20
39.0675803
40
0.4666876
50
6.8879974
51
46.2391379
0
ARC
8
DEFAULT_255_2_778
10
17.5220393
20
39.0149797
40
0.7070568
50
5.6375504
51
8.8328249
0
ARC
8
DEFAULT_255_2_778
10
17.5733906
20
39.028338
40
0.4830541
50
6.6690935
51
26.6947302
0
ARC
8
DEFAULT_255_2_778
10
17.7854884
20
39.1300115
40
0.2479277
50
27.7222094
51
46.4281039
0
ARC
8
DEFAULT_255_2_778
10
17.7712376
20
39.0963209
40
0.2824539
50
49.0451406
51
90.3636404
0
ARC
8
DEFAULT_255_2_778
10
17.7480735
20
38.8912784
40
0.487959
50
87.4897692
51
90.02318
0
ARC
8
DEFAULT_255_2_778
10
17.7350094
20
39.0724882
40
0.307019
50
87.598132
51
142.887604
0
ARC
8
DEFAULT_255_2_778
10
17.8563127
20
38.9911921
40
0.4528825
50
143.945597
51
172.0229376
0
ARC
8
DEFAULT_255_2_778
10
18.2472493
20
38.9173657
40
0.8504906
50
170.7523287
51
180.3656874
0
ARC
8
DEFAULT_255_2_778
10
18.1037708
20
38.7733202
40
0.7071092
50
178.9694892
51
197.3313429
0
ARC
8
DEFAULT_255_2_778
10
17.8391806
20
38.696021
40
0.4315338
50
197.9993334
51
214.8811096
0
ARC
8
DEFAULT_255_2_778
10
17.7215566
20
38.6092985
40
0.2854738
50
214.1032205
51
272.2122062
0
ARC
8
DEFAULT_255_2_778
10
17.745042
20
38.7153562
40
0.3915172
50
268.1753847
51
293.4125393
0
ARC
8
DEFAULT_255_2_778
10
17.8015799
20
38.5675142
40
0.2334829
50
295.0966486
51
310.0692831
0
ARC
8
DEFAULT_255_2_778
10
17.7602483
20
38.5953936
40
0.2817563
50
312.8529164
51
345.1764402
0
ARC
8
DEFAULT_255_2_778
10
17.4366003
20
38.7056884
40
0.6233062
50
342.9862419
51
351.5724517
0
LINE
8
DEFAULT_255_2_778
10
18.0531761
20
38.6143375
11
18.2256761
21
38.6143375
0
LINE
8
DEFAULT_255_2_778
10
18.2256761
20
38.6143375
11
18.2256761
21
38.6143375
0
LINE
8
DEFAULT_255_2_778
10
18.0732761
20
38.2957375
11
18.0732761
21
38.2957375
0
LINE
8
DEFAULT_255_2_778
10
18.0732761
20
38.2957375
11
18.0732761
21
38.2957375
0
LINE
8
DEFAULT_255_2_778
10
17.7325761
20
38.1835375
11
17.7325761
21
38.1835375
0
LINE
8
DEFAULT_255_2_778
10
17.7325761
20
38.1835375
11
17.7325761
21
38.1835375
0
LINE
8
DEFAULT_255_2_778
10
17.3631761
20
38.3489375
11
17.3631761
21
38.3489375
0
LINE
8
DEFAULT_255_2_778
10
17.3631761
20
38.3489375
11
17.3631761
21
38.3489375
0
LINE
8
DEFAULT_255_2_778
10
17.2242761
20
38.7910375
11
17.2242761
21
38.7910375
0
LINE
8
DEFAULT_255_2_778
10
17.2242761
20
38.7910375
11
17.2242761
21
38.9162375
0
LINE
8
DEFAULT_255_2_778
10
17.2242761
20
38.9162375
11
17.2242761
21
38.9162375
0
LINE
8
DEFAULT_255_2_778
10
17.2890761
20
39.2352375
11
17.2890761
21
39.2352375
0
LINE
8
DEFAULT_255_2_778
10
17.2890761
20
39.2352375
11
17.2890761
21
39.2352375
0
LINE
8
DEFAULT_255_2_778
10
17.4726761
20
39.4464375
11
17.4726761
21
39.4464375
0
LINE
8
DEFAULT_255_2_778
10
17.4726761
20
39.4464375
11
17.4726761
21
39.4464375
0
LINE
8
DEFAULT_255_2_778
10
17.7478761
20
39.5202375
11
17.7478761
21
39.5202375
0
LINE
8
DEFAULT_255_2_778
10
17.7478761
20
39.5202375
11
17.7478761
21
39.5202375
0
LINE
8
DEFAULT_255_2_778
10
18.0801761
20
39.4046375
11
18.0801761
21
39.4046375
0
LINE
8
DEFAULT_255_2_778
10
18.0801761
20
39.4046375
11
18.0801761
21
39.4046375
0
LINE
8
DEFAULT_255_2_778
10
18.2256761
20
39.0844375
11
18.2256761
21
39.0844375
0
LINE
8
DEFAULT_255_2_778
10
18.2256761
20
39.0844375
11
18.0531761
21
39.0844375
0
LINE
8
DEFAULT_255_2_778
10
18.0531761
20
39.0844375
11
18.0531761
21
39.0844375
0
LINE
8
DEFAULT_255_2_778
10
17.9563761
20
39.3096375
11
17.9563761
21
39.3096375
0
LINE
8
DEFAULT_255_2_778
10
17.9563761
20
39.3096375
11
17.9563761
21
39.3096375
0
LINE
8
DEFAULT_255_2_778
10
17.7478761
20
39.3792375
11
17.7478761
21
39.3792375
0
LINE
8
DEFAULT_255_2_778
10
17.7478761
20
39.3792375
11
17.7478761
21
39.3792375
0
LINE
8
DEFAULT_255_2_778
10
17.4901761
20
39.2577375
11
17.4901761
21
39.2577375
0
LINE
8
DEFAULT_255_2_778
10
17.4901761
20
39.2577375
11
17.4901761
21
39.2577375
0
LINE
8
DEFAULT_255_2_778
10
17.3967761
20
38.9119375
11
17.3967761
21
38.9119375
0
LINE
8
DEFAULT_255_2_778
10
17.3967761
20
38.9119375
11
17.3967761
21
38.7860375
0
LINE
8
DEFAULT_255_2_778
10
17.3967761
20
38.7860375
11
17.3967761
21
38.7860375
0
LINE
8
DEFAULT_255_2_778
10
17.4851761
20
38.4492375
11
17.4851761
21
38.4492375
0
LINE
8
DEFAULT_255_2_778
10
17.4851761
20
38.4492375
11
17.4851761
21
38.4492375
0
LINE
8
DEFAULT_255_2_778
10
17.7325761
20
38.3240375
11
17.7325761
21
38.3240375
0
LINE
8
DEFAULT_255_2_778
10
17.7325761
20
38.3240375
11
17.7325761
21
38.3240375
0
LINE
8
DEFAULT_255_2_778
10
17.9518761
20
38.3888375
11
17.9518761
21
38.3888375
0
LINE
8
DEFAULT_255_2_778
10
17.9518761
20
38.3888375
11
17.9518761
21
38.3888375
0
LINE
8
DEFAULT_255_2_778
10
18.0531761
20
38.6143375
11
18.0531761
21
38.6143375
0
LINE
8
DEFAULT_255_2_778
10
18.0531761
20
38.6143375
11
18.0531761
21
38.6143375
0
LINE
8
DEFAULT_255_2_778
10
19.4594698
20
39.5022458
11
19.4594698
21
38.2015458
0
LINE
8
DEFAULT_255_2_778
10
19.4594698
20
38.2015458
11
19.2869698
21
38.2015458
0
LINE
8
DEFAULT_255_2_778
10
19.2869698
20
38.2015458
11
19.2869698
21
38.8026458
0
LINE
8
DEFAULT_255_2_778
10
19.2869698
20
38.8026458
11
18.6309698
21
38.8026458
0
LINE
8
DEFAULT_255_2_778
10
18.6309698
20
38.8026458
11
18.6309698
21
38.2015458
0
LINE
8
DEFAULT_255_2_778
10
18.6309698
20
38.2015458
11
18.4595698
21
38.2015458
0
LINE
8
DEFAULT_255_2_778
10
18.4595698
20
38.2015458
11
18.4595698
21
39.5022458
0
LINE
8
DEFAULT_255_2_778
10
18.4595698
20
39.5022458
11
18.6309698
21
39.5022458
0
LINE
8
DEFAULT_255_2_778
10
18.6309698
20
39.5022458
11
18.6309698
21
38.9431458
0
LINE
8
DEFAULT_255_2_778
10
18.6309698
20
38.9431458
11
19.2869698
21
38.9431458
0
LINE
8
DEFAULT_255_2_778
10
19.2869698
20
38.9431458
11
19.2869698
21
39.5022458
0
LINE
8
DEFAULT_255_2_778
10
19.2869698
20
39.5022458
11
19.4594698
21
39.5022458
0
LINE
8
DEFAULT_255_2_778
10
19.4594698
20
39.5022458
11
19.4594698
21
39.5022458
0
ARC
8
DEFAULT_255_2_778
10
19.001192
20
39.8668572
40
1.5696665
50
318.2026205
51
323.8288009
0
ARC
8
DEFAULT_255_2_778
10
19.7804065
20
39.2966582
40
0.6041088
50
323.8671978
51
331.1405063
0
ARC
8
DEFAULT_255_2_778
10
20.0413047
20
39.1530248
40
0.306286
50
331.1159989
51
359.7852938
0
ARC
8
DEFAULT_255_2_778
10
20.1146156
20
39.1608031
40
0.2331439
50
357.8058726
51
42.6883577
0
ARC
8
DEFAULT_255_2_778
10
20.1313366
20
39.168446
40
0.2157469
50
44.207357
51
92.5630851
0
ARC
8
DEFAULT_255_2_778
10
20.1071597
20
39.1254224
40
0.2589626
50
86.7837915
51
131.1915406
0
ARC
8
DEFAULT_255_2_778
10
20.0843182
20
39.1636201
40
0.2153229
50
133.3121715
51
135.7475141
0
ARC
8
DEFAULT_255_2_778
10
20.1264516
20
39.136392
40
0.2646873
50
137.890783
51
182.1759715
0
ARC
8
DEFAULT_255_2_778
10
20.3101876
20
39.118615
40
0.448299
50
179.0123579
51
180.0048462
0
ARC
8
DEFAULT_255_2_778
10
20.079437
20
39.1341555
40
0.3832652
50
134.2311513
51
182.3295177
0
ARC
8
DEFAULT_255_2_778
10
20.0937722
20
39.1035276
40
0.4153588
50
90.6688192
51
132.7007648
0
ARC
8
DEFAULT_255_2_778
10
20.1214142
20
38.8748549
40
0.6448222
50
89.9756189
51
92.8881586
0
ARC
8
DEFAULT_255_2_778
10
20.1350647
20
39.0548288
40
0.4650407
50
64.0924794
51
91.6482495
0
ARC
8
DEFAULT_255_2_778
10
20.1852779
20
39.1772816
40
0.3330595
50
47.9188404
51
62.6584243
0
ARC
8
DEFAULT_255_2_778
10
20.1903479
20
39.1848727
40
0.3240302
50
357.5775797
51
47.6846342
0
ARC
8
DEFAULT_255_2_778
10
20.0858355
20
39.1840879
40
0.4284477
50
332.4047996
51
358.2731889
0
ARC
8
DEFAULT_255_2_778
10
19.6022679
20
39.4198243
40
0.9663216
50
321.0472722
51
333.2989358
0
ARC
8
DEFAULT_255_2_778
10
19.0397772
20
39.852981
40
1.6761514
50
317.1833471
51
321.6207109
0
LINE
8
DEFAULT_255_2_778
10
20.5735886
20
38.3364771
11
20.5735886
21
38.2014771
0
LINE
8
DEFAULT_255_2_778
10
20.5735886
20
38.2014771
11
19.7210886
21
38.2014771
0
LINE
8
DEFAULT_255_2_778
10
19.7210886
20
38.2014771
11
19.7210886
21
38.3202771
0
LINE
8
DEFAULT_255_2_778
10
19.7210886
20
38.3202771
11
20.1713886
21
38.8206771
0
LINE
8
DEFAULT_255_2_778
10
20.1713886
20
38.8206771
11
20.1713886
21
38.8206771
0
LINE
8
DEFAULT_255_2_778
10
20.3094886
20
39.0050771
11
20.3094886
21
39.0050771
0
LINE
8
DEFAULT_255_2_778
10
20.3094886
20
39.0050771
11
20.3094886
21
39.0050771
0
LINE
8
DEFAULT_255_2_778
10
20.3475886
20
39.1518771
11
20.3475886
21
39.1518771
0
LINE
8
DEFAULT_255_2_778
10
20.3475886
20
39.1518771
11
20.3475886
21
39.1518771
0
LINE
8
DEFAULT_255_2_778
10
20.2859886
20
39.3188771
11
20.2859886
21
39.3188771
0
LINE
8
DEFAULT_255_2_778
10
20.2859886
20
39.3188771
11
20.2859886
21
39.3188771
0
LINE
8
DEFAULT_255_2_778
10
20.1216886
20
39.3839771
11
20.1216886
21
39.3839771
0
LINE
8
DEFAULT_255_2_778
10
20.1216886
20
39.3839771
11
20.1216886
21
39.3839771
0
LINE
8
DEFAULT_255_2_778
10
19.9300886
20
39.3138771
11
19.9300886
21
39.3138771
0
LINE
8
DEFAULT_255_2_778
10
19.9300886
20
39.3138771
11
19.9300886
21
39.3138771
0
LINE
8
DEFAULT_255_2_778
10
19.8618886
20
39.1185771
11
19.8618886
21
39.1185771
0
LINE
8
DEFAULT_255_2_778
10
19.8618886
20
39.1185771
11
19.6964886
21
39.1185771
0
LINE
8
DEFAULT_255_2_778
10
19.6964886
20
39.1185771
11
19.6964886
21
39.1185771
0
LINE
8
DEFAULT_255_2_778
10
19.8120886
20
39.4087771
11
19.8120886
21
39.4087771
0
LINE
8
DEFAULT_255_2_778
10
19.8120886
20
39.4087771
11
19.8120886
21
39.4087771
0
LINE
8
DEFAULT_255_2_778
10
20.1216886
20
39.5196771
11
20.1216886
21
39.5196771
0
LINE
8
DEFAULT_255_2_778
10
20.1216886
20
39.5196771
11
20.1216886
21
39.5196771
0
LINE
8
DEFAULT_255_2_778
10
20.4084886
20
39.4244771
11
20.4084886
21
39.4244771
0
LINE
8
DEFAULT_255_2_778
10
20.4084886
20
39.4244771
11
20.4084886
21
39.4244771
0
LINE
8
DEFAULT_255_2_778
10
20.5140886
20
39.1711771
11
20.5140886
21
39.1711771
0
LINE
8
DEFAULT_255_2_778
10
20.5140886
20
39.1711771
11
20.5140886
21
39.1711771
0
LINE
8
DEFAULT_255_2_778
10
20.2692886
20
38.7137771
11
20.2692886
21
38.7137771
0
LINE
8
DEFAULT_255_2_778
10
20.2692886
20
38.7137771
11
19.9208886
21
38.3359771
0
LINE
8
DEFAULT_255_2_778
10
19.9208886
20
38.3359771
11
20.5740886
21
38.3359771
0
LINE
8
DEFAULT_255_2_778
10
20.5740886
20
38.3359771
11
20.5735886
21
38.3364771
0
ARC
8
DEFAULT_255_2_778
10
17.6995712
20
42.3243141
40
0.5282337
50
326.8494549
51
354.8542957
0
ARC
8
DEFAULT_255_2_778
10
17.803983
20
42.2667489
40
0.4094341
50
311.126215
51
325.6037719
0
ARC
8
DEFAULT_255_2_778
10
17.7709229
20
42.3181062
40
0.4699479
50
273.1684683
51
310.0440228
0
ARC
8
DEFAULT_255_2_778
10
17.7335364
20
42.5801561
40
0.7340192
50
269.925034
51
274.9520005
0
ARC
8
DEFAULT_255_2_778
10
17.715855
20
42.3039972
40
0.458165
50
219.667291
51
272.0915141
0
ARC
8
DEFAULT_255_2_778
10
17.8267754
20
42.3880774
40
0.5972492
50
187.0770832
51
219.0838426
0
ARC
8
DEFAULT_255_2_778
10
18.1669112
20
42.4501121
40
0.9426417
50
179.7857204
51
188.2718921
0
ARC
8
DEFAULT_255_2_778
10
17.9796143
20
42.592419
40
0.7554603
50
157.9630251
51
181.03011
0
ARC
8
DEFAULT_255_2_778
10
17.836563
20
42.6398555
40
0.6051394
50
154.7867962
51
157.0443214
0
ARC
8
DEFAULT_255_2_778
10
17.7311744
20
42.6991048
40
0.4846299
50
122.2350156
51
155.8166328
0
ARC
8
DEFAULT_255_2_778
10
17.7373004
20
42.672264
40
0.510683
50
88.8133856
51
121.2100716
0
ARC
8
DEFAULT_255_2_778
10
17.7616066
20
42.6637093
40
0.5193097
50
63.1295426
51
91.5150754
0
ARC
8
DEFAULT_255_2_778
10
17.8057053
20
42.7705305
40
0.4041895
50
47.2294264
51
61.8617115
0
ARC
8
DEFAULT_255_2_778
10
17.7573916
20
42.7301803
40
0.4666876
50
6.8879974
51
46.2391379
0
ARC
8
DEFAULT_255_2_778
10
17.5220393
20
42.6775797
40
0.7070568
50
5.6375504
51
8.8328249
0
ARC
8
DEFAULT_255_2_778
10
17.5758426
20
42.691331
40
0.480573
50
6.6565101
51
26.9844628
0
ARC
8
DEFAULT_255_2_778
10
17.7847215
20
42.7923611
40
0.2486379
50
28.078574
51
46.3398355
0
ARC
8
DEFAULT_255_2_778
10
17.7713569
20
42.7590403
40
0.2822855
50
49.0475388
51
90.2345126
0
ARC
8
DEFAULT_255_2_778
10
17.7477845
20
42.5529819
40
0.4888558
50
87.3717221
51
90.024435
0
ARC
8
DEFAULT_255_2_778
10
17.7347094
20
42.7350882
40
0.307019
50
87.598132
51
142.887604
0
ARC
8
DEFAULT_255_2_778
10
17.8560127
20
42.6537921
40
0.4528825
50
143.945597
51
172.0229376
0
ARC
8
DEFAULT_255_2_778
10
18.2469493
20
42.5799657
40
0.8504906
50
170.7523287
51
180.3656874
0
ARC
8
DEFAULT_255_2_778
10
18.1034708
20
42.4359202
40
0.7071092
50
178.9694892
51
197.3313429
0
ARC
8
DEFAULT_255_2_778
10
17.8388806
20
42.358621
40
0.4315338
50
197.9993334
51
214.8811096
0
ARC
8
DEFAULT_255_2_778
10
17.7213386
20
42.2720605
40
0.2856325
50
214.1209082
51
272.1945185
0
ARC
8
DEFAULT_255_2_778
10
17.7447821
20
42.377949
40
0.3915113
50
268.1694937
51
293.4131848
0
ARC
8
DEFAULT_255_2_778
10
17.8015376
20
42.2295849
40
0.232912
50
295.1037775
51
310.1045944
0
ARC
8
DEFAULT_255_2_778
10
17.7596959
20
42.2581901
40
0.2820721
50
312.8633608
51
345.1719963
0
ARC
8
DEFAULT_255_2_778
10
17.4346991
20
42.3690073
40
0.6250653
50
342.9757322
51
351.5482587
0
LINE
8
DEFAULT_255_2_778
10
18.0531761
20
42.2769375
11
18.2256761
21
42.2769375
0
LINE
8
DEFAULT_255_2_778
10
18.2256761
20
42.2769375
11
18.2256761
21
42.2769375
0
LINE
8
DEFAULT_255_2_778
10
18.0732761
20
41.9583375
11
18.0732761
21
41.9583375
0
LINE
8
DEFAULT_255_2_778
10
18.0732761
20
41.9583375
11
18.0732761
21
41.9583375
0
LINE
8
DEFAULT_255_2_778
10
17.7325761
20
41.8461375
11
17.7325761
21
41.8461375
0
LINE
8
DEFAULT_255_2_778
10
17.7325761
20
41.8461375
11
17.7325761
21
41.8461375
0
LINE
8
DEFAULT_255_2_778
10
17.3631761
20
42.0115375
11
17.3631761
21
42.0115375
0
LINE
8
DEFAULT_255_2_778
10
17.3631761
20
42.0115375
11
17.3631761
21
42.0115375
0
LINE
8
DEFAULT_255_2_778
10
17.2242761
20
42.4536375
11
17.2242761
21
42.4536375
0
LINE
8
DEFAULT_255_2_778
10
17.2242761
20
42.4536375
11
17.2242761
21
42.5788375
0
LINE
8
DEFAULT_255_2_778
10
17.2242761
20
42.5788375
11
17.2242761
21
42.5788375
0
LINE
8
DEFAULT_255_2_778
10
17.2890761
20
42.8976375
11
17.2890761
21
42.8976375
0
LINE
8
DEFAULT_255_2_778
10
17.2890761
20
42.8976375
11
17.2890761
21
42.8976375
0
LINE
8
DEFAULT_255_2_778
10
17.4726761
20
43.1090375
11
17.4726761
21
43.1090375
0
LINE
8
DEFAULT_255_2_778
10
17.4726761
20
43.1090375
11
17.4726761
21
43.1090375
0
LINE
8
DEFAULT_255_2_778
10
17.7478761
20
43.1828375
11
17.7478761
21
43.1828375
0
LINE
8
DEFAULT_255_2_778
10
17.7478761
20
43.1828375
11
17.7478761
21
43.1828375
0
LINE
8
DEFAULT_255_2_778
10
18.0801761
20
43.0672375
11
18.0801761
21
43.0672375
0
LINE
8
DEFAULT_255_2_778
10
18.0801761
20
43.0672375
11
18.0801761
21
43.0672375
0
LINE
8
DEFAULT_255_2_778
10
18.2256761
20
42.7470375
11
18.2256761
21
42.7470375
0
LINE
8
DEFAULT_255_2_778
10
18.2256761
20
42.7470375
11
18.0531761
21
42.7470375
0
LINE
8
DEFAULT_255_2_778
10
18.0531761
20
42.7470375
11
18.0531761
21
42.7470375
0
LINE
8
DEFAULT_255_2_778
10
17.9563761
20
42.9722375
11
17.9563761
21
42.9722375
0
LINE
8
DEFAULT_255_2_778
10
17.9563761
20
42.9722375
11
17.9563761
21
42.9722375
0
LINE
8
DEFAULT_255_2_778
10
17.7475761
20
43.0418375
11
17.7475761
21
43.0418375
0
LINE
8
DEFAULT_255_2_778
10
17.7475761
20
43.0418375
11
17.7475761
21
43.0418375
0
LINE
8
DEFAULT_255_2_778
10
17.4898761
20
42.9203375
11
17.4898761
21
42.9203375
0
LINE
8
DEFAULT_255_2_778
10
17.4898761
20
42.9203375
11
17.4898761
21
42.9203375
0
LINE
8
DEFAULT_255_2_778
10
17.3964761
20
42.5745375
11
17.3964761
21
42.5745375
0
LINE
8
DEFAULT_255_2_778
10
17.3964761
20
42.5745375
11
17.3964761
21
42.4486375
0
LINE
8
DEFAULT_255_2_778
10
17.3964761
20
42.4486375
11
17.3964761
21
42.4486375
0
LINE
8
DEFAULT_255_2_778
10
17.4848761
20
42.1118375
11
17.4848761
21
42.1118375
0
LINE
8
DEFAULT_255_2_778
10
17.4848761
20
42.1118375
11
17.4848761
21
42.1118375
0
LINE
8
DEFAULT_255_2_778
10
17.7322761
20
41.9866375
11
17.7322761
21
41.9866375
0
LINE
8
DEFAULT_255_2_778
10
17.7322761
20
41.9866375
11
17.7322761
21
41.9866375
0
LINE
8
DEFAULT_255_2_778
10
17.9515761
20
42.0514375
11
17.9515761
21
42.0514375
0
LINE
8
DEFAULT_255_2_778
10
17.9515761
20
42.0514375
11
17.9515761
21
42.0514375
0
LINE
8
DEFAULT_255_2_778
10
18.0529761
20
42.2771375
11
18.0529761
21
42.2771375
0
LINE
8
DEFAULT_255_2_778
10
18.0529761
20
42.2771375
11
18.0531761
21
42.2769375
0
LINE
8
DEFAULT_255_2_778
10
19.4594698
20
43.1648458
11
19.4594698
21
41.8641458
0
LINE
8
DEFAULT_255_2_778
10
19.4594698
20
41.8641458
11
19.2869698
21
41.8641458
0
LINE
8
DEFAULT_255_2_778
10
19.2869698
20
41.8641458
11
19.2869698
21
42.4652458
0
LINE
8
DEFAULT_255_2_778
10
19.2869698
20
42.4652458
11
18.6309698
21
42.4652458
0
LINE
8
DEFAULT_255_2_778
10
18.6309698
20
42.4652458
11
18.6309698
21
41.8641458
0
LINE
8
DEFAULT_255_2_778
10
18.6309698
20
41.8641458
11
18.4595698
21
41.8641458
0
LINE
8
DEFAULT_255_2_778
10
18.4595698
20
41.8641458
11
18.4595698
21
43.1648458
0
LINE
8
DEFAULT_255_2_778
10
18.4595698
20
43.1648458
11
18.6309698
21
43.1648458
0
LINE
8
DEFAULT_255_2_778
10
18.6309698
20
43.1648458
11
18.6309698
21
42.6055458
0
LINE
8
DEFAULT_255_2_778
10
18.6309698
20
42.6055458
11
19.2869698
21
42.6055458
0
LINE
8
DEFAULT_255_2_778
10
19.2869698
20
42.6055458
11
19.2869698
21
43.1648458
0
LINE
8
DEFAULT_255_2_778
10
19.2869698
20
43.1648458
11
19.4594698
21
43.1648458
0
LINE
8
DEFAULT_255_2_778
10
19.4594698
20
43.1648458
11
19.4594698
21
43.1648458
0
LINE
8
DEFAULT_255_2_778
10
20.2645333
20
43.1712208
11
20.2645333
21
41.8642208
0
LINE
8
DEFAULT_255_2_778
10
20.2645333
20
41.8642208
11
20.0984333
21
41.8642208
0
LINE
8
DEFAULT_255_2_778
10
20.0984333
20
41.8642208
11
20.0984333
21
42.9656208
0
LINE
8
DEFAULT_255_2_778
10
20.0984333
20
42.9656208
11
19.7650333
21
42.8431208
0
LINE
8
DEFAULT_255_2_778
10
19.7650333
20
42.8431208
11
19.7650333
21
42.9931208
0
LINE
8
DEFAULT_255_2_778
10
19.7650333
20
42.9931208
11
20.2386333
21
43.1709208
0
LINE
8
DEFAULT_255_2_778
10
20.2386333
20
43.1709208
11
20.2645333
21
43.1709208
0
LINE
8
DEFAULT_255_2_778
10
20.2645333
20
43.1709208
11
20.2645333
21
43.1712208
0
ARC
8
DEFAULT_255_2_778
10
16.6096893
20
24.655248
40
1.5459589
50
351.4419372
51
0.4475591
0
ARC
8
DEFAULT_255_2_778
10
17.3739488
20
24.534458
40
0.7722553
50
335.8036461
51
351.8659076
0
ARC
8
DEFAULT_255_2_778
10
17.6472165
20
24.419478
40
0.4759223
50
326.2867887
51
334.9459255
0
ARC
8
DEFAULT_255_2_778
10
17.7291981
20
24.3691753
40
0.3798256
50
270.886154
51
325.734736
0
ARC
8
DEFAULT_255_2_778
10
17.6918306
20
24.624048
40
0.6361242
50
269.9523044
51
273.8977949
0
ARC
8
DEFAULT_255_2_778
10
17.6777882
20
24.4519542
40
0.464227
50
242.6232461
51
271.6680171
0
ARC
8
DEFAULT_255_2_778
10
17.6380224
20
24.3537129
40
0.3588383
50
214.2757091
51
241.0482046
0
ARC
8
DEFAULT_255_2_778
10
17.8446574
20
24.4841015
40
0.6030818
50
192.2808277
51
213.4560831
0
ARC
8
DEFAULT_255_2_778
10
18.4466265
20
24.6277151
40
1.2218848
50
181.7234473
51
192.8569592
0
ARC
8
DEFAULT_255_2_778
10
19.0165465
20
24.6623806
40
1.7926751
50
180.6889902
51
182.2830733
0
ARC
8
DEFAULT_255_2_778
10
18.7240174
20
24.914906
40
1.5000674
50
171.1411026
51
180.472945
0
ARC
8
DEFAULT_255_2_778
10
17.9771991
20
25.0368825
40
0.7433942
50
155.0191608
51
171.5657896
0
ARC
8
DEFAULT_255_2_778
10
17.7208016
20
25.1481989
40
0.4640309
50
145.9341218
51
154.1081492
0
ARC
8
DEFAULT_255_2_778
10
17.6486037
20
25.191955
40
0.3797361
50
91.5873047
51
145.3012914
0
ARC
8
DEFAULT_255_2_778
10
17.6883794
20
24.9334421
40
0.6400821
50
89.9354032
51
94.5066605
0
ARC
8
DEFAULT_255_2_778
10
17.7025259
20
25.0910991
40
0.4826116
50
64.3062375
51
91.5940043
0
ARC
8
DEFAULT_255_2_778
10
17.7513037
20
25.2128032
40
0.3519033
50
34.8763255
51
62.8714718
0
ARC
8
DEFAULT_255_2_778
10
17.567061
20
25.0972176
40
0.5692438
50
12.7212218
51
33.8167741
0
ARC
8
DEFAULT_255_2_778
10
16.963699
20
24.9481767
40
1.1906809
50
2.2809667
51
13.3235801
0
ARC
8
DEFAULT_255_2_778
10
16.3287545
20
24.9051467
40
1.8269209
50
0.5167655
51
2.8368732
0
ARC
8
DEFAULT_255_2_778
10
16.6939432
20
24.9471136
40
1.2741096
50
359.4833099
51
8.1464179
0
ARC
8
DEFAULT_255_2_778
10
17.4365627
20
25.060071
40
0.5230187
50
7.4249234
51
25.0330781
0
ARC
8
DEFAULT_255_2_778
10
17.6448152
20
25.148489
40
0.2970235
50
26.5779889
51
30.3622226
0
ARC
8
DEFAULT_255_2_778
10
17.7034286
20
25.1851454
40
0.2279293
50
29.8589978
51
93.6039766
0
ARC
8
DEFAULT_255_2_778
10
17.6748139
20
25.18838
40
0.2246986
50
86.3544557
51
150.4715599
0
ARC
8
DEFAULT_255_2_778
10
17.8983213
20
25.0723176
40
0.4764652
50
151.5743044
51
171.2403219
0
ARC
8
DEFAULT_255_2_778
10
18.5751577
20
24.9518812
40
1.1638576
50
170.4547994
51
180.0717417
0
ARC
8
DEFAULT_255_2_778
10
18.639696
20
24.6243488
40
1.2284563
50
179.4274732
51
188.9174549
0
ARC
8
DEFAULT_255_2_778
10
17.9318431
20
24.5070382
40
0.5110121
50
188.22593
51
206.9411884
0
ARC
8
DEFAULT_255_2_778
10
17.7497665
20
24.424137
40
0.3112538
50
208.5227177
51
210.2524444
0
ARC
8
DEFAULT_255_2_778
10
17.6811961
20
24.375195
40
0.2274956
50
208.3051773
51
272.5458256
0
ARC
8
DEFAULT_255_2_778
10
17.7030655
20
24.3717547
40
0.2241398
50
266.9913287
51
330.2179147
0
ARC
8
DEFAULT_255_2_778
10
17.5022923
20
24.4821696
40
0.453255
50
330.7100533
51
350.2131604
0
ARC
8
DEFAULT_255_2_778
10
16.8709265
20
24.6065242
40
1.0966764
50
349.4177961
51
358.8612159
0
ARC
8
DEFAULT_255_2_778
10
16.2897571
20
24.6343271
40
1.6783621
50
358.3065664
51
359.3205329
0
LINE
8
DEFAULT_255_2_778
10
18.1556011
20
24.9218239
11
18.1556011
21
24.6673239
0
LINE
8
DEFAULT_255_2_778
10
17.2240011
20
24.6408239
11
17.2240011
21
24.9025239
0
LINE
8
DEFAULT_255_2_778
10
18.1556011
20
24.9216239
11
18.1556011
21
24.9218239
0
LINE
8
DEFAULT_255_2_778
10
17.9680011
20
24.6144239
11
17.9680011
21
24.9356239
0
LINE
8
DEFAULT_255_2_778
10
17.4113011
20
24.9504239
11
17.4113011
21
24.6366239
0
LINE
8
DEFAULT_255_2_778
10
17.9680011
20
24.6144239
11
17.9680011
21
24.6144239
0
LINE
8
DEFAULT_255_2_778
10
18.5135844
20
25.5526573
11
18.9331844
21
24.2797573
0
LINE
8
DEFAULT_255_2_778
10
18.9331844
20
24.2797573
11
19.3548844
21
25.5526573
0
LINE
8
DEFAULT_255_2_778
10
19.3548844
20
25.5526573
11
19.5678844
21
25.5526573
0
LINE
8
DEFAULT_255_2_778
10
19.5678844
20
25.5526573
11
19.0204844
21
24.0093573
0
LINE
8
DEFAULT_255_2_778
10
19.0204844
20
24.0093573
11
18.8482844
21
24.0093573
0
LINE
8
DEFAULT_255_2_778
10
18.8482844
20
24.0093573
11
18.3018844
21
25.5526573
0
LINE
8
DEFAULT_255_2_778
10
18.3018844
20
25.5526573
11
18.5137844
21
25.5526573
0
LINE
8
DEFAULT_255_2_778
10
18.5137844
20
25.5526573
11
18.5135844
21
25.5526573
0
ARC
8
DEFAULT_255_2_778
10
16.6096893
20
21.242648
40
1.5459589
50
351.4419372
51
0.4475591
0
ARC
8
DEFAULT_255_2_778
10
17.3739488
20
21.121858
40
0.7722553
50
335.8036461
51
351.8659076
0
ARC
8
DEFAULT_255_2_778
10
17.6472165
20
21.006878
40
0.4759223
50
326.2867887
51
334.9459255
0
ARC
8
DEFAULT_255_2_778
10
17.7291981
20
20.9565753
40
0.3798256
50
270.886154
51
325.734736
0
ARC
8
DEFAULT_255_2_778
10
17.6918306
20
21.211448
40
0.6361242
50
269.9523044
51
273.8977949
0
ARC
8
DEFAULT_255_2_778
10
17.6777882
20
21.0393542
40
0.464227
50
242.6232461
51
271.6680171
0
ARC
8
DEFAULT_255_2_778
10
17.6380224
20
20.9411129
40
0.3588383
50
214.2757091
51
241.0482046
0
ARC
8
DEFAULT_255_2_778
10
17.8446574
20
21.0715015
40
0.6030818
50
192.2808277
51
213.4560831
0
ARC
8
DEFAULT_255_2_778
10
18.4466265
20
21.2151151
40
1.2218848
50
181.7234473
51
192.8569592
0
ARC
8
DEFAULT_255_2_778
10
19.0165465
20
21.2497806
40
1.7926751
50
180.6889902
51
182.2830733
0
ARC
8
DEFAULT_255_2_778
10
18.7240174
20
21.502306
40
1.5000674
50
171.1411026
51
180.472945
0
ARC
8
DEFAULT_255_2_778
10
17.9771991
20
21.6242825
40
0.7433942
50
155.0191608
51
171.5657896
0
ARC
8
DEFAULT_255_2_778
10
17.7208016
20
21.7355989
40
0.4640309
50
145.9341218
51
154.1081492
0
ARC
8
DEFAULT_255_2_778
10
17.6486037
20
21.779355
40
0.3797361
50
91.5873047
51
145.3012914
0
ARC
8
DEFAULT_255_2_778
10
17.6883794
20
21.5208421
40
0.6400821
50
89.9354032
51
94.5066605
0
ARC
8
DEFAULT_255_2_778
10
17.7025259
20
21.6784991
40
0.4826116
50
64.3062375
51
91.5940043
0
ARC
8
DEFAULT_255_2_778
10
17.7513037
20
21.8002032
40
0.3519033
50
34.8763255
51
62.8714718
0
ARC
8
DEFAULT_255_2_778
10
17.567061
20
21.6846176
40
0.5692438
50
12.7212218
51
33.8167741
0
ARC
8
DEFAULT_255_2_778
10
16.963699
20
21.5355767
40
1.1906809
50
2.2809667
51
13.3235801
0
ARC
8
DEFAULT_255_2_778
10
16.3287545
20
21.4925467
40
1.8269209
50
0.5167655
51
2.8368732
0
ARC
8
DEFAULT_255_2_778
10
16.6939432
20
21.5345136
40
1.2741096
50
359.4833099
51
8.1464179
0
ARC
8
DEFAULT_255_2_778
10
17.4365627
20
21.647471
40
0.5230187
50
7.4249234
51
25.0330781
0
ARC
8
DEFAULT_255_2_778
10
17.6448152
20
21.735889
40
0.2970235
50
26.5779889
51
30.3622226
0
ARC
8
DEFAULT_255_2_778
10
17.7034286
20
21.7725454
40
0.2279293
50
29.8589978
51
93.6039766
0
ARC
8
DEFAULT_255_2_778
10
17.6748139
20
21.77578
40
0.2246986
50
86.3544557
51
150.4715599
0
ARC
8
DEFAULT_255_2_778
10
17.8983213
20
21.6597176
40
0.4764652
50
151.5743044
51
171.2403219
0
ARC
8
DEFAULT_255_2_778
10
18.5751577
20
21.5392812
40
1.1638576
50
170.4547994
51
180.0717417
0
ARC
8
DEFAULT_255_2_778
10
18.639696
20
21.2117488
40
1.2284563
50
179.4274732
51
188.9174549
0
ARC
8
DEFAULT_255_2_778
10
17.9318431
20
21.0944382
40
0.5110121
50
188.22593
51
206.9411884
0
ARC
8
DEFAULT_255_2_778
10
17.7497665
20
21.011537
40
0.3112538
50
208.5227177
51
210.2524444
0
ARC
8
DEFAULT_255_2_778
10
17.6811961
20
20.962595
40
0.2274956
50
208.3051773
51
272.5458256
0
ARC
8
DEFAULT_255_2_778
10
17.7030655
20
20.9591547
40
0.2241398
50
266.9913287
51
330.2179147
0
ARC
8
DEFAULT_255_2_778
10
17.5022923
20
21.0695696
40
0.453255
50
330.7100533
51
350.2131604
0
ARC
8
DEFAULT_255_2_778
10
16.8709265
20
21.1939242
40
1.0966764
50
349.4177961
51
358.8612159
0
ARC
8
DEFAULT_255_2_778
10
16.2897571
20
21.2217271
40
1.6783621
50
358.3065664
51
359.3205329
0
LINE
8
DEFAULT_255_2_778
10
18.1556011
20
21.5092239
11
18.1556011
21
21.2547239
0
LINE
8
DEFAULT_255_2_778
10
17.2240011
20
21.2282239
11
17.2240011
21
21.4899239
0
LINE
8
DEFAULT_255_2_778
10
18.1556011
20
21.5090239
11
18.1556011
21
21.5092239
0
LINE
8
DEFAULT_255_2_778
10
17.9680011
20
21.2018239
11
17.9680011
21
21.5230239
0
LINE
8
DEFAULT_255_2_778
10
17.4113011
20
21.5378239
11
17.4113011
21
21.2240239
0
LINE
8
DEFAULT_255_2_778
10
17.9680011
20
21.2018239
11
17.9680011
21
21.2018239
0
LINE
8
DEFAULT_255_2_778
10
18.5135844
20
22.1400573
11
18.9331844
21
20.8671573
0
LINE
8
DEFAULT_255_2_778
10
18.9331844
20
20.8671573
11
19.3548844
21
22.1400573
0
LINE
8
DEFAULT_255_2_778
10
19.3548844
20
22.1400573
11
19.5678844
21
22.1400573
0
LINE
8
DEFAULT_255_2_778
10
19.5678844
20
22.1400573
11
19.0204844
21
20.5967573
0
LINE
8
DEFAULT_255_2_778
10
19.0204844
20
20.5967573
11
18.8482844
21
20.5967573
0
LINE
8
DEFAULT_255_2_778
10
18.8482844
20
20.5967573
11
18.3018844
21
22.1400573
0
LINE
8
DEFAULT_255_2_778
10
18.3018844
20
22.1400573
11
18.5137844
21
22.1400573
0
LINE
8
DEFAULT_255_2_778
10
18.5137844
20
22.1400573
11
18.5135844
21
22.1400573
0
ARC
8
DEFAULT_255_2_778
10
16.6096893
20
17.717848
40
1.5459589
50
351.4419372
51
0.4475591
0
ARC
8
DEFAULT_255_2_778
10
17.3739488
20
17.597058
40
0.7722553
50
335.8036461
51
351.8659076
0
ARC
8
DEFAULT_255_2_778
10
17.6472165
20
17.482078
40
0.4759223
50
326.2867887
51
334.9459255
0
ARC
8
DEFAULT_255_2_778
10
17.7291981
20
17.4317753
40
0.3798256
50
270.886154
51
325.734736
0
ARC
8
DEFAULT_255_2_778
10
17.6918306
20
17.686648
40
0.6361242
50
269.9523044
51
273.8977949
0
ARC
8
DEFAULT_255_2_778
10
17.6777882
20
17.5145542
40
0.464227
50
242.6232461
51
271.6680171
0
ARC
8
DEFAULT_255_2_778
10
17.6380224
20
17.4163129
40
0.3588383
50
214.2757091
51
241.0482046
0
ARC
8
DEFAULT_255_2_778
10
17.8446574
20
17.5467015
40
0.6030818
50
192.2808277
51
213.4560831
0
ARC
8
DEFAULT_255_2_778
10
18.4466265
20
17.6903151
40
1.2218848
50
181.7234473
51
192.8569592
0
ARC
8
DEFAULT_255_2_778
10
19.0165465
20
17.7249806
40
1.7926751
50
180.6889902
51
182.2830733
0
ARC
8
DEFAULT_255_2_778
10
18.7240174
20
17.977506
40
1.5000674
50
171.1411026
51
180.472945
0
ARC
8
DEFAULT_255_2_778
10
17.9771991
20
18.0994825
40
0.7433942
50
155.0191608
51
171.5657896
0
ARC
8
DEFAULT_255_2_778
10
17.7208016
20
18.2107989
40
0.4640309
50
145.9341218
51
154.1081492
0
ARC
8
DEFAULT_255_2_778
10
17.6486037
20
18.254555
40
0.3797361
50
91.5873047
51
145.3012914
0
ARC
8
DEFAULT_255_2_778
10
17.6883794
20
17.9960421
40
0.6400821
50
89.9354032
51
94.5066605
0
ARC
8
DEFAULT_255_2_778
10
17.7025259
20
18.1536991
40
0.4826116
50
64.3062375
51
91.5940043
0
ARC
8
DEFAULT_255_2_778
10
17.7513037
20
18.2754032
40
0.3519033
50
34.8763255
51
62.8714718
0
ARC
8
DEFAULT_255_2_778
10
17.567061
20
18.1598176
40
0.5692438
50
12.7212218
51
33.8167741
0
ARC
8
DEFAULT_255_2_778
10
16.963699
20
18.0107767
40
1.1906809
50
2.2809667
51
13.3235801
0
ARC
8
DEFAULT_255_2_778
10
16.3287545
20
17.9677467
40
1.8269209
50
0.5167655
51
2.8368732
0
ARC
8
DEFAULT_255_2_778
10
16.6939432
20
18.0097136
40
1.2741096
50
359.4833099
51
8.1464179
0
ARC
8
DEFAULT_255_2_778
10
17.4365627
20
18.122671
40
0.5230187
50
7.4249234
51
25.0330781
0
ARC
8
DEFAULT_255_2_778
10
17.6448152
20
18.211089
40
0.2970235
50
26.5779889
51
30.3622226
0
ARC
8
DEFAULT_255_2_778
10
17.7034286
20
18.2477454
40
0.2279293
50
29.8589978
51
93.6039766
0
ARC
8
DEFAULT_255_2_778
10
17.6748139
20
18.25098
40
0.2246986
50
86.3544557
51
150.4715599
0
ARC
8
DEFAULT_255_2_778
10
17.8983213
20
18.1349176
40
0.4764652
50
151.5743044
51
171.2403219
0
ARC
8
DEFAULT_255_2_778
10
18.5751577
20
18.0144812
40
1.1638576
50
170.4547994
51
180.0717417
0
ARC
8
DEFAULT_255_2_778
10
18.639696
20
17.6869488
40
1.2284563
50
179.4274732
51
188.9174549
0
ARC
8
DEFAULT_255_2_778
10
17.9318431
20
17.5696382
40
0.5110121
50
188.22593
51
206.9411884
0
ARC
8
DEFAULT_255_2_778
10
17.7497665
20
17.486737
40
0.3112538
50
208.5227177
51
210.2524444
0
ARC
8
DEFAULT_255_2_778
10
17.6811961
20
17.437795
40
0.2274956
50
208.3051773
51
272.5458256
0
ARC
8
DEFAULT_255_2_778
10
17.7030655
20
17.4343547
40
0.2241398
50
266.9913287
51
330.2179147
0
ARC
8
DEFAULT_255_2_778
10
17.5022923
20
17.5447696
40
0.453255
50
330.7100533
51
350.2131604
0
ARC
8
DEFAULT_255_2_778
10
16.8709265
20
17.6691242
40
1.0966764
50
349.4177961
51
358.8612159
0
ARC
8
DEFAULT_255_2_778
10
16.2897571
20
17.6969271
40
1.6783621
50
358.3065664
51
359.3205329
0
LINE
8
DEFAULT_255_2_778
10
18.1556011
20
17.9844239
11
18.1556011
21
17.7299239
0
LINE
8
DEFAULT_255_2_778
10
17.2240011
20
17.7034239
11
17.2240011
21
17.9651239
0
LINE
8
DEFAULT_255_2_778
10
18.1556011
20
17.9842239
11
18.1556011
21
17.9844239
0
LINE
8
DEFAULT_255_2_778
10
17.9680011
20
17.6770239
11
17.9680011
21
17.9982239
0
LINE
8
DEFAULT_255_2_778
10
17.4113011
20
18.0130239
11
17.4113011
21
17.6992239
0
LINE
8
DEFAULT_255_2_778
10
17.9680011
20
17.6770239
11
17.9680011
21
17.6770239
0
LINE
8
DEFAULT_255_2_778
10
18.5135844
20
18.6152573
11
18.9331844
21
17.3423573
0
LINE
8
DEFAULT_255_2_778
10
18.9331844
20
17.3423573
11
19.3548844
21
18.6152573
0
LINE
8
DEFAULT_255_2_778
10
19.3548844
20
18.6152573
11
19.5678844
21
18.6152573
0
LINE
8
DEFAULT_255_2_778
10
19.5678844
20
18.6152573
11
19.0204844
21
17.0719573
0
LINE
8
DEFAULT_255_2_778
10
19.0204844
20
17.0719573
11
18.8482844
21
17.0719573
0
LINE
8
DEFAULT_255_2_778
10
18.8482844
20
17.0719573
11
18.3018844
21
18.6152573
0
LINE
8
DEFAULT_255_2_778
10
18.3018844
20
18.6152573
11
18.5137844
21
18.6152573
0
LINE
8
DEFAULT_255_2_778
10
18.5137844
20
18.6152573
11
18.5135844
21
18.6152573
0
ARC
8
DEFAULT_255_2_778
10
16.6104344
20
14.1930872
40
1.5452138
50
351.4398789
51
0.4475199
0
ARC
8
DEFAULT_255_2_778
10
17.3740742
20
14.072369
40
0.7721334
50
335.8010754
51
351.8634285
0
ARC
8
DEFAULT_255_2_778
10
17.6471337
20
13.9574658
40
0.476022
50
326.2867593
51
334.9437705
0
ARC
8
DEFAULT_255_2_778
10
17.7291602
20
13.9069514
40
0.379769
50
270.8920059
51
325.7574343
0
ARC
8
DEFAULT_255_2_778
10
17.6918334
20
14.1613657
40
0.6356098
50
269.9520127
51
273.9007011
0
ARC
8
DEFAULT_255_2_778
10
17.6777921
20
13.9895525
40
0.463993
50
242.6077301
51
271.6683714
0
ARC
8
DEFAULT_255_2_778
10
17.6381518
20
13.8915953
40
0.3589171
50
214.2574974
51
241.0315581
0
ARC
8
DEFAULT_255_2_778
10
17.8441036
20
14.0218316
40
0.6025083
50
192.2778907
51
213.4690778
0
ARC
8
DEFAULT_255_2_778
10
18.4467659
20
14.1656097
40
1.2220234
50
181.7221597
51
192.8560681
0
ARC
8
DEFAULT_255_2_778
10
19.0174926
20
14.2003169
40
1.7936212
50
180.6887533
51
182.2824554
0
ARC
8
DEFAULT_255_2_778
10
18.7240174
20
14.4530383
40
1.5000674
50
171.1411026
51
180.472945
0
ARC
8
DEFAULT_255_2_778
10
17.9771991
20
14.5750148
40
0.7433942
50
155.0191608
51
171.5657896
0
ARC
8
DEFAULT_255_2_778
10
17.7208016
20
14.6863312
40
0.4640309
50
145.9341218
51
154.1081492
0
ARC
8
DEFAULT_255_2_778
10
17.6486037
20
14.7300873
40
0.3797361
50
91.5873047
51
145.3012914
0
ARC
8
DEFAULT_255_2_778
10
17.6883794
20
14.4715744
40
0.6400821
50
89.9354032
51
94.5066605
0
ARC
8
DEFAULT_255_2_778
10
17.7025259
20
14.6292314
40
0.4826116
50
64.3062375
51
91.5940043
0
ARC
8
DEFAULT_255_2_778
10
17.7513037
20
14.7509355
40
0.3519033
50
34.8763255
51
62.8714718
0
ARC
8
DEFAULT_255_2_778
10
17.567061
20
14.6353499
40
0.5692438
50
12.7212218
51
33.8167741
0
ARC
8
DEFAULT_255_2_778
10
16.963699
20
14.486309
40
1.1906809
50
2.2809667
51
13.3235801
0
ARC
8
DEFAULT_255_2_778
10
16.3287545
20
14.443279
40
1.8269209
50
0.5167655
51
2.8368732
0
ARC
8
DEFAULT_255_2_778
10
16.6925923
20
14.4849947
40
1.2754609
50
359.4816655
51
8.1422149
0
ARC
8
DEFAULT_255_2_778
10
17.4370547
20
14.5980985
40
0.5225248
50
7.4267213
51
24.9738786
0
ARC
8
DEFAULT_255_2_778
10
17.6461443
20
14.6867235
40
0.2956736
50
26.5126976
51
30.4251494
0
ARC
8
DEFAULT_255_2_778
10
17.7033991
20
14.7231223
40
0.2278829
50
29.8237739
51
93.5972803
0
ARC
8
DEFAULT_255_2_778
10
17.6748139
20
14.7263123
40
0.2246986
50
86.3544557
51
150.4715599
0
ARC
8
DEFAULT_255_2_778
10
17.8983492
20
14.6102537
40
0.4764879
50
151.5762998
51
171.2446121
0
ARC
8
DEFAULT_255_2_778
10
18.5759323
20
14.4897207
40
1.1646322
50
170.4579754
51
180.0720481
0
ARC
8
DEFAULT_255_2_778
10
18.639696
20
14.1621811
40
1.2284563
50
179.4274732
51
188.9174549
0
ARC
8
DEFAULT_255_2_778
10
17.9318431
20
14.0448704
40
0.5110121
50
188.22593
51
206.9411884
0
ARC
8
DEFAULT_255_2_778
10
17.7497665
20
13.9619693
40
0.3112538
50
208.5227177
51
210.2524444
0
ARC
8
DEFAULT_255_2_778
10
17.6811643
20
13.9131618
40
0.2275315
50
208.3387888
51
272.5534191
0
ARC
8
DEFAULT_255_2_778
10
17.7030959
20
13.9097304
40
0.2241847
50
266.9841622
51
330.1822583
0
ARC
8
DEFAULT_255_2_778
10
17.5016868
20
14.0201899
40
0.4538751
50
330.7267546
51
350.208991
0
ARC
8
DEFAULT_255_2_778
10
16.8711246
20
14.1443909
40
1.0964788
50
349.4166975
51
358.8598267
0
ARC
8
DEFAULT_255_2_778
10
16.290994
20
14.1721532
40
1.6771253
50
358.3059292
51
359.3202432
0
LINE
8
DEFAULT_255_2_778
10
18.1556011
20
14.4597562
11
18.1556011
21
14.2051562
0
LINE
8
DEFAULT_255_2_778
10
17.2240011
20
14.1787562
11
17.2240011
21
14.4406562
0
LINE
8
DEFAULT_255_2_778
10
18.1556011
20
14.4597562
11
18.1556011
21
14.4597562
0
LINE
8
DEFAULT_255_2_778
10
17.9680011
20
14.1522562
11
17.9680011
21
14.4734562
0
LINE
8
DEFAULT_255_2_778
10
17.4113011
20
14.4882562
11
17.4113011
21
14.1744562
0
LINE
8
DEFAULT_255_2_778
10
17.9680011
20
14.1522562
11
17.9680011
21
14.1522562
0
LINE
8
DEFAULT_255_2_778
10
18.5135844
20
15.0904573
11
18.9331844
21
13.8175573
0
LINE
8
DEFAULT_255_2_778
10
18.9331844
20
13.8175573
11
19.3548844
21
15.0904573
0
LINE
8
DEFAULT_255_2_778
10
19.3548844
20
15.0904573
11
19.5678844
21
15.0904573
0
LINE
8
DEFAULT_255_2_778
10
19.5678844
20
15.0904573
11
19.0204844
21
13.5471573
0
LINE
8
DEFAULT_255_2_778
10
19.0204844
20
13.5471573
11
18.8482844
21
13.5471573
0
LINE
8
DEFAULT_255_2_778
10
18.8482844
20
13.5471573
11
18.3018844
21
15.0904573
0
LINE
8
DEFAULT_255_2_778
10
18.3018844
20
15.0904573
11
18.5137844
21
15.0904573
0
LINE
8
DEFAULT_255_2_778
10
18.5137844
20
15.0904573
11
18.5135844
21
15.0904573
0
ENDSEC
0
EOF