0
SECTION
2
HEADER
9
$MEASUREMENT
70
1
0
ENDSEC
0
SECTION
2
TABLES
0
TABLE
2
LTYPE
0
LTYPE
72
65
70
64
2
CONTINUOUS
3
______
73
0
40
0
0
ENDTAB
0
TABLE
2
LAYER
0
LAYER
2
DEFAULT_255_2_778
70
0
62
255
6
CONTINUOUS
0
ENDTAB
0
ENDSEC
0
SECTION
2
ENTITIES
0
LINE
8
DEFAULT_255_2_778
10
26.6521854
20
73.1628094
11
25.6483854
21
73.1628094
0
LINE
8
DEFAULT_255_2_778
10
25.6483854
20
73.1628094
11
25.6483854
21
73.2620094
0
LINE
8
DEFAULT_255_2_778
10
25.6483854
20
73.2620094
11
26.6521854
21
73.2620094
0
LINE
8
DEFAULT_255_2_778
10
26.6521854
20
73.2620094
11
26.6521854
21
73.1628094
0
LINE
8
DEFAULT_255_2_778
10
26.6521854
20
73.1628094
11
26.6521854
21
73.1628094
0
LINE
8
DEFAULT_255_2_778
10
26.6521854
20
72.4029896
11
25.6483854
21
72.4029896
0
LINE
8
DEFAULT_255_2_778
10
25.6483854
20
72.4029896
11
25.6483854
21
72.5027896
0
LINE
8
DEFAULT_255_2_778
10
25.6483854
20
72.5027896
11
26.4219854
21
72.8816896
0
LINE
8
DEFAULT_255_2_778
10
26.4219854
20
72.8816896
11
25.6483854
21
72.8816896
0
LINE
8
DEFAULT_255_2_778
10
25.6483854
20
72.8816896
11
25.6483854
21
72.9813896
0
LINE
8
DEFAULT_255_2_778
10
25.6483854
20
72.9813896
11
26.6521854
21
72.9813896
0
LINE
8
DEFAULT_255_2_778
10
26.6521854
20
72.9813896
11
26.6521854
21
72.8816896
0
LINE
8
DEFAULT_255_2_778
10
26.6521854
20
72.8816896
11
25.8750854
21
72.5016896
0
LINE
8
DEFAULT_255_2_778
10
25.8750854
20
72.5016896
11
26.6521854
21
72.5016896
0
LINE
8
DEFAULT_255_2_778
10
26.6521854
20
72.5016896
11
26.6521854
21
72.4029896
0
LINE
8
DEFAULT_255_2_778
10
26.6521854
20
72.4029896
11
26.6521854
21
72.4029896
0
ARC
8
DEFAULT_255_2_778
10
26.4145557
20
71.9376904
40
0.2379199
50
310.1881891
51
2.8298386
0
ARC
8
DEFAULT_255_2_778
10
26.3657706
20
72.0140366
40
0.3279436
50
269.4127945
51
308.0915387
0
ARC
8
DEFAULT_255_2_778
10
26.3453955
20
72.2145855
40
0.5287491
50
269.988069
51
271.8439849
0
ARC
8
DEFAULT_255_2_778
10
26.3324993
20
72.0742639
40
0.3886378
50
245.403276
51
271.8853652
0
ARC
8
DEFAULT_255_2_778
10
26.2778325
20
71.9371421
40
0.241317
50
229.2108157
51
243.6536838
0
ARC
8
DEFAULT_255_2_778
10
26.2863587
20
71.9352103
40
0.2455458
50
176.4448384
51
227.4097634
0
ARC
8
DEFAULT_255_2_778
10
26.3000774
20
71.9399086
40
0.1508931
50
176.3797472
51
228.1914281
0
ARC
8
DEFAULT_255_2_778
10
26.3257411
20
71.994517
40
0.2094192
50
232.9232155
51
271.8075781
0
ARC
8
DEFAULT_255_2_778
10
26.3439003
20
72.1881246
40
0.4030881
50
268.3575331
51
270.012103
0
ARC
8
DEFAULT_255_2_778
10
26.3555185
20
72.0097254
40
0.2249848
50
267.0616308
51
305.8817822
0
ARC
8
DEFAULT_255_2_778
10
26.3975181
20
71.9420919
40
0.1456777
50
308.0894537
51
0.6861569
0
LINE
8
DEFAULT_255_2_778
10
26.0412854
20
71.9504365
11
26.0412854
21
72.1277365
0
LINE
8
DEFAULT_255_2_778
10
26.0412854
20
72.1277365
11
25.6483854
21
72.1277365
0
LINE
8
DEFAULT_255_2_778
10
25.6483854
20
72.1277365
11
25.6483854
21
72.2269365
0
LINE
8
DEFAULT_255_2_778
10
25.6483854
20
72.2269365
11
26.6521854
21
72.2269365
0
LINE
8
DEFAULT_255_2_778
10
26.6521854
20
72.2269365
11
26.6521854
21
71.9494365
0
LINE
8
DEFAULT_255_2_778
10
26.6521854
20
71.9494365
11
26.6521854
21
71.9494365
0
LINE
8
DEFAULT_255_2_778
10
26.5680854
20
71.7559365
11
26.5680854
21
71.7559365
0
LINE
8
DEFAULT_255_2_778
10
26.5680854
20
71.7559365
11
26.5680854
21
71.7559365
0
LINE
8
DEFAULT_255_2_778
10
26.3452854
20
71.6858365
11
26.3452854
21
71.6858365
0
LINE
8
DEFAULT_255_2_778
10
26.3452854
20
71.6858365
11
26.3452854
21
71.6858365
0
LINE
8
DEFAULT_255_2_778
10
26.1201854
20
71.7544365
11
26.1201854
21
71.7544365
0
LINE
8
DEFAULT_255_2_778
10
26.1201854
20
71.7544365
11
26.1201854
21
71.7544365
0
LINE
8
DEFAULT_255_2_778
10
26.0412854
20
71.9504365
11
26.0412854
21
71.9504365
0
LINE
8
DEFAULT_255_2_778
10
26.0412854
20
71.9504365
11
26.0412854
21
71.9504365
0
LINE
8
DEFAULT_255_2_778
10
26.5431854
20
72.1277365
11
26.1494854
21
72.1277365
0
LINE
8
DEFAULT_255_2_778
10
26.1494854
20
72.1277365
11
26.1494854
21
71.9494365
0
LINE
8
DEFAULT_255_2_778
10
26.1494854
20
71.9494365
11
26.1494854
21
71.9494365
0
LINE
8
DEFAULT_255_2_778
10
26.1994854
20
71.8274365
11
26.1994854
21
71.8274365
0
LINE
8
DEFAULT_255_2_778
10
26.1994854
20
71.8274365
11
26.1994854
21
71.8274365
0
LINE
8
DEFAULT_255_2_778
10
26.3439854
20
71.7850365
11
26.3439854
21
71.7850365
0
LINE
8
DEFAULT_255_2_778
10
26.3439854
20
71.7850365
11
26.3439854
21
71.7850365
0
LINE
8
DEFAULT_255_2_778
10
26.4873854
20
71.8274365
11
26.4873854
21
71.8274365
0
LINE
8
DEFAULT_255_2_778
10
26.4873854
20
71.8274365
11
26.4873854
21
71.8274365
0
LINE
8
DEFAULT_255_2_778
10
26.5431854
20
71.9438365
11
26.5431854
21
71.9438365
0
LINE
8
DEFAULT_255_2_778
10
26.5431854
20
71.9438365
11
26.5431854
21
72.1277365
0
LINE
8
DEFAULT_255_2_778
10
26.5431854
20
72.1277365
11
26.5431854
21
72.1277365
0
ARC
8
DEFAULT_255_2_778
10
25.9577505
20
71.4314679
40
0.4021542
50
240.6548835
51
271.6893582
0
ARC
8
DEFAULT_255_2_778
10
25.9163884
20
71.3398373
40
0.3021407
50
233.6503826
51
238.9762771
0
ARC
8
DEFAULT_255_2_778
10
25.8783768
20
71.2945093
40
0.2431319
50
184.2269883
51
234.5338215
0
ARC
8
DEFAULT_255_2_778
10
25.8764595
20
71.3124113
40
0.2420329
50
129.1943136
51
182.2075036
0
ARC
8
DEFAULT_255_2_778
10
25.9361334
20
71.224086
40
0.3483282
50
92.8383012
51
127.6200205
0
ARC
8
DEFAULT_255_2_778
10
25.9716179
20
70.9715767
40
0.6027215
50
90.3243139
51
95.0192874
0
ARC
8
DEFAULT_255_2_778
10
25.9601186
20
71.1680614
40
0.3082761
50
87.6970193
51
115.9327622
0
ARC
8
DEFAULT_255_2_778
10
25.9122631
20
71.2839538
40
0.1832846
50
118.3232647
51
126.552484
0
ARC
8
DEFAULT_255_2_778
10
25.89294
20
71.3106591
40
0.1503245
50
126.69812
51
182.8867093
0
ARC
8
DEFAULT_255_2_778
10
25.893328
20
71.2949024
40
0.1507442
50
176.8870466
51
233.1418697
0
ARC
8
DEFAULT_255_2_778
10
25.9469113
20
71.3873263
40
0.2571431
50
235.9428763
51
269.6340105
0
ARC
8
DEFAULT_255_2_778
10
25.9713398
20
71.615245
40
0.4857566
50
266.923398
51
270.0432225
0
LINE
8
DEFAULT_255_2_778
10
26.6522063
20
71.1292885
11
26.6522063
21
71.0294885
0
LINE
8
DEFAULT_255_2_778
10
26.6522063
20
71.0294885
11
25.9696063
21
71.0294885
0
LINE
8
DEFAULT_255_2_778
10
25.9696063
20
71.0294885
11
25.9696063
21
71.0294885
0
LINE
8
DEFAULT_255_2_778
10
25.7373063
20
71.0964885
11
25.7373063
21
71.0964885
0
LINE
8
DEFAULT_255_2_778
10
25.7373063
20
71.0964885
11
25.7373063
21
71.0964885
0
LINE
8
DEFAULT_255_2_778
10
25.6359063
20
71.2765885
11
25.6359063
21
71.2765885
0
LINE
8
DEFAULT_255_2_778
10
25.6359063
20
71.2765885
11
25.6346063
21
71.3030885
0
LINE
8
DEFAULT_255_2_778
10
25.6346063
20
71.3030885
11
25.6346063
21
71.3030885
0
LINE
8
DEFAULT_255_2_778
10
25.7235063
20
71.4999885
11
25.7235063
21
71.4999885
0
LINE
8
DEFAULT_255_2_778
10
25.7235063
20
71.4999885
11
25.7235063
21
71.4999885
0
LINE
8
DEFAULT_255_2_778
10
25.9682063
20
71.5742885
11
25.9682063
21
71.5742885
0
LINE
8
DEFAULT_255_2_778
10
25.9682063
20
71.5742885
11
26.6522063
21
71.5742885
0
LINE
8
DEFAULT_255_2_778
10
26.6522063
20
71.5742885
11
26.6522063
21
71.4760885
0
LINE
8
DEFAULT_255_2_778
10
26.6522063
20
71.4760885
11
25.9725063
21
71.4760885
0
LINE
8
DEFAULT_255_2_778
10
25.9725063
20
71.4760885
11
25.9725063
21
71.4760885
0
LINE
8
DEFAULT_255_2_778
10
25.8031063
20
71.4311885
11
25.8031063
21
71.4311885
0
LINE
8
DEFAULT_255_2_778
10
25.8031063
20
71.4311885
11
25.8031063
21
71.4311885
0
LINE
8
DEFAULT_255_2_778
10
25.7428063
20
71.3030885
11
25.7428063
21
71.3030885
0
LINE
8
DEFAULT_255_2_778
10
25.7428063
20
71.3030885
11
25.7428063
21
71.3030885
0
LINE
8
DEFAULT_255_2_778
10
25.8029063
20
71.1742885
11
25.8029063
21
71.1742885
0
LINE
8
DEFAULT_255_2_778
10
25.8029063
20
71.1742885
11
25.8029063
21
71.1742885
0
LINE
8
DEFAULT_255_2_778
10
25.9717063
20
71.1294885
11
25.9717063
21
71.1294885
0
LINE
8
DEFAULT_255_2_778
10
25.9717063
20
71.1294885
11
26.6522063
21
71.1294885
0
LINE
8
DEFAULT_255_2_778
10
26.6522063
20
71.1294885
11
26.6522063
21
71.1292885
0
LINE
8
DEFAULT_255_2_778
10
26.6521854
20
70.3532094
11
26.5431854
21
70.3532094
0
LINE
8
DEFAULT_255_2_778
10
26.5431854
20
70.3532094
11
26.5431854
21
70.5950094
0
LINE
8
DEFAULT_255_2_778
10
26.5431854
20
70.5950094
11
25.6483854
21
70.5950094
0
LINE
8
DEFAULT_255_2_778
10
25.6483854
20
70.5950094
11
25.6483854
21
70.6937094
0
LINE
8
DEFAULT_255_2_778
10
25.6483854
20
70.6937094
11
26.5431854
21
70.6937094
0
LINE
8
DEFAULT_255_2_778
10
26.5431854
20
70.6937094
11
26.5431854
21
70.9350094
0
LINE
8
DEFAULT_255_2_778
10
26.5431854
20
70.9350094
11
26.6521854
21
70.9350094
0
LINE
8
DEFAULT_255_2_778
10
26.6521854
20
70.9350094
11
26.6521854
21
70.3532094
0
LINE
8
DEFAULT_255_2_778
10
26.6521854
20
70.3532094
11
26.6521854
21
70.3532094
0
LINE
8
DEFAULT_255_2_778
10
25.0085448
20
69.2697478
11
22.0084448
21
69.2697478
0
LINE
8
DEFAULT_255_2_778
10
22.0084448
20
69.2697478
11
22.0084448
21
74.2698478
0
LINE
8
DEFAULT_255_2_778
10
22.0084448
20
74.2698478
11
25.0085448
21
74.2698478
0
LINE
8
DEFAULT_255_2_778
10
25.0085448
20
74.2698478
11
25.0085448
21
69.2697478
0
ARC
8
DEFAULT_255_2_778
10
9.1658768
20
82.0869978
40
0.5979279
50
328.9134836
51
354.6607858
0
ARC
8
DEFAULT_255_2_778
10
9.2928617
20
82.0205258
40
0.4549398
50
311.1305342
51
327.8252202
0
ARC
8
DEFAULT_255_2_778
10
9.2594938
20
82.0726255
40
0.5162113
50
274.3910087
51
310.116353
0
ARC
8
DEFAULT_255_2_778
10
9.2153324
20
82.3567741
40
0.8032161
50
269.8914354
51
275.9802738
0
ARC
8
DEFAULT_255_2_778
10
9.1952376
20
82.0618859
40
0.5086658
50
219.6717879
51
272.0924992
0
ARC
8
DEFAULT_255_2_778
10
9.3131384
20
82.1526097
40
0.6573552
50
187.8587852
51
219.1980457
0
ARC
8
DEFAULT_255_2_778
10
9.6845704
20
82.2234709
40
1.0351696
50
179.7515691
51
188.9331235
0
ARC
8
DEFAULT_255_2_778
10
9.5012873
20
82.3804098
40
0.8519847
50
159.6295775
51
180.911303
0
ARC
8
DEFAULT_255_2_778
10
9.3322041
20
82.432848
40
0.6752921
50
154.7544253
51
158.8067952
0
ARC
8
DEFAULT_255_2_778
10
9.2109211
20
82.5011717
40
0.5365476
50
122.1870214
51
155.829914
0
ARC
8
DEFAULT_255_2_778
10
9.2190066
20
82.4690325
40
0.5681474
50
88.8196197
51
121.1505451
0
ARC
8
DEFAULT_255_2_778
10
9.244185
20
82.4476813
40
0.5895321
50
65.5639022
51
91.3096872
0
ARC
8
DEFAULT_255_2_778
10
9.2949142
20
82.5799192
40
0.448235
50
47.1918471
51
64.4749068
0
ARC
8
DEFAULT_255_2_778
10
9.2443518
20
82.5367256
40
0.5143411
50
8.1089737
51
46.3293539
0
ARC
8
DEFAULT_255_2_778
10
8.9899532
20
82.4764591
40
0.7750618
50
5.6792984
51
9.8671255
0
ARC
8
DEFAULT_255_2_778
10
9.0231774
20
82.486739
40
0.550455
50
6.930451
51
25.5918169
0
ARC
8
DEFAULT_255_2_778
10
9.2668513
20
82.599502
40
0.2820006
50
26.3143922
51
46.235375
0
ARC
8
DEFAULT_255_2_778
10
9.258574
20
82.5705434
40
0.3089594
50
48.8423396
51
89.1319606
0
ARC
8
DEFAULT_255_2_778
10
9.2308145
20
82.349622
40
0.5308375
50
86.4964013
51
90.0436098
0
ARC
8
DEFAULT_255_2_778
10
9.2160467
20
82.540441
40
0.3403216
50
87.5810417
51
142.9562006
0
ARC
8
DEFAULT_255_2_778
10
9.345536
20
82.4523643
40
0.4967962
50
143.8450859
51
171.1220357
0
ARC
8
DEFAULT_255_2_778
10
9.7692154
20
82.3683651
40
0.92853
50
170.0355638
51
180.4199575
0
ARC
8
DEFAULT_255_2_778
10
9.6423809
20
82.2093511
40
0.801768
50
179.1061003
51
196.0283999
0
ARC
8
DEFAULT_255_2_778
10
9.3382921
20
82.1257392
40
0.4864278
50
196.4526382
51
214.8099006
0
ARC
8
DEFAULT_255_2_778
10
9.2013357
20
82.0259772
40
0.3170517
50
214.1363025
51
272.2006924
0
ARC
8
DEFAULT_255_2_778
10
9.2261435
20
82.154473
40
0.4454928
50
268.3750201
51
291.8091756
0
ARC
8
DEFAULT_255_2_778
10
9.2886217
20
81.9812219
40
0.2615076
50
293.2026143
51
310.0557978
0
ARC
8
DEFAULT_255_2_778
10
9.2499676
20
82.0060067
40
0.3056577
50
312.6128586
51
343.918652
0
ARC
8
DEFAULT_255_2_778
10
8.9017362
20
82.1295788
40
0.67486
50
342.0270796
51
351.6314238
0
LINE
8
DEFAULT_255_2_778
10
9.5696104
20
82.0313594
11
9.7612104
21
82.0313594
0
LINE
8
DEFAULT_255_2_778
10
8.6494104
20
82.2279594
11
8.6494104
21
82.3668594
0
LINE
8
DEFAULT_255_2_778
10
9.7612104
20
82.5531594
11
9.5696104
21
82.5531594
0
LINE
8
DEFAULT_255_2_778
10
8.8407104
20
82.3615594
11
8.8407104
21
82.2218594
0
LINE
8
DEFAULT_255_2_778
10
9.5694104
20
82.0313594
11
9.5696104
21
82.0313594
0
ARC
8
DEFAULT_255_2_778
10
9.5134923
20
82.1768703
40
1.3653168
50
350.6279035
51
0.5086811
0
ARC
8
DEFAULT_255_2_778
10
10.2019582
20
82.0572601
40
0.6665891
50
332.9063517
51
351.1350425
0
ARC
8
DEFAULT_255_2_778
10
10.4181886
20
81.9557473
40
0.4279304
50
324.9828599
51
331.8206726
0
ARC
8
DEFAULT_255_2_778
10
10.4673458
20
81.9269516
40
0.3711768
50
272.3817663
51
324.2690085
0
ARC
8
DEFAULT_255_2_778
10
10.4254164
20
82.1863007
40
0.6328097
50
269.9129732
51
275.2001387
0
ARC
8
DEFAULT_255_2_778
10
10.4109918
20
82.0242527
40
0.4709535
50
243.7693399
51
271.6381749
0
ARC
8
DEFAULT_255_2_778
10
10.3638302
20
81.9083526
40
0.3462589
50
215.6194669
51
242.2929744
0
ARC
8
DEFAULT_255_2_778
10
10.5436426
20
82.0250972
40
0.5605071
50
192.003575
51
214.615546
0
ARC
8
DEFAULT_255_2_778
10
11.1193097
20
82.1602076
40
1.1517532
50
180.9094147
51
192.6220898
0
ARC
8
DEFAULT_255_2_778
10
11.6218649
20
82.1860202
40
1.6547509
50
180.7489095
51
181.526893
0
ARC
8
DEFAULT_255_2_778
10
11.3003089
20
82.421348
40
1.3331073
50
170.5151526
51
180.513882
0
ARC
8
DEFAULT_255_2_778
10
10.63089
20
82.5390056
40
0.6534768
50
152.6211079
51
171.0182302
0
ARC
8
DEFAULT_255_2_778
10
10.4219535
20
82.6382197
40
0.4223941
50
144.668703
51
151.5381204
0
ARC
8
DEFAULT_255_2_778
10
10.3767399
20
82.663872
40
0.3707098
50
93.0467039
51
143.8619694
0
ARC
8
DEFAULT_255_2_778
10
10.421145
20
82.4004076
40
0.6368851
50
89.8911243
51
95.7771267
0
ARC
8
DEFAULT_255_2_778
10
10.4355263
20
82.5453255
40
0.4921425
50
65.7198402
51
91.5335803
0
ARC
8
DEFAULT_255_2_778
10
10.491503
20
82.6877205
40
0.3394089
50
36.1820758
51
64.4490308
0
ARC
8
DEFAULT_255_2_778
10
10.3322973
20
82.5847916
40
0.528788
50
12.3972937
51
34.9999671
0
ARC
8
DEFAULT_255_2_778
10
9.7577542
20
82.4451306
40
1.119994
50
1.5319484
51
13.0652289
0
ARC
8
DEFAULT_255_2_778
10
9.1981619
20
82.4122202
40
1.6803618
50
0.5173119
51
2.143607
0
ARC
8
DEFAULT_255_2_778
10
9.5828628
20
82.4521114
40
1.1125596
50
359.3706818
51
9.2333247
0
ARC
8
DEFAULT_255_2_778
10
10.2508119
20
82.5671127
40
0.4348586
50
8.3985712
51
28.7112958
0
ARC
8
DEFAULT_255_2_778
10
10.4077054
20
82.6433945
40
0.2607471
50
30.5723694
51
31.4889474
0
ARC
8
DEFAULT_255_2_778
10
10.4383112
20
82.6615649
40
0.2251579
50
31.614107
51
93.9361766
0
ARC
8
DEFAULT_255_2_778
10
10.4075243
20
82.664182
40
0.2225383
50
86.0497066
51
148.6105579
0
ARC
8
DEFAULT_255_2_778
10
10.5982513
20
82.5645276
40
0.4374898
50
150.4798718
51
171.3996377
0
ARC
8
DEFAULT_255_2_778
10
11.2048948
20
82.4555824
40
1.0537411
50
170.4751519
51
180.091932
0
ARC
8
DEFAULT_255_2_778
10
11.2460325
20
82.1483359
40
1.0949415
50
179.3796014
51
189.4965536
0
ARC
8
DEFAULT_255_2_778
10
10.6065488
20
82.0347388
40
0.4455273
50
188.6563672
51
209.5974204
0
ARC
8
DEFAULT_255_2_778
10
10.4136613
20
81.92762
40
0.2249121
50
210.1390288
51
272.8782957
0
ARC
8
DEFAULT_255_2_778
10
10.4380305
20
81.9244622
40
0.2218562
50
266.6212723
51
328.3329519
0
ARC
8
DEFAULT_255_2_778
10
10.2584746
20
82.0224585
40
0.4262632
50
329.792542
51
350.7361391
0
ARC
8
DEFAULT_255_2_778
10
9.6232379
20
82.1428479
40
1.0727232
50
349.8517191
51
359.8100572
0
LINE
8
DEFAULT_255_2_778
10
10.8787552
20
82.4271916
11
10.8787552
21
82.1889916
0
LINE
8
DEFAULT_255_2_778
10
9.9672552
20
82.1643916
11
9.9672552
21
82.4093916
0
LINE
8
DEFAULT_255_2_778
10
10.8784552
20
82.4273916
11
10.8787552
21
82.4271916
0
LINE
8
DEFAULT_255_2_778
10
10.6953552
20
82.1395916
11
10.6953552
21
82.4398916
0
LINE
8
DEFAULT_255_2_778
10
10.1511552
20
82.4538916
11
10.1511552
21
82.1601916
0
LINE
8
DEFAULT_255_2_778
10
10.6959552
20
82.1392916
11
10.6953552
21
82.1395916
0
LINE
8
DEFAULT_255_2_778
10
11.5142385
20
82.2615771
11
11.5142385
21
82.1117771
0
LINE
8
DEFAULT_255_2_778
10
11.5142385
20
82.1117771
11
11.0303385
21
82.1117771
0
LINE
8
DEFAULT_255_2_778
10
11.0303385
20
82.1117771
11
11.0303385
21
82.2615771
0
LINE
8
DEFAULT_255_2_778
10
11.0303385
20
82.2615771
11
11.5142385
21
82.2615771
0
LINE
8
DEFAULT_255_2_778
10
11.5142385
20
82.2615771
11
11.5142385
21
82.2615771
0
ARC
8
DEFAULT_255_2_778
10
11.2141923
20
82.1768703
40
1.3653168
50
350.6279035
51
0.5086811
0
ARC
8
DEFAULT_255_2_778
10
11.9026582
20
82.0572601
40
0.6665891
50
332.9063517
51
351.1350425
0
ARC
8
DEFAULT_255_2_778
10
12.1188886
20
81.9557473
40
0.4279304
50
324.9828599
51
331.8206726
0
ARC
8
DEFAULT_255_2_778
10
12.1680458
20
81.9269516
40
0.3711768
50
272.3817663
51
324.2690085
0
ARC
8
DEFAULT_255_2_778
10
12.1261164
20
82.1863007
40
0.6328097
50
269.9129732
51
275.2001387
0
ARC
8
DEFAULT_255_2_778
10
12.1116918
20
82.0242527
40
0.4709535
50
243.7693399
51
271.6381749
0
ARC
8
DEFAULT_255_2_778
10
12.0645302
20
81.9083526
40
0.3462589
50
215.6194669
51
242.2929744
0
ARC
8
DEFAULT_255_2_778
10
12.2443426
20
82.0250972
40
0.5605071
50
192.003575
51
214.615546
0
ARC
8
DEFAULT_255_2_778
10
12.8200097
20
82.1602076
40
1.1517532
50
180.9094147
51
192.6220898
0
ARC
8
DEFAULT_255_2_778
10
13.3225649
20
82.1860202
40
1.6547509
50
180.7489095
51
181.526893
0
ARC
8
DEFAULT_255_2_778
10
13.0010089
20
82.421348
40
1.3331073
50
170.5151526
51
180.513882
0
ARC
8
DEFAULT_255_2_778
10
12.33159
20
82.5390056
40
0.6534768
50
152.6211079
51
171.0182302
0
ARC
8
DEFAULT_255_2_778
10
12.1226535
20
82.6382197
40
0.4223941
50
144.668703
51
151.5381204
0
ARC
8
DEFAULT_255_2_778
10
12.0774399
20
82.663872
40
0.3707098
50
93.0467039
51
143.8619694
0
ARC
8
DEFAULT_255_2_778
10
12.121845
20
82.4004076
40
0.6368851
50
89.8911243
51
95.7771267
0
ARC
8
DEFAULT_255_2_778
10
12.1362263
20
82.5453255
40
0.4921425
50
65.7198402
51
91.5335803
0
ARC
8
DEFAULT_255_2_778
10
12.192203
20
82.6877205
40
0.3394089
50
36.1820758
51
64.4490308
0
ARC
8
DEFAULT_255_2_778
10
12.0329973
20
82.5847916
40
0.528788
50
12.3972937
51
34.9999671
0
ARC
8
DEFAULT_255_2_778
10
11.4584542
20
82.4451306
40
1.119994
50
1.5319484
51
13.0652289
0
ARC
8
DEFAULT_255_2_778
10
10.8988619
20
82.4122202
40
1.6803618
50
0.5173119
51
2.143607
0
ARC
8
DEFAULT_255_2_778
10
11.2835628
20
82.4521114
40
1.1125596
50
359.3706818
51
9.2333247
0
ARC
8
DEFAULT_255_2_778
10
11.9515119
20
82.5671127
40
0.4348586
50
8.3985712
51
28.7112958
0
ARC
8
DEFAULT_255_2_778
10
12.1084054
20
82.6433945
40
0.2607471
50
30.5723694
51
31.4889474
0
ARC
8
DEFAULT_255_2_778
10
12.1390112
20
82.6615649
40
0.2251579
50
31.614107
51
93.9361766
0
ARC
8
DEFAULT_255_2_778
10
12.1082243
20
82.664182
40
0.2225383
50
86.0497066
51
148.6105579
0
ARC
8
DEFAULT_255_2_778
10
12.2989513
20
82.5645276
40
0.4374898
50
150.4798718
51
171.3996377
0
ARC
8
DEFAULT_255_2_778
10
12.9055948
20
82.4555824
40
1.0537411
50
170.4751519
51
180.091932
0
ARC
8
DEFAULT_255_2_778
10
12.9467325
20
82.1483359
40
1.0949415
50
179.3796014
51
189.4965536
0
ARC
8
DEFAULT_255_2_778
10
12.3072488
20
82.0347388
40
0.4455273
50
188.6563672
51
209.5974204
0
ARC
8
DEFAULT_255_2_778
10
12.1143613
20
81.92762
40
0.2249121
50
210.1390288
51
272.8782957
0
ARC
8
DEFAULT_255_2_778
10
12.1387305
20
81.9244622
40
0.2218562
50
266.6212723
51
328.3329519
0
ARC
8
DEFAULT_255_2_778
10
11.9591746
20
82.0224585
40
0.4262632
50
329.792542
51
350.7361391
0
ARC
8
DEFAULT_255_2_778
10
11.3239379
20
82.1428479
40
1.0727232
50
349.8517191
51
359.8100572
0
LINE
8
DEFAULT_255_2_778
10
12.5794552
20
82.4271916
11
12.5794552
21
82.1889916
0
LINE
8
DEFAULT_255_2_778
10
11.6679552
20
82.1643916
11
11.6679552
21
82.4093916
0
LINE
8
DEFAULT_255_2_778
10
12.5791552
20
82.4273916
11
12.5794552
21
82.4271916
0
LINE
8
DEFAULT_255_2_778
10
12.3960552
20
82.1395916
11
12.3960552
21
82.4398916
0
LINE
8
DEFAULT_255_2_778
10
11.8518552
20
82.4538916
11
11.8518552
21
82.1601916
0
LINE
8
DEFAULT_255_2_778
10
12.3966552
20
82.1392916
11
12.3960552
21
82.1395916
0
LINE
8
DEFAULT_255_2_778
10
13.5891031
20
83.0172479
11
13.5891031
21
82.0581479
0
LINE
8
DEFAULT_255_2_778
10
13.5891031
20
82.0581479
11
13.7894031
21
82.0581479
0
LINE
8
DEFAULT_255_2_778
10
13.7894031
20
82.0581479
11
13.7894031
21
81.9083479
0
LINE
8
DEFAULT_255_2_778
10
13.7894031
20
81.9083479
11
13.5891031
21
81.9083479
0
LINE
8
DEFAULT_255_2_778
10
13.5891031
20
81.9083479
11
13.5891031
21
81.5731479
0
LINE
8
DEFAULT_255_2_778
10
13.5891031
20
81.5731479
11
13.4047031
21
81.5731479
0
LINE
8
DEFAULT_255_2_778
10
13.4047031
20
81.5731479
11
13.4047031
21
81.9083479
0
LINE
8
DEFAULT_255_2_778
10
13.4047031
20
81.9083479
11
12.7472031
21
81.9083479
0
LINE
8
DEFAULT_255_2_778
10
12.7472031
20
81.9083479
11
12.7472031
21
82.0165479
0
LINE
8
DEFAULT_255_2_778
10
12.7472031
20
82.0165479
11
13.3938031
21
83.0172479
0
LINE
8
DEFAULT_255_2_778
10
13.3938031
20
83.0172479
11
13.5891031
21
83.0172479
0
LINE
8
DEFAULT_255_2_778
10
13.5891031
20
83.0172479
11
13.5891031
21
83.0172479
0
LINE
8
DEFAULT_255_2_778
10
13.3827031
20
82.7267479
11
12.9551031
21
82.0584479
0
LINE
8
DEFAULT_255_2_778
10
12.9551031
20
82.0584479
11
13.4044031
21
82.0584479
0
LINE
8
DEFAULT_255_2_778
10
13.4044031
20
82.0584479
11
13.4044031
21
82.7664479
0
LINE
8
DEFAULT_255_2_778
10
13.4044031
20
82.7664479
11
13.3827031
21
82.7267479
0
LINE
8
DEFAULT_255_2_778
10
13.3827031
20
82.7267479
11
13.3827031
21
82.7267479
0
LINE
8
DEFAULT_255_2_778
10
15.0003969
20
83.0172156
11
15.0003969
21
82.8606156
0
LINE
8
DEFAULT_255_2_778
10
15.0003969
20
82.8606156
11
14.5362969
21
82.8606156
0
LINE
8
DEFAULT_255_2_778
10
14.5362969
20
82.8606156
11
14.5362969
21
81.5734156
0
LINE
8
DEFAULT_255_2_778
10
14.5362969
20
81.5734156
11
14.3468969
21
81.5734156
0
LINE
8
DEFAULT_255_2_778
10
14.3468969
20
81.5734156
11
14.3468969
21
82.8606156
0
LINE
8
DEFAULT_255_2_778
10
14.3468969
20
82.8606156
11
13.8835969
21
82.8606156
0
LINE
8
DEFAULT_255_2_778
10
13.8835969
20
82.8606156
11
13.8835969
21
83.0172156
0
LINE
8
DEFAULT_255_2_778
10
13.8835969
20
83.0172156
11
15.0003969
21
83.0172156
0
LINE
8
DEFAULT_255_2_778
10
15.0003969
20
83.0172156
11
15.0003969
21
83.0172156
0
LINE
8
DEFAULT_255_2_778
10
16.3246365
20
83.0172479
11
16.3246365
21
81.5731479
0
LINE
8
DEFAULT_255_2_778
10
16.3246365
20
81.5731479
11
16.1331365
21
81.5731479
0
LINE
8
DEFAULT_255_2_778
10
16.1331365
20
81.5731479
11
16.1331365
21
82.2406479
0
LINE
8
DEFAULT_255_2_778
10
16.1331365
20
82.2406479
11
15.4052365
21
82.2406479
0
LINE
8
DEFAULT_255_2_778
10
15.4052365
20
82.2406479
11
15.4052365
21
81.5731479
0
LINE
8
DEFAULT_255_2_778
10
15.4052365
20
81.5731479
11
15.2147365
21
81.5731479
0
LINE
8
DEFAULT_255_2_778
10
15.2147365
20
81.5731479
11
15.2147365
21
83.0172479
0
LINE
8
DEFAULT_255_2_778
10
15.2147365
20
83.0172479
11
15.4052365
21
83.0172479
0
LINE
8
DEFAULT_255_2_778
10
15.4052365
20
83.0172479
11
15.4052365
21
82.3965479
0
LINE
8
DEFAULT_255_2_778
10
15.4052365
20
82.3965479
11
16.1331365
21
82.3965479
0
LINE
8
DEFAULT_255_2_778
10
16.1331365
20
82.3965479
11
16.1331365
21
83.0172479
0
LINE
8
DEFAULT_255_2_778
10
16.1331365
20
83.0172479
11
16.3246365
21
83.0172479
0
LINE
8
DEFAULT_255_2_778
10
16.3246365
20
83.0172479
11
16.3246365
21
83.0172479
0
LINE
8
DEFAULT_255_2_778
10
16.662524
20
83.0172479
11
16.908624
21
83.0172479
0
LINE
8
DEFAULT_255_2_778
10
16.908624
20
83.0172479
11
17.380624
21
81.8390479
0
LINE
8
DEFAULT_255_2_778
10
17.380624
20
81.8390479
11
17.852624
21
83.0172479
0
LINE
8
DEFAULT_255_2_778
10
17.852624
20
83.0172479
11
18.099524
21
83.0172479
0
LINE
8
DEFAULT_255_2_778
10
18.099524
20
83.0172479
11
18.099524
21
81.5731479
0
LINE
8
DEFAULT_255_2_778
10
18.099524
20
81.5731479
11
17.909024
21
81.5731479
0
LINE
8
DEFAULT_255_2_778
10
17.909024
20
81.5731479
11
17.909024
21
82.1356479
0
LINE
8
DEFAULT_255_2_778
10
17.909024
20
82.1356479
11
17.926924
21
82.7426479
0
LINE
8
DEFAULT_255_2_778
10
17.926924
20
82.7426479
11
17.452824
21
81.5734479
0
LINE
8
DEFAULT_255_2_778
10
17.452824
20
81.5734479
11
17.307024
21
81.5734479
0
LINE
8
DEFAULT_255_2_778
10
17.307024
20
81.5734479
11
16.833924
21
82.7397479
0
LINE
8
DEFAULT_255_2_778
10
16.833924
20
82.7397479
11
16.852724
21
82.1356479
0
LINE
8
DEFAULT_255_2_778
10
16.852724
20
82.1356479
11
16.852724
21
81.5734479
0
LINE
8
DEFAULT_255_2_778
10
16.852724
20
81.5734479
11
16.662524
21
81.5734479
0
LINE
8
DEFAULT_255_2_778
10
16.662524
20
81.5734479
11
16.662524
21
83.0172479
0
LINE
8
DEFAULT_255_2_778
10
16.662524
20
83.0172479
11
16.662524
21
83.0172479
0
ARC
8
DEFAULT_255_2_778
10
4.0083485
20
77.6698027
40
0.0999088
50
359.947659
51
90.0523124
0
ARC
8
DEFAULT_255_2_778
10
4.0083489
20
76.7698199
40
0.0999085
50
269.947492
51
0.0524794
0
ARC
8
DEFAULT_255_2_778
10
4.1077112
20
77.7691653
40
0.6006464
50
0.0520945
51
89.9479055
0
ARC
8
DEFAULT_255_2_778
10
4.1077112
20
76.6704575
40
0.6006464
50
270.0520945
51
359.9479055
0
ARC
8
DEFAULT_255_2_778
10
2.5089035
20
76.6704575
40
0.6006464
50
180.0520945
51
269.9479055
0
ARC
8
DEFAULT_255_2_778
10
2.5089035
20
77.7691653
40
0.6006464
50
90.0520945
51
179.9479055
0
ARC
8
DEFAULT_255_2_778
10
2.5082657
20
77.7698031
40
0.0999084
50
89.9474432
51
180.0525568
0
ARC
8
DEFAULT_255_2_778
10
2.5083511
20
76.6698051
40
0.0999938
50
179.9390736
51
270.0035784
0
ARC
8
DEFAULT_255_2_778
10
4.1082634
20
76.6698053
40
0.0999938
50
269.9965396
51
0.0608372
0
ARC
8
DEFAULT_255_2_778
10
4.1083487
20
77.7698029
40
0.0999087
50
359.9475207
51
90.0524102
0
LINE
8
DEFAULT_255_2_778
10
4.1082573
20
77.6697114
11
4.1082573
21
76.7699114
0
LINE
8
DEFAULT_255_2_778
10
4.0082573
20
76.6699114
11
2.5083573
21
76.6699114
0
LINE
8
DEFAULT_255_2_778
10
2.5083573
20
76.6699114
11
2.5083573
21
77.7697114
0
LINE
8
DEFAULT_255_2_778
10
2.5083573
20
77.7697114
11
4.0082573
21
77.7697114
0
LINE
8
DEFAULT_255_2_778
10
4.7083573
20
77.7697114
11
4.7083573
21
76.6699114
0
LINE
8
DEFAULT_255_2_778
10
4.1082573
20
76.0698114
11
2.5083573
21
76.0698114
0
LINE
8
DEFAULT_255_2_778
10
1.9082573
20
76.6699114
11
1.9082573
21
77.7697114
0
LINE
8
DEFAULT_255_2_778
10
2.5083573
20
78.3698114
11
4.1082573
21
78.3698114
0
LINE
8
DEFAULT_255_2_778
10
2.4083573
20
77.7697114
11
2.4083573
21
76.6699114
0
LINE
8
DEFAULT_255_2_778
10
2.5083573
20
76.5698114
11
4.1082573
21
76.5698114
0
LINE
8
DEFAULT_255_2_778
10
4.2082573
20
76.6699114
11
4.2082573
21
77.7697114
0
LINE
8
DEFAULT_255_2_778
10
4.1082573
20
77.8697114
11
2.5083573
21
77.8697114
0
ARC
8
DEFAULT_255_2_778
10
4.008355
20
39.1697029
40
0.0999086
50
359.9475612
51
90.0524507
0
ARC
8
DEFAULT_255_2_778
10
2.6082723
20
39.1697028
40
0.0999087
50
89.9476589
51
180.0524102
0
ARC
8
DEFAULT_255_2_778
10
2.6082719
20
38.2697198
40
0.0999084
50
179.9474634
51
270.0525484
0
ARC
8
DEFAULT_255_2_778
10
4.0083551
20
38.2697199
40
0.0999085
50
269.947492
51
0.0524794
0
ARC
8
DEFAULT_255_2_778
10
2.6083938
20
38.2697416
40
0.2000302
50
179.9800103
51
269.9913489
0
ARC
8
DEFAULT_255_2_778
10
4.0081693
20
38.2698055
40
0.2000941
50
270.0269863
51
0.001683
0
ARC
8
DEFAULT_255_2_778
10
4.0084465
20
39.1697944
40
0.1998171
50
359.947541
51
90.052459
0
ARC
8
DEFAULT_255_2_778
10
2.6083725
20
39.1696025
40
0.2000089
50
90.0025526
51
179.9974415
0
ARC
8
DEFAULT_255_2_778
10
4.0082963
20
39.1696513
40
0.7000602
50
31.000236
51
90.0026817
0
ARC
8
DEFAULT_255_2_778
10
2.6084334
20
39.1695416
40
0.7001699
50
90.0057163
51
179.9942837
0
ARC
8
DEFAULT_255_2_778
10
2.6083054
20
38.2697532
40
0.7000418
50
179.9952377
51
270.0047623
0
ARC
8
DEFAULT_255_2_778
10
4.0081989
20
38.2700503
40
0.7003389
50
270.0052944
51
328.9773107
0
LINE
8
DEFAULT_255_2_778
10
4.1082636
20
38.2698114
11
4.1082636
21
39.1696114
0
LINE
8
DEFAULT_255_2_778
10
4.0082636
20
39.2696114
11
2.6083636
21
39.2696114
0
LINE
8
DEFAULT_255_2_778
10
2.5083636
20
39.1696114
11
2.5083636
21
38.2698114
0
LINE
8
DEFAULT_255_2_778
10
2.6083636
20
38.1698114
11
4.0082636
21
38.1698114
0
LINE
8
DEFAULT_255_2_778
10
4.1082636
20
38.2698114
11
4.1082636
21
38.2698114
0
LINE
8
DEFAULT_255_2_778
10
2.4083636
20
39.1696114
11
2.4083636
21
38.2698114
0
LINE
8
DEFAULT_255_2_778
10
2.6083636
20
38.0697114
11
4.0082636
21
38.0697114
0
LINE
8
DEFAULT_255_2_778
10
4.2082636
20
38.2698114
11
4.2082636
21
39.1696114
0
LINE
8
DEFAULT_255_2_778
10
4.0082636
20
39.3696114
11
2.6083636
21
39.3696114
0
LINE
8
DEFAULT_255_2_778
10
2.4083636
20
39.1696114
11
2.4083636
21
39.1696114
0
LINE
8
DEFAULT_255_2_778
10
4.0082636
20
39.8697114
11
2.6083636
21
39.8697114
0
LINE
8
DEFAULT_255_2_778
10
1.9082636
20
39.1696114
11
1.9082636
21
38.2698114
0
LINE
8
DEFAULT_255_2_778
10
2.6083636
20
37.5697114
11
4.0082636
21
37.5697114
0
ARC
8
DEFAULT_255_2_778
10
4.0083551
20
34.7698199
40
0.0999085
50
269.947492
51
0.0524794
0
ARC
8
DEFAULT_255_2_778
10
4.008355
20
35.6698029
40
0.0999086
50
359.9475612
51
90.0524507
0
ARC
8
DEFAULT_255_2_778
10
2.6082723
20
35.6698028
40
0.0999087
50
89.9476589
51
180.0524102
0
ARC
8
DEFAULT_255_2_778
10
2.6082719
20
34.7698198
40
0.0999084
50
179.9474634
51
270.0525484
0
ARC
8
DEFAULT_255_2_778
10
4.0084465
20
35.6698944
40
0.1998171
50
359.947541
51
90.052459
0
ARC
8
DEFAULT_255_2_778
10
2.6083725
20
35.6697025
40
0.2000089
50
90.0025526
51
179.9974415
0
ARC
8
DEFAULT_255_2_778
10
2.6083938
20
34.7698416
40
0.2000302
50
179.9800103
51
269.9913489
0
ARC
8
DEFAULT_255_2_778
10
4.0081693
20
34.7699055
40
0.2000941
50
270.0269863
51
0.001683
0
ARC
8
DEFAULT_255_2_778
10
4.0082963
20
35.6697513
40
0.7000602
50
31.000236
51
90.0026817
0
ARC
8
DEFAULT_255_2_778
10
2.6084334
20
35.6696416
40
0.7001699
50
90.0057163
51
179.9942837
0
ARC
8
DEFAULT_255_2_778
10
2.6083054
20
34.7698532
40
0.7000418
50
179.9952377
51
270.0047623
0
ARC
8
DEFAULT_255_2_778
10
4.0081989
20
34.7701503
40
0.7003389
50
270.0052944
51
328.9773107
0
LINE
8
DEFAULT_255_2_778
10
2.6083636
20
34.6699114
11
4.0082636
21
34.6699114
0
LINE
8
DEFAULT_255_2_778
10
4.1082636
20
34.7699114
11
4.1082636
21
35.6697114
0
LINE
8
DEFAULT_255_2_778
10
4.0082636
20
35.7697114
11
2.6083636
21
35.7697114
0
LINE
8
DEFAULT_255_2_778
10
2.5083636
20
35.6697114
11
2.5083636
21
34.7699114
0
LINE
8
DEFAULT_255_2_778
10
2.6083636
20
34.6699114
11
2.6083636
21
34.6699114
0
LINE
8
DEFAULT_255_2_778
10
4.2082636
20
34.7699114
11
4.2082636
21
35.6697114
0
LINE
8
DEFAULT_255_2_778
10
4.0082636
20
35.8697114
11
2.6083636
21
35.8697114
0
LINE
8
DEFAULT_255_2_778
10
2.4083636
20
35.6697114
11
2.4083636
21
34.7699114
0
LINE
8
DEFAULT_255_2_778
10
2.6083636
20
34.5698114
11
4.0082636
21
34.5698114
0
LINE
8
DEFAULT_255_2_778
10
4.2082636
20
34.7699114
11
4.2082636
21
34.7699114
0
LINE
8
DEFAULT_255_2_778
10
4.0082636
20
36.3698114
11
2.6083636
21
36.3698114
0
LINE
8
DEFAULT_255_2_778
10
1.9082636
20
35.6697114
11
1.9082636
21
34.7699114
0
LINE
8
DEFAULT_255_2_778
10
2.6083636
20
34.0698114
11
4.0082636
21
34.0698114
0
ARC
8
DEFAULT_255_2_778
10
2.6083938
20
31.2697416
40
0.2000302
50
179.9800103
51
269.9913489
0
ARC
8
DEFAULT_255_2_778
10
4.0081693
20
31.2698055
40
0.2000941
50
270.0269863
51
0.001683
0
ARC
8
DEFAULT_255_2_778
10
4.0084465
20
32.1697944
40
0.1998171
50
359.947541
51
90.052459
0
ARC
8
DEFAULT_255_2_778
10
2.6083725
20
32.1696025
40
0.2000089
50
90.0025526
51
179.9974415
0
ARC
8
DEFAULT_255_2_778
10
4.0083551
20
31.2697199
40
0.0999085
50
269.947492
51
0.0524794
0
ARC
8
DEFAULT_255_2_778
10
4.008355
20
32.1697029
40
0.0999086
50
359.9475612
51
90.0524507
0
ARC
8
DEFAULT_255_2_778
10
2.6082723
20
32.1697028
40
0.0999087
50
89.9476589
51
180.0524102
0
ARC
8
DEFAULT_255_2_778
10
2.6082719
20
31.2697198
40
0.0999084
50
179.9474634
51
270.0525484
0
ARC
8
DEFAULT_255_2_778
10
4.0082963
20
32.1696513
40
0.7000602
50
31.000236
51
90.0026817
0
ARC
8
DEFAULT_255_2_778
10
2.6084334
20
32.1695416
40
0.7001699
50
90.0057163
51
179.9942837
0
ARC
8
DEFAULT_255_2_778
10
2.6083054
20
31.2697532
40
0.7000418
50
179.9952377
51
270.0047623
0
ARC
8
DEFAULT_255_2_778
10
4.0081989
20
31.2700503
40
0.7003389
50
270.0052944
51
328.9773107
0
LINE
8
DEFAULT_255_2_778
10
2.4083636
20
32.1696114
11
2.4083636
21
31.2698114
0
LINE
8
DEFAULT_255_2_778
10
2.6083636
20
31.0697114
11
4.0082636
21
31.0697114
0
LINE
8
DEFAULT_255_2_778
10
4.2082636
20
31.2698114
11
4.2082636
21
32.1696114
0
LINE
8
DEFAULT_255_2_778
10
4.0082636
20
32.3696114
11
2.6083636
21
32.3696114
0
LINE
8
DEFAULT_255_2_778
10
2.4083636
20
32.1696114
11
2.4083636
21
32.1696114
0
LINE
8
DEFAULT_255_2_778
10
2.6083636
20
31.1698114
11
4.0082636
21
31.1698114
0
LINE
8
DEFAULT_255_2_778
10
4.1082636
20
31.2698114
11
4.1082636
21
32.1696114
0
LINE
8
DEFAULT_255_2_778
10
4.0082636
20
32.2696114
11
2.6083636
21
32.2696114
0
LINE
8
DEFAULT_255_2_778
10
2.5083636
20
32.1696114
11
2.5083636
21
31.2698114
0
LINE
8
DEFAULT_255_2_778
10
2.6083636
20
31.1698114
11
2.6083636
21
31.1698114
0
LINE
8
DEFAULT_255_2_778
10
4.0082636
20
32.8697114
11
2.6083636
21
32.8697114
0
LINE
8
DEFAULT_255_2_778
10
1.9082636
20
32.1696114
11
1.9082636
21
31.2698114
0
LINE
8
DEFAULT_255_2_778
10
2.6083636
20
30.5697114
11
4.0082636
21
30.5697114
0
ARC
8
DEFAULT_255_2_778
10
2.608272
20
28.669803
40
0.0999084
50
89.9474718
51
180.0525282
0
ARC
8
DEFAULT_255_2_778
10
2.6082719
20
27.7697197
40
0.0999084
50
179.9473944
51
270.052577
0
ARC
8
DEFAULT_255_2_778
10
4.0083552
20
27.7697198
40
0.0999084
50
269.9474634
51
0.0525484
0
ARC
8
DEFAULT_255_2_778
10
4.008355
20
28.6698028
40
0.0999086
50
359.9476101
51
90.0524305
0
ARC
8
DEFAULT_255_2_778
10
4.0084465
20
28.6695944
40
0.1998171
50
359.947541
51
90.052459
0
ARC
8
DEFAULT_255_2_778
10
2.6083725
20
28.6694025
40
0.2000089
50
90.0025526
51
179.9974415
0
ARC
8
DEFAULT_255_2_778
10
2.6083938
20
27.7695416
40
0.2000302
50
179.9800103
51
269.9913489
0
ARC
8
DEFAULT_255_2_778
10
4.0081693
20
27.7696055
40
0.2000941
50
270.0269863
51
0.001683
0
ARC
8
DEFAULT_255_2_778
10
4.0082963
20
28.6694513
40
0.7000602
50
31.000236
51
90.0026817
0
ARC
8
DEFAULT_255_2_778
10
2.6084334
20
28.6693416
40
0.7001699
50
90.0057163
51
179.9942837
0
ARC
8
DEFAULT_255_2_778
10
2.6083054
20
27.7695532
40
0.7000418
50
179.9952377
51
270.0047623
0
ARC
8
DEFAULT_255_2_778
10
4.0081989
20
27.7698503
40
0.7003389
50
270.0052944
51
328.9773107
0
LINE
8
DEFAULT_255_2_778
10
4.0082636
20
28.7697114
11
2.6083636
21
28.7697114
0
LINE
8
DEFAULT_255_2_778
10
2.5083636
20
28.6697114
11
2.5083636
21
27.7698114
0
LINE
8
DEFAULT_255_2_778
10
2.6083636
20
27.6698114
11
4.0082636
21
27.6698114
0
LINE
8
DEFAULT_255_2_778
10
4.1082636
20
27.7698114
11
4.1082636
21
28.6697114
0
LINE
8
DEFAULT_255_2_778
10
4.0082636
20
28.7697114
11
4.0082636
21
28.7697114
0
LINE
8
DEFAULT_255_2_778
10
4.2082636
20
27.7696114
11
4.2082636
21
28.6694114
0
LINE
8
DEFAULT_255_2_778
10
4.0082636
20
28.8694114
11
2.6083636
21
28.8694114
0
LINE
8
DEFAULT_255_2_778
10
2.4083636
20
28.6694114
11
2.4083636
21
27.7696114
0
LINE
8
DEFAULT_255_2_778
10
2.6083636
20
27.5695114
11
4.0082636
21
27.5695114
0
LINE
8
DEFAULT_255_2_778
10
4.2082636
20
27.7696114
11
4.2082636
21
27.7696114
0
LINE
8
DEFAULT_255_2_778
10
4.0082636
20
29.3695114
11
2.6083636
21
29.3695114
0
LINE
8
DEFAULT_255_2_778
10
1.9082636
20
28.6694114
11
1.9082636
21
27.7696114
0
LINE
8
DEFAULT_255_2_778
10
2.6083636
20
27.0695114
11
4.0082636
21
27.0695114
0
ARC
8
DEFAULT_255_2_778
10
4.008355
20
21.6697029
40
0.0999086
50
359.9475612
51
90.0524507
0
ARC
8
DEFAULT_255_2_778
10
2.6082723
20
21.6697028
40
0.0999087
50
89.9476589
51
180.0524102
0
ARC
8
DEFAULT_255_2_778
10
2.6082719
20
20.7697198
40
0.0999084
50
179.9474634
51
270.0525484
0
ARC
8
DEFAULT_255_2_778
10
4.0083551
20
20.7697199
40
0.0999085
50
269.947492
51
0.0524794
0
ARC
8
DEFAULT_255_2_778
10
4.0084465
20
21.6697944
40
0.1998171
50
359.947541
51
90.052459
0
ARC
8
DEFAULT_255_2_778
10
2.6083725
20
21.6696025
40
0.2000089
50
90.0025526
51
179.9974415
0
ARC
8
DEFAULT_255_2_778
10
2.6083938
20
20.7697416
40
0.2000302
50
179.9800103
51
269.9913489
0
ARC
8
DEFAULT_255_2_778
10
4.0081693
20
20.7698055
40
0.2000941
50
270.0269863
51
0.001683
0
ARC
8
DEFAULT_255_2_778
10
4.0082963
20
21.6696513
40
0.7000602
50
31.000236
51
90.0026817
0
ARC
8
DEFAULT_255_2_778
10
2.6084334
20
21.6695416
40
0.7001699
50
90.0057163
51
179.9942837
0
ARC
8
DEFAULT_255_2_778
10
2.6083054
20
20.7697532
40
0.7000418
50
179.9952377
51
270.0047623
0
ARC
8
DEFAULT_255_2_778
10
4.0081989
20
20.7700503
40
0.7003389
50
270.0052944
51
328.9773107
0
LINE
8
DEFAULT_255_2_778
10
4.1082636
20
20.7698114
11
4.1082636
21
21.6696114
0
LINE
8
DEFAULT_255_2_778
10
4.0082636
20
21.7696114
11
2.6083636
21
21.7696114
0
LINE
8
DEFAULT_255_2_778
10
2.5083636
20
21.6696114
11
2.5083636
21
20.7698114
0
LINE
8
DEFAULT_255_2_778
10
2.6083636
20
20.6698114
11
4.0082636
21
20.6698114
0
LINE
8
DEFAULT_255_2_778
10
4.1082636
20
20.7698114
11
4.1082636
21
20.7698114
0
LINE
8
DEFAULT_255_2_778
10
4.2082636
20
20.7698114
11
4.2082636
21
21.6696114
0
LINE
8
DEFAULT_255_2_778
10
4.0082636
20
21.8696114
11
2.6083636
21
21.8696114
0
LINE
8
DEFAULT_255_2_778
10
2.4083636
20
21.6696114
11
2.4083636
21
20.7698114
0
LINE
8
DEFAULT_255_2_778
10
2.6083636
20
20.5697114
11
4.0082636
21
20.5697114
0
LINE
8
DEFAULT_255_2_778
10
4.2082636
20
20.7698114
11
4.2082636
21
20.7698114
0
LINE
8
DEFAULT_255_2_778
10
4.0082636
20
22.3697114
11
2.6083636
21
22.3697114
0
LINE
8
DEFAULT_255_2_778
10
1.9082636
20
21.6696114
11
1.9082636
21
20.7698114
0
LINE
8
DEFAULT_255_2_778
10
2.6083636
20
20.0697114
11
4.0082636
21
20.0697114
0
ARC
8
DEFAULT_255_2_778
10
2.6082723
20
18.1698028
40
0.0999087
50
89.9476589
51
180.0524102
0
ARC
8
DEFAULT_255_2_778
10
2.6082719
20
17.2698198
40
0.0999084
50
179.9474634
51
270.0525484
0
ARC
8
DEFAULT_255_2_778
10
4.0083551
20
17.2698199
40
0.0999085
50
269.947492
51
0.0524794
0
ARC
8
DEFAULT_255_2_778
10
4.008355
20
18.1698029
40
0.0999086
50
359.9475612
51
90.0524507
0
ARC
8
DEFAULT_255_2_778
10
2.6083938
20
17.2698416
40
0.2000302
50
179.9800103
51
269.9913489
0
ARC
8
DEFAULT_255_2_778
10
4.0081693
20
17.2699055
40
0.2000941
50
270.0269863
51
0.001683
0
ARC
8
DEFAULT_255_2_778
10
4.0084465
20
18.1698944
40
0.1998171
50
359.947541
51
90.052459
0
ARC
8
DEFAULT_255_2_778
10
2.6083725
20
18.1697025
40
0.2000089
50
90.0025526
51
179.9974415
0
ARC
8
DEFAULT_255_2_778
10
4.0082963
20
18.1697513
40
0.7000602
50
31.000236
51
90.0026817
0
ARC
8
DEFAULT_255_2_778
10
2.6084334
20
18.1696416
40
0.7001699
50
90.0057163
51
179.9942837
0
ARC
8
DEFAULT_255_2_778
10
2.6083054
20
17.2698532
40
0.7000418
50
179.9952377
51
270.0047623
0
ARC
8
DEFAULT_255_2_778
10
4.0081989
20
17.2701503
40
0.7003389
50
270.0052944
51
328.9773107
0
LINE
8
DEFAULT_255_2_778
10
4.0082636
20
18.2697114
11
2.6083636
21
18.2697114
0
LINE
8
DEFAULT_255_2_778
10
2.5083636
20
18.1697114
11
2.5083636
21
17.2699114
0
LINE
8
DEFAULT_255_2_778
10
2.6083636
20
17.1699114
11
4.0082636
21
17.1699114
0
LINE
8
DEFAULT_255_2_778
10
4.1082636
20
17.2699114
11
4.1082636
21
18.1697114
0
LINE
8
DEFAULT_255_2_778
10
4.0082636
20
18.2697114
11
4.0082636
21
18.2697114
0
LINE
8
DEFAULT_255_2_778
10
2.4083636
20
18.1697114
11
2.4083636
21
17.2699114
0
LINE
8
DEFAULT_255_2_778
10
2.6083636
20
17.0698114
11
4.0082636
21
17.0698114
0
LINE
8
DEFAULT_255_2_778
10
4.2082636
20
17.2699114
11
4.2082636
21
18.1697114
0
LINE
8
DEFAULT_255_2_778
10
4.0082636
20
18.3697114
11
2.6083636
21
18.3697114
0
LINE
8
DEFAULT_255_2_778
10
2.4083636
20
18.1697114
11
2.4083636
21
18.1697114
0
LINE
8
DEFAULT_255_2_778
10
4.0082636
20
18.8698114
11
2.6083636
21
18.8698114
0
LINE
8
DEFAULT_255_2_778
10
1.9082636
20
18.1697114
11
1.9082636
21
17.2699114
0
LINE
8
DEFAULT_255_2_778
10
2.6083636
20
16.5698114
11
4.0082636
21
16.5698114
0
ARC
8
DEFAULT_255_2_778
10
2.6082723
20
14.6699028
40
0.0999087
50
89.9476589
51
180.0524102
0
ARC
8
DEFAULT_255_2_778
10
2.6082719
20
13.7699198
40
0.0999084
50
179.9474634
51
270.0525484
0
ARC
8
DEFAULT_255_2_778
10
4.0083551
20
13.7699199
40
0.0999085
50
269.947492
51
0.0524794
0
ARC
8
DEFAULT_255_2_778
10
4.008355
20
14.6699029
40
0.0999086
50
359.9475612
51
90.0524507
0
ARC
8
DEFAULT_255_2_778
10
4.0082547
20
14.6698026
40
0.2000089
50
0.0025281
51
89.9974516
0
ARC
8
DEFAULT_255_2_778
10
2.6083725
20
14.6698025
40
0.2000089
50
90.0025526
51
179.9974415
0
ARC
8
DEFAULT_255_2_778
10
2.6082659
20
13.7698138
40
0.1999024
50
179.9433584
51
270.0280008
0
ARC
8
DEFAULT_255_2_778
10
4.0081693
20
13.7700055
40
0.2000941
50
270.0269863
51
0.001683
0
ARC
8
DEFAULT_255_2_778
10
4.0082963
20
14.6698513
40
0.7000602
50
31.000236
51
90.0026817
0
ARC
8
DEFAULT_255_2_778
10
2.6084334
20
14.6697416
40
0.7001699
50
90.0057163
51
179.9942837
0
ARC
8
DEFAULT_255_2_778
10
2.6083054
20
13.7699532
40
0.7000418
50
179.9952377
51
270.0047623
0
ARC
8
DEFAULT_255_2_778
10
4.0081989
20
13.7702503
40
0.7003389
50
270.0052944
51
328.9773107
0
LINE
8
DEFAULT_255_2_778
10
4.0082636
20
14.7698114
11
2.6083636
21
14.7698114
0
LINE
8
DEFAULT_255_2_778
10
2.5083636
20
14.6698114
11
2.5083636
21
13.7700114
0
LINE
8
DEFAULT_255_2_778
10
2.6083636
20
13.6700114
11
4.0082636
21
13.6700114
0
LINE
8
DEFAULT_255_2_778
10
4.1082636
20
13.7700114
11
4.1082636
21
14.6698114
0
LINE
8
DEFAULT_255_2_778
10
4.0082636
20
14.7698114
11
4.0082636
21
14.7698114
0
LINE
8
DEFAULT_255_2_778
10
4.2082636
20
13.7700114
11
4.2082636
21
14.6698114
0
LINE
8
DEFAULT_255_2_778
10
4.0082636
20
14.8698114
11
2.6083636
21
14.8698114
0
LINE
8
DEFAULT_255_2_778
10
2.4083636
20
14.6698114
11
2.4083636
21
13.7700114
0
LINE
8
DEFAULT_255_2_778
10
2.6083636
20
13.5699114
11
4.0082636
21
13.5699114
0
LINE
8
DEFAULT_255_2_778
10
4.2082636
20
13.7700114
11
4.2082636
21
13.7700114
0
LINE
8
DEFAULT_255_2_778
10
4.0082636
20
15.3699114
11
2.6083636
21
15.3699114
0
LINE
8
DEFAULT_255_2_778
10
1.9082636
20
14.6698114
11
1.9082636
21
13.7700114
0
LINE
8
DEFAULT_255_2_778
10
2.6083636
20
13.0699114
11
4.0082636
21
13.0699114
0
ARC
8
DEFAULT_255_2_778
10
4.0082963
20
11.1696513
40
0.7000602
50
31.000236
51
90.0026817
0
ARC
8
DEFAULT_255_2_778
10
2.6084334
20
11.1695416
40
0.7001699
50
90.0057163
51
179.9942837
0
ARC
8
DEFAULT_255_2_778
10
2.6083054
20
10.2697532
40
0.7000418
50
179.9952377
51
270.0047623
0
ARC
8
DEFAULT_255_2_778
10
4.0081989
20
10.2700503
40
0.7003389
50
270.0052944
51
328.9773107
0
ARC
8
DEFAULT_255_2_778
10
2.6082719
20
10.2697198
40
0.0999084
50
179.9474634
51
270.0525484
0
ARC
8
DEFAULT_255_2_778
10
4.0077761
20
10.2702989
40
0.1004887
50
270.2779537
51
359.7220581
0
ARC
8
DEFAULT_255_2_778
10
4.0077113
20
11.1690592
40
0.1005538
50
0.3146753
51
89.6853247
0
ARC
8
DEFAULT_255_2_778
10
2.6082723
20
11.1697028
40
0.0999087
50
89.9476589
51
180.0524102
0
ARC
8
DEFAULT_255_2_778
10
2.6082659
20
10.2696138
40
0.1999024
50
179.9433584
51
270.0280008
0
ARC
8
DEFAULT_255_2_778
10
4.0081693
20
10.2698055
40
0.2000941
50
270.0269863
51
0.001683
0
ARC
8
DEFAULT_255_2_778
10
4.0082547
20
11.1696026
40
0.2000089
50
0.0025281
51
89.9974516
0
ARC
8
DEFAULT_255_2_778
10
2.6083725
20
11.1696025
40
0.2000089
50
90.0025526
51
179.9974415
0
LINE
8
DEFAULT_255_2_778
10
4.0082636
20
11.8697114
11
2.6083636
21
11.8697114
0
LINE
8
DEFAULT_255_2_778
10
1.9082636
20
11.1696114
11
1.9082636
21
10.2698114
0
LINE
8
DEFAULT_255_2_778
10
2.6083636
20
9.5697114
11
4.0082636
21
9.5697114
0
LINE
8
DEFAULT_255_2_778
10
2.5083636
20
11.1696114
11
2.5083636
21
10.2698114
0
LINE
8
DEFAULT_255_2_778
10
2.6083636
20
10.1698114
11
4.0082636
21
10.1698114
0
LINE
8
DEFAULT_255_2_778
10
4.1082636
20
10.2698114
11
4.1082636
21
11.1696114
0
LINE
8
DEFAULT_255_2_778
10
4.0082636
20
11.2696114
11
2.6083636
21
11.2696114
0
LINE
8
DEFAULT_255_2_778
10
2.5083636
20
11.1696114
11
2.5083636
21
11.1696114
0
LINE
8
DEFAULT_255_2_778
10
2.4083636
20
11.1696114
11
2.4083636
21
10.2698114
0
LINE
8
DEFAULT_255_2_778
10
2.6083636
20
10.0697114
11
4.0082636
21
10.0697114
0
LINE
8
DEFAULT_255_2_778
10
4.2082636
20
10.2698114
11
4.2082636
21
11.1696114
0
LINE
8
DEFAULT_255_2_778
10
4.0082636
20
11.3696114
11
2.6083636
21
11.3696114
0
LINE
8
DEFAULT_255_2_778
10
2.4083636
20
11.1696114
11
2.4083636
21
11.1696114
0
LINE
8
DEFAULT_255_2_778
10
5.8083084
20
41.0199177
11
5.8083084
21
43.4199177
0
LINE
8
DEFAULT_255_2_778
10
5.8083084
20
43.4199177
11
6.3084084
21
42.9198177
0
LINE
8
DEFAULT_255_2_778
10
6.3084084
20
42.9198177
11
6.3084084
21
41.5199177
0
LINE
8
DEFAULT_255_2_778
10
6.3084084
20
41.5199177
11
9.4085084
21
41.5199177
0
LINE
8
DEFAULT_255_2_778
10
9.4085084
20
42.9198177
11
6.3084084
21
42.9198177
0
LINE
8
DEFAULT_255_2_778
10
5.8083084
20
43.4199177
11
9.9083084
21
43.4199177
0
LINE
8
DEFAULT_255_2_778
10
9.9083084
20
43.4199177
11
9.4082084
21
42.9198177
0
LINE
8
DEFAULT_255_2_778
10
9.4082084
20
42.9198177
11
9.4082084
21
41.5199177
0
LINE
8
DEFAULT_255_2_778
10
9.4082084
20
41.5199177
11
9.9083084
21
41.0199177
0
LINE
8
DEFAULT_255_2_778
10
9.9083084
20
41.0199177
11
5.8083084
21
41.0199177
0
LINE
8
DEFAULT_255_2_778
10
5.8083084
20
41.0199177
11
6.3084084
21
41.5199177
0
LINE
8
DEFAULT_255_2_778
10
9.9083084
20
43.4199177
11
9.9083084
21
41.0199177
0
LINE
8
DEFAULT_255_2_778
10
6.3083761
20
39.4199177
11
6.3083761
21
38.0200177
0
LINE
8
DEFAULT_255_2_778
10
5.8082761
20
37.5200177
11
5.8082761
21
39.9200177
0
LINE
8
DEFAULT_255_2_778
10
6.3083761
20
38.5886177
11
9.4084761
21
38.5886177
0
LINE
8
DEFAULT_255_2_778
10
9.9084761
20
39.9200177
11
9.9084761
21
37.5200177
0
LINE
8
DEFAULT_255_2_778
10
9.9084761
20
37.5200177
11
9.4084761
21
38.0200177
0
LINE
8
DEFAULT_255_2_778
10
9.4084761
20
38.0200177
11
9.4084761
21
39.4199177
0
LINE
8
DEFAULT_255_2_778
10
9.4084761
20
39.4199177
11
6.3083761
21
39.4199177
0
LINE
8
DEFAULT_255_2_778
10
6.3083761
20
39.4199177
11
5.8082761
21
39.9200177
0
LINE
8
DEFAULT_255_2_778
10
5.8082761
20
39.9200177
11
9.9082761
21
39.9200177
0
LINE
8
DEFAULT_255_2_778
10
9.9082761
20
39.9200177
11
9.4081761
21
39.4199177
0
LINE
8
DEFAULT_255_2_778
10
9.9082761
20
37.5200177
11
5.8082761
21
37.5200177
0
LINE
8
DEFAULT_255_2_778
10
5.8082761
20
37.5200177
11
6.3083761
21
38.0200177
0
LINE
8
DEFAULT_255_2_778
10
6.3083761
20
38.0200177
11
9.4084761
21
38.0200177
0
LINE
8
DEFAULT_255_2_778
10
9.9083084
20
34.0198177
11
5.8083084
21
34.0198177
0
LINE
8
DEFAULT_255_2_778
10
6.3084084
20
34.5198177
11
5.8083084
21
34.0198177
0
LINE
8
DEFAULT_255_2_778
10
5.8083084
20
34.0198177
11
5.8083084
21
36.4198177
0
LINE
8
DEFAULT_255_2_778
10
5.8083084
20
36.4198177
11
6.3084084
21
35.9197177
0
LINE
8
DEFAULT_255_2_778
10
9.9083084
20
36.4198177
11
9.9083084
21
34.0198177
0
LINE
8
DEFAULT_255_2_778
10
9.9083084
20
34.0198177
11
9.4082084
21
34.5198177
0
LINE
8
DEFAULT_255_2_778
10
9.4082084
20
34.5198177
11
9.4082084
21
35.9197177
0
LINE
8
DEFAULT_255_2_778
10
5.8083084
20
36.4198177
11
9.9083084
21
36.4198177
0
LINE
8
DEFAULT_255_2_778
10
9.9083084
20
36.4198177
11
9.4082084
21
35.9197177
0
LINE
8
DEFAULT_255_2_778
10
9.4082084
20
35.9197177
11
6.3084084
21
35.9197177
0
LINE
8
DEFAULT_255_2_778
10
6.3084084
20
35.9197177
11
6.3084084
21
34.5198177
0
LINE
8
DEFAULT_255_2_778
10
6.3084084
20
34.5198177
11
9.4085084
21
34.5198177
0
LINE
8
DEFAULT_255_2_778
10
5.8083084
20
30.5199177
11
5.8083084
21
32.9199177
0
LINE
8
DEFAULT_255_2_778
10
9.9083084
20
32.9199177
11
9.9083084
21
30.5199177
0
LINE
8
DEFAULT_255_2_778
10
9.9083084
20
30.5199177
11
9.4082084
21
31.0199177
0
LINE
8
DEFAULT_255_2_778
10
9.4082084
20
31.0199177
11
9.4082084
21
32.4198177
0
LINE
8
DEFAULT_255_2_778
10
9.4082084
20
32.4198177
11
6.3084084
21
32.4198177
0
LINE
8
DEFAULT_255_2_778
10
6.3084084
20
32.4198177
11
6.3084084
21
31.0199177
0
LINE
8
DEFAULT_255_2_778
10
6.3084084
20
32.4198177
11
5.8083084
21
32.9199177
0
LINE
8
DEFAULT_255_2_778
10
5.8083084
20
32.9199177
11
9.9083084
21
32.9199177
0
LINE
8
DEFAULT_255_2_778
10
9.9083084
20
32.9199177
11
9.4082084
21
32.4198177
0
LINE
8
DEFAULT_255_2_778
10
9.9083084
20
30.5199177
11
5.8083084
21
30.5199177
0
LINE
8
DEFAULT_255_2_778
10
5.8083084
20
30.5199177
11
6.3084084
21
31.0199177
0
LINE
8
DEFAULT_255_2_778
10
6.3084084
20
31.0199177
11
9.4085084
21
31.0199177
0
LINE
8
DEFAULT_255_2_778
10
9.9083084
20
29.4200177
11
9.9083084
21
27.0200177
0
LINE
8
DEFAULT_255_2_778
10
9.9083084
20
27.0200177
11
9.4082084
21
27.5200177
0
LINE
8
DEFAULT_255_2_778
10
9.4082084
20
27.5200177
11
9.4082084
21
28.9199177
0
LINE
8
DEFAULT_255_2_778
10
9.4082084
20
28.9199177
11
6.3084084
21
28.9199177
0
LINE
8
DEFAULT_255_2_778
10
5.8083084
20
27.0200177
11
5.8083084
21
29.4200177
0
LINE
8
DEFAULT_255_2_778
10
9.9083084
20
27.0200177
11
5.8083084
21
27.0200177
0
LINE
8
DEFAULT_255_2_778
10
5.8083084
20
27.0200177
11
6.3084084
21
27.5200177
0
LINE
8
DEFAULT_255_2_778
10
6.3084084
20
27.5200177
11
6.3084084
21
28.9199177
0
LINE
8
DEFAULT_255_2_778
10
6.3084084
20
28.9199177
11
5.8083084
21
29.4200177
0
LINE
8
DEFAULT_255_2_778
10
5.8083084
20
29.4200177
11
9.9083084
21
29.4200177
0
LINE
8
DEFAULT_255_2_778
10
9.9083084
20
29.4200177
11
9.4082084
21
28.9199177
0
LINE
8
DEFAULT_255_2_778
10
6.3081084
20
27.5200177
11
9.4082084
21
27.5200177
0
LINE
8
DEFAULT_255_2_778
10
9.9083084
20
25.9198177
11
9.9083084
21
23.5198177
0
LINE
8
DEFAULT_255_2_778
10
9.9083084
20
23.5198177
11
9.4082084
21
24.0198177
0
LINE
8
DEFAULT_255_2_778
10
9.4082084
20
24.0198177
11
9.4082084
21
25.4197177
0
LINE
8
DEFAULT_255_2_778
10
9.4082084
20
25.4197177
11
6.3084084
21
25.4197177
0
LINE
8
DEFAULT_255_2_778
10
6.3084084
20
25.4197177
11
6.3084084
21
24.0198177
0
LINE
8
DEFAULT_255_2_778
10
6.3084084
20
25.4197177
11
5.8083084
21
25.9198177
0
LINE
8
DEFAULT_255_2_778
10
5.8083084
20
25.9198177
11
9.9083084
21
25.9198177
0
LINE
8
DEFAULT_255_2_778
10
9.9083084
20
25.9198177
11
9.4082084
21
25.4197177
0
LINE
8
DEFAULT_255_2_778
10
9.9083084
20
23.5198177
11
5.8083084
21
23.5198177
0
LINE
8
DEFAULT_255_2_778
10
5.8083084
20
23.5198177
11
6.3084084
21
24.0198177
0
LINE
8
DEFAULT_255_2_778
10
6.3084084
20
24.0198177
11
9.4085084
21
24.0198177
0
LINE
8
DEFAULT_255_2_778
10
5.8086084
20
23.5198177
11
5.8086084
21
25.9198177
0
LINE
8
DEFAULT_255_2_778
10
6.3083761
20
21.9198177
11
6.3083761
21
20.5199177
0
LINE
8
DEFAULT_255_2_778
10
5.8082761
20
20.0199177
11
5.8082761
21
22.4199177
0
LINE
8
DEFAULT_255_2_778
10
9.9082761
20
20.0199177
11
5.8082761
21
20.0199177
0
LINE
8
DEFAULT_255_2_778
10
5.8082761
20
20.0199177
11
6.3083761
21
20.5199177
0
LINE
8
DEFAULT_255_2_778
10
6.3083761
20
20.5199177
11
9.4084761
21
20.5199177
0
LINE
8
DEFAULT_255_2_778
10
9.9084761
20
22.4199177
11
9.9084761
21
20.0199177
0
LINE
8
DEFAULT_255_2_778
10
9.9084761
20
20.0199177
11
9.4084761
21
20.5199177
0
LINE
8
DEFAULT_255_2_778
10
9.4084761
20
20.5199177
11
9.4084761
21
21.9198177
0
LINE
8
DEFAULT_255_2_778
10
9.4084761
20
21.9198177
11
6.3083761
21
21.9198177
0
LINE
8
DEFAULT_255_2_778
10
6.3083761
20
21.9198177
11
5.8082761
21
22.4199177
0
LINE
8
DEFAULT_255_2_778
10
5.8082761
20
22.4199177
11
9.9082761
21
22.4199177
0
LINE
8
DEFAULT_255_2_778
10
9.9082761
20
22.4199177
11
9.4081761
21
21.9198177
0
LINE
8
DEFAULT_255_2_778
10
9.9083084
20
16.5200177
11
5.8083084
21
16.5200177
0
LINE
8
DEFAULT_255_2_778
10
9.4082084
20
18.4199177
11
6.3084084
21
18.4199177
0
LINE
8
DEFAULT_255_2_778
10
6.3084084
20
18.4199177
11
5.8083084
21
18.9200177
0
LINE
8
DEFAULT_255_2_778
10
5.8083084
20
18.9200177
11
5.8083084
21
16.5200177
0
LINE
8
DEFAULT_255_2_778
10
5.8083084
20
16.5200177
11
6.3084084
21
17.0200177
0
LINE
8
DEFAULT_255_2_778
10
9.9083084
20
18.9200177
11
9.9083084
21
16.5200177
0
LINE
8
DEFAULT_255_2_778
10
9.9083084
20
16.5200177
11
9.4082084
21
17.0200177
0
LINE
8
DEFAULT_255_2_778
10
9.4082084
20
17.0200177
11
9.4082084
21
18.4199177
0
LINE
8
DEFAULT_255_2_778
10
9.4082084
20
18.4199177
11
9.9083084
21
18.9200177
0
LINE
8
DEFAULT_255_2_778
10
9.9083084
20
18.9200177
11
5.8083084
21
18.9200177
0
LINE
8
DEFAULT_255_2_778
10
6.3084084
20
18.4199177
11
6.3084084
21
17.0200177
0
LINE
8
DEFAULT_255_2_778
10
6.3084084
20
17.0200177
11
9.4085084
21
17.0200177
0
LINE
8
DEFAULT_255_2_778
10
5.8082761
20
13.0199177
11
5.8082761
21
15.4199177
0
LINE
8
DEFAULT_255_2_778
10
5.8082761
20
15.4199177
11
9.9082761
21
15.4199177
0
LINE
8
DEFAULT_255_2_778
10
9.9082761
20
15.4199177
11
9.4081761
21
14.9198177
0
LINE
8
DEFAULT_255_2_778
10
9.4081761
20
14.9198177
11
6.3083761
21
14.9198177
0
LINE
8
DEFAULT_255_2_778
10
6.3083761
20
14.9198177
11
5.8082761
21
15.4199177
0
LINE
8
DEFAULT_255_2_778
10
9.9082761
20
13.0199177
11
5.8082761
21
13.0199177
0
LINE
8
DEFAULT_255_2_778
10
5.8082761
20
13.0199177
11
6.3083761
21
13.5199177
0
LINE
8
DEFAULT_255_2_778
10
6.3083761
20
13.5199177
11
9.4084761
21
13.5199177
0
LINE
8
DEFAULT_255_2_778
10
9.4084761
20
13.5199177
11
9.9084761
21
13.0199177
0
LINE
8
DEFAULT_255_2_778
10
9.9084761
20
13.0199177
11
9.9084761
21
15.4199177
0
LINE
8
DEFAULT_255_2_778
10
9.4084761
20
13.5199177
11
9.4084761
21
14.9198177
0
LINE
8
DEFAULT_255_2_778
10
6.3083761
20
14.9198177
11
6.3083761
21
13.5199177
0
LINE
8
DEFAULT_255_2_778
10
9.9081761
20
11.9200177
11
9.9081761
21
9.5200177
0
LINE
8
DEFAULT_255_2_778
10
9.9081761
20
9.5200177
11
9.4081761
21
10.0200177
0
LINE
8
DEFAULT_255_2_778
10
9.4081761
20
10.0200177
11
9.4081761
21
11.4199177
0
LINE
8
DEFAULT_255_2_778
10
9.4081761
20
11.4199177
11
6.3082761
21
11.4199177
0
LINE
8
DEFAULT_255_2_778
10
6.3082761
20
11.4199177
11
5.8082761
21
11.9200177
0
LINE
8
DEFAULT_255_2_778
10
5.8082761
20
11.9200177
11
9.9081761
21
11.9200177
0
LINE
8
DEFAULT_255_2_778
10
9.9081761
20
11.9200177
11
9.4081761
21
11.4199177
0
LINE
8
DEFAULT_255_2_778
10
6.3080761
20
11.4199177
11
6.3080761
21
10.0200177
0
LINE
8
DEFAULT_255_2_778
10
5.8079761
20
9.5200177
11
5.8079761
21
11.9200177
0
LINE
8
DEFAULT_255_2_778
10
9.9079761
20
9.5200177
11
5.8082761
21
9.5200177
0
LINE
8
DEFAULT_255_2_778
10
5.8082761
20
9.5200177
11
6.3082761
21
10.0200177
0
LINE
8
DEFAULT_255_2_778
10
6.3082761
20
10.0200177
11
9.4083761
21
10.0200177
0
LINE
8
DEFAULT_255_2_778
10
6.3083761
20
6.5200177
11
9.4084761
21
6.5200177
0
LINE
8
DEFAULT_255_2_778
10
9.4084761
20
6.5200177
11
9.9084761
21
6.0200177
0
LINE
8
DEFAULT_255_2_778
10
9.9084761
20
6.0200177
11
9.9084761
21
8.4200177
0
LINE
8
DEFAULT_255_2_778
10
9.4084761
20
6.5200177
11
9.4084761
21
7.9199177
0
LINE
8
DEFAULT_255_2_778
10
5.8085761
20
6.0200177
11
5.8085761
21
8.4200177
0
LINE
8
DEFAULT_255_2_778
10
9.9084761
20
6.0200177
11
5.8082761
21
6.0200177
0
LINE
8
DEFAULT_255_2_778
10
5.8082761
20
6.0200177
11
6.3083761
21
6.5200177
0
LINE
8
DEFAULT_255_2_778
10
6.3083761
20
6.5200177
11
6.3083761
21
7.9199177
0
LINE
8
DEFAULT_255_2_778
10
6.3083761
20
7.9199177
11
5.8082761
21
8.4200177
0
LINE
8
DEFAULT_255_2_778
10
5.8082761
20
8.4200177
11
9.9082761
21
8.4200177
0
LINE
8
DEFAULT_255_2_778
10
9.9082761
20
8.4200177
11
9.4081761
21
7.9199177
0
LINE
8
DEFAULT_255_2_778
10
9.4081761
20
7.9199177
11
6.3083761
21
7.9199177
0
LINE
8
DEFAULT_255_2_778
10
18.7063841
20
11.4908104
11
18.7063841
21
11.3358104
0
LINE
8
DEFAULT_255_2_778
10
18.7063841
20
11.3358104
11
18.2626841
21
11.3358104
0
LINE
8
DEFAULT_255_2_778
10
18.2626841
20
11.3358104
11
18.2626841
21
10.0626104
0
LINE
8
DEFAULT_255_2_778
10
18.2626841
20
10.0626104
11
18.0814841
21
10.0626104
0
LINE
8
DEFAULT_255_2_778
10
18.0814841
20
10.0626104
11
18.0814841
21
11.3358104
0
LINE
8
DEFAULT_255_2_778
10
18.0814841
20
11.3358104
11
17.6385841
21
11.3358104
0
LINE
8
DEFAULT_255_2_778
10
17.6385841
20
11.3358104
11
17.6385841
21
11.4908104
0
LINE
8
DEFAULT_255_2_778
10
17.6385841
20
11.4908104
11
18.7063841
21
11.4908104
0
LINE
8
DEFAULT_255_2_778
10
18.7063841
20
11.4908104
11
18.7063841
21
11.4908104
0
ARC
8
DEFAULT_255_2_778
10
19.2930268
20
10.5708958
40
0.6097206
50
330.3465634
51
354.8145625
0
ARC
8
DEFAULT_255_2_778
10
19.4377151
20
10.497851
40
0.4479159
50
312.2108141
51
329.3095556
0
ARC
8
DEFAULT_255_2_778
10
19.4164929
20
10.5346919
40
0.4895449
50
273.3727232
51
311.1535226
0
ARC
8
DEFAULT_255_2_778
10
19.3779714
20
10.7983378
40
0.755349
50
269.9226804
51
275.1133855
0
ARC
8
DEFAULT_255_2_778
10
19.3607147
20
10.5221943
40
0.4794798
50
218.3812408
51
271.9406664
0
ARC
8
DEFAULT_255_2_778
10
19.5016111
20
10.6307291
40
0.6573207
50
188.276129
51
218.1719338
0
ARC
8
DEFAULT_255_2_778
10
19.884916
20
10.7049454
40
1.047476
50
179.7240865
51
189.275471
0
ARC
8
DEFAULT_255_2_778
10
19.7096172
20
10.8606165
40
0.8722654
50
160.6881617
51
180.8688631
0
ARC
8
DEFAULT_255_2_778
10
19.5259198
20
10.9149215
40
0.6810114
50
155.4947
51
159.8887768
0
ARC
8
DEFAULT_255_2_778
10
19.3894479
20
10.9892056
40
0.5261356
50
123.2134377
51
156.6913015
0
ARC
8
DEFAULT_255_2_778
10
19.3826986
20
10.9816263
40
0.5288706
50
88.8457665
51
122.1518658
0
ARC
8
DEFAULT_255_2_778
10
19.4073238
20
10.9722753
40
0.5382956
50
62.7995675
51
91.4873071
0
ARC
8
DEFAULT_255_2_778
10
19.4493902
20
11.0743188
40
0.4284076
50
46.1735819
51
61.5650138
0
ARC
8
DEFAULT_255_2_778
10
19.3874947
20
11.0212398
40
0.5096233
50
8.8442965
51
45.28559
0
ARC
8
DEFAULT_255_2_778
10
19.1268802
20
10.9580293
40
0.7771802
50
5.4460006
51
10.4951357
0
ARC
8
DEFAULT_255_2_778
10
19.162985
20
10.9669226
40
0.5582486
50
6.6726848
51
24.8137879
0
ARC
8
DEFAULT_255_2_778
10
19.4189332
20
11.081625
40
0.2778129
50
25.4946563
51
45.2399967
0
ARC
8
DEFAULT_255_2_778
10
19.4175758
20
11.0613796
40
0.2934455
50
47.8361155
51
90.1007886
0
ARC
8
DEFAULT_255_2_778
10
19.3932817
20
10.8548138
40
0.5005759
50
87.2773659
51
90.026284
0
ARC
8
DEFAULT_255_2_778
10
19.3805001
20
11.0338601
40
0.3217744
50
87.7643954
51
144.2208397
0
ARC
8
DEFAULT_255_2_778
10
19.5258404
20
10.9350047
40
0.4975056
50
144.7708816
51
171.1919732
0
ARC
8
DEFAULT_255_2_778
10
19.9643527
20
10.8493342
40
0.944127
50
170.1290881
51
180.4275172
0
ARC
8
DEFAULT_255_2_778
10
19.8388911
20
10.6914841
40
0.8187345
50
179.1248224
51
195.5158866
0
ARC
8
DEFAULT_255_2_778
10
19.5188394
20
10.6060733
40
0.4875101
50
195.9057907
51
213.9109659
0
ARC
8
DEFAULT_255_2_778
10
19.3667038
20
10.4969282
40
0.3004135
50
212.8231906
51
271.9549691
0
ARC
8
DEFAULT_255_2_778
10
19.3895606
20
10.6038066
40
0.4073123
50
268.2261012
51
293.5231844
0
ARC
8
DEFAULT_255_2_778
10
19.4468218
20
10.4549526
40
0.2480702
50
295.1188999
51
311.0555927
0
ARC
8
DEFAULT_255_2_778
10
19.3994727
20
10.4875889
40
0.3041138
50
313.7449706
51
344.3583977
0
ARC
8
DEFAULT_255_2_778
10
19.0354668
20
10.6135169
40
0.6889802
50
342.4352397
51
351.8286659
0
LINE
8
DEFAULT_255_2_778
10
19.7171521
20
10.5157896
11
19.9002521
21
10.5157896
0
LINE
8
DEFAULT_255_2_778
10
18.8374521
20
10.7099896
11
18.8374521
21
10.8473896
0
LINE
8
DEFAULT_255_2_778
10
19.9005521
20
11.0317896
11
19.7174521
21
11.0317896
0
LINE
8
DEFAULT_255_2_778
10
19.0202521
20
10.8422896
11
19.0202521
21
10.7039896
0
LINE
8
DEFAULT_255_2_778
10
19.7174521
20
10.5155896
11
19.7171521
21
10.5157896
0
LINE
8
DEFAULT_255_2_778
10
20.8439573
20
11.4908104
11
20.8439573
21
10.5423104
0
LINE
8
DEFAULT_255_2_778
10
20.8439573
20
10.5423104
11
21.0355573
21
10.5423104
0
LINE
8
DEFAULT_255_2_778
10
21.0355573
20
10.5423104
11
21.0355573
21
10.3941104
0
LINE
8
DEFAULT_255_2_778
10
21.0355573
20
10.3941104
11
20.8439573
21
10.3941104
0
LINE
8
DEFAULT_255_2_778
10
20.8439573
20
10.3941104
11
20.8439573
21
10.0626104
0
LINE
8
DEFAULT_255_2_778
10
20.8439573
20
10.0626104
11
20.6674573
21
10.0626104
0
LINE
8
DEFAULT_255_2_778
10
20.6674573
20
10.0626104
11
20.6674573
21
10.3941104
0
LINE
8
DEFAULT_255_2_778
10
20.6674573
20
10.3941104
11
20.0388573
21
10.3941104
0
LINE
8
DEFAULT_255_2_778
10
20.0388573
20
10.3941104
11
20.0388573
21
10.5010104
0
LINE
8
DEFAULT_255_2_778
10
20.0388573
20
10.5010104
11
20.6571573
21
11.4905104
0
LINE
8
DEFAULT_255_2_778
10
20.6571573
20
11.4905104
11
20.8439573
21
11.4905104
0
LINE
8
DEFAULT_255_2_778
10
20.8439573
20
11.4905104
11
20.8439573
21
11.4908104
0
LINE
8
DEFAULT_255_2_778
10
20.6465573
20
11.2035104
11
20.2378573
21
10.5423104
0
LINE
8
DEFAULT_255_2_778
10
20.2378573
20
10.5423104
11
20.6674573
21
10.5423104
0
LINE
8
DEFAULT_255_2_778
10
20.6674573
20
10.5423104
11
20.6674573
21
11.2426104
0
LINE
8
DEFAULT_255_2_778
10
20.6674573
20
11.2426104
11
20.6465573
21
11.2035104
0
LINE
8
DEFAULT_255_2_778
10
20.6465573
20
11.2035104
11
20.6465573
21
11.2035104
0
LINE
8
DEFAULT_255_2_778
10
21.5769219
20
10.7433833
11
21.5769219
21
10.5951833
0
LINE
8
DEFAULT_255_2_778
10
21.5769219
20
10.5951833
11
21.1141219
21
10.5951833
0
LINE
8
DEFAULT_255_2_778
10
21.1141219
20
10.5951833
11
21.1141219
21
10.7433833
0
LINE
8
DEFAULT_255_2_778
10
21.1141219
20
10.7433833
11
21.5769219
21
10.7433833
0
LINE
8
DEFAULT_255_2_778
10
21.5769219
20
10.7433833
11
21.5769219
21
10.7433833
0
LINE
8
DEFAULT_255_2_778
10
18.7063841
20
32.5829104
11
18.7063841
21
32.4279104
0
LINE
8
DEFAULT_255_2_778
10
18.7063841
20
32.4279104
11
18.2626841
21
32.4279104
0
LINE
8
DEFAULT_255_2_778
10
18.2626841
20
32.4279104
11
18.2626841
21
31.1547104
0
LINE
8
DEFAULT_255_2_778
10
18.2626841
20
31.1547104
11
18.0814841
21
31.1547104
0
LINE
8
DEFAULT_255_2_778
10
18.0814841
20
31.1547104
11
18.0814841
21
32.4279104
0
LINE
8
DEFAULT_255_2_778
10
18.0814841
20
32.4279104
11
17.6385841
21
32.4279104
0
LINE
8
DEFAULT_255_2_778
10
17.6385841
20
32.4279104
11
17.6385841
21
32.5829104
0
LINE
8
DEFAULT_255_2_778
10
17.6385841
20
32.5829104
11
18.7063841
21
32.5829104
0
LINE
8
DEFAULT_255_2_778
10
18.7063841
20
32.5829104
11
18.7063841
21
32.5829104
0
ARC
8
DEFAULT_255_2_778
10
19.2932239
20
31.6629204
40
0.6095175
50
330.2715244
51
354.8199441
0
ARC
8
DEFAULT_255_2_778
10
19.4373152
20
31.5900379
40
0.4483232
50
312.2326207
51
329.2281898
0
ARC
8
DEFAULT_255_2_778
10
19.4165295
20
31.6269999
40
0.4897528
50
273.3670036
51
311.1265873
0
ARC
8
DEFAULT_255_2_778
10
19.3779715
20
31.8910373
40
0.7559485
50
269.922736
51
275.1093134
0
ARC
8
DEFAULT_255_2_778
10
19.3607147
20
31.6142943
40
0.4794798
50
218.3812408
51
271.9406664
0
ARC
8
DEFAULT_255_2_778
10
19.5016111
20
31.7228291
40
0.6573207
50
188.276129
51
218.1719338
0
ARC
8
DEFAULT_255_2_778
10
19.884916
20
31.7970454
40
1.047476
50
179.7240865
51
189.275471
0
ARC
8
DEFAULT_255_2_778
10
19.7096172
20
31.9527165
40
0.8722654
50
160.6881617
51
180.8688631
0
ARC
8
DEFAULT_255_2_778
10
19.5259198
20
32.0070215
40
0.6810114
50
155.4947
51
159.8887768
0
ARC
8
DEFAULT_255_2_778
10
19.3894479
20
32.0813056
40
0.5261356
50
123.2134377
51
156.6913015
0
ARC
8
DEFAULT_255_2_778
10
19.3826986
20
32.0737263
40
0.5288706
50
88.8457665
51
122.1518658
0
ARC
8
DEFAULT_255_2_778
10
19.4073238
20
32.0643753
40
0.5382956
50
62.7995675
51
91.4873071
0
ARC
8
DEFAULT_255_2_778
10
19.4493902
20
32.1664188
40
0.4284076
50
46.1735819
51
61.5650138
0
ARC
8
DEFAULT_255_2_778
10
19.3874947
20
32.1133398
40
0.5096233
50
8.8442965
51
45.28559
0
ARC
8
DEFAULT_255_2_778
10
19.1268802
20
32.0501293
40
0.7771802
50
5.4460006
51
10.4951357
0
ARC
8
DEFAULT_255_2_778
10
19.162985
20
32.0590226
40
0.5582486
50
6.6726848
51
24.8137879
0
ARC
8
DEFAULT_255_2_778
10
19.4189332
20
32.173725
40
0.2778129
50
25.4946563
51
45.2399967
0
ARC
8
DEFAULT_255_2_778
10
19.4175758
20
32.1534796
40
0.2934455
50
47.8361155
51
90.1007886
0
ARC
8
DEFAULT_255_2_778
10
19.3932817
20
31.9469138
40
0.5005759
50
87.2773659
51
90.026284
0
ARC
8
DEFAULT_255_2_778
10
19.3805001
20
32.1259601
40
0.3217744
50
87.7643954
51
144.2208397
0
ARC
8
DEFAULT_255_2_778
10
19.5263139
20
32.0269305
40
0.4979929
50
144.785932
51
171.1858352
0
ARC
8
DEFAULT_255_2_778
10
19.963986
20
31.9414196
40
0.9437602
50
170.1272043
51
180.4267991
0
ARC
8
DEFAULT_255_2_778
10
19.8388911
20
31.7835841
40
0.8187345
50
179.1248224
51
195.5158866
0
ARC
8
DEFAULT_255_2_778
10
19.5188394
20
31.6981733
40
0.4875101
50
195.9057907
51
213.9109659
0
ARC
8
DEFAULT_255_2_778
10
19.3667038
20
31.5890282
40
0.3004135
50
212.8231906
51
271.9549691
0
ARC
8
DEFAULT_255_2_778
10
19.3895606
20
31.6959066
40
0.4073123
50
268.2261012
51
293.5231844
0
ARC
8
DEFAULT_255_2_778
10
19.4468218
20
31.5470526
40
0.2480702
50
295.1188999
51
311.0555927
0
ARC
8
DEFAULT_255_2_778
10
19.3994727
20
31.5796889
40
0.3041138
50
313.7449706
51
344.3583977
0
ARC
8
DEFAULT_255_2_778
10
19.0354668
20
31.7056169
40
0.6889802
50
342.4352397
51
351.8286659
0
LINE
8
DEFAULT_255_2_778
10
19.7171521
20
31.6078896
11
19.9002521
21
31.6078896
0
LINE
8
DEFAULT_255_2_778
10
18.8374521
20
31.8020896
11
18.8374521
21
31.9394896
0
LINE
8
DEFAULT_255_2_778
10
19.9005521
20
32.1238896
11
19.7174521
21
32.1238896
0
LINE
8
DEFAULT_255_2_778
10
19.0202521
20
31.9343896
11
19.0202521
21
31.7960896
0
LINE
8
DEFAULT_255_2_778
10
19.7174521
20
31.6076896
11
19.7171521
21
31.6078896
0
ARC
8
DEFAULT_255_2_778
10
19.2563253
20
32.9771919
40
1.7497273
50
319.2237125
51
324.4494139
0
ARC
8
DEFAULT_255_2_778
10
20.1216961
20
32.360002
40
0.6868128
50
324.3661616
51
331.9498485
0
ARC
8
DEFAULT_255_2_778
10
20.4203112
20
32.1995488
40
0.3478239
50
332.1448487
51
359.8160779
0
ARC
8
DEFAULT_255_2_778
10
20.5071601
20
32.2087306
40
0.2611763
50
357.7402104
51
41.5120145
0
ARC
8
DEFAULT_255_2_778
10
20.5379932
20
32.2291042
40
0.2246446
50
42.8331297
51
92.5155745
0
ARC
8
DEFAULT_255_2_778
10
20.5131503
20
32.1844556
40
0.2694935
50
86.8128768
51
132.3629929
0
ARC
8
DEFAULT_255_2_778
10
20.4938077
20
32.2172603
40
0.2323522
50
134.2898579
51
136.7268933
0
ARC
8
DEFAULT_255_2_778
10
20.5420462
20
32.1854063
40
0.2894779
50
138.6815457
51
180.4134724
0
ARC
8
DEFAULT_255_2_778
10
20.7463284
20
32.1624105
40
0.494195
50
177.5753843
51
180.0206619
0
ARC
8
DEFAULT_255_2_778
10
20.5053598
20
32.1801787
40
0.429002
50
135.4696349
51
182.3975464
0
ARC
8
DEFAULT_255_2_778
10
20.5003033
20
32.1676272
40
0.4343792
50
90.5057179
51
133.8214436
0
ARC
8
DEFAULT_255_2_778
10
20.5278847
20
31.9378971
40
0.664835
50
89.9785694
51
92.7084011
0
ARC
8
DEFAULT_255_2_778
10
20.5416292
20
32.1196562
40
0.4832646
50
63.8943368
51
91.600277
0
ARC
8
DEFAULT_255_2_778
10
20.5906727
20
32.2390579
40
0.354565
50
46.9673016
51
62.520674
0
ARC
8
DEFAULT_255_2_778
10
20.5824464
20
32.2360009
40
0.3624345
50
357.4905852
51
46.346485
0
ARC
8
DEFAULT_255_2_778
10
20.4655505
20
32.2331906
40
0.4791609
50
333.7371208
51
358.438354
0
ARC
8
DEFAULT_255_2_778
10
19.9623603
20
32.4653384
40
1.0332328
50
322.5910016
51
334.5397055
0
ARC
8
DEFAULT_255_2_778
10
19.3535207
20
32.9117351
40
1.7880974
50
318.1149295
51
323.0809098
0
LINE
8
DEFAULT_255_2_778
10
21.0080333
20
31.3028323
11
21.0080333
21
31.1546323
0
LINE
8
DEFAULT_255_2_778
10
21.0080333
20
31.1546323
11
20.1034333
21
31.1546323
0
LINE
8
DEFAULT_255_2_778
10
20.1034333
20
31.1546323
11
20.1034333
21
31.2851323
0
LINE
8
DEFAULT_255_2_778
10
20.1034333
20
31.2851323
11
20.5813333
21
31.8344323
0
LINE
8
DEFAULT_255_2_778
10
20.2521333
20
32.1622323
11
20.0767333
21
32.1622323
0
LINE
8
DEFAULT_255_2_778
10
20.6847333
20
31.7179323
11
20.3148333
21
31.3031323
0
LINE
8
DEFAULT_255_2_778
10
20.3148333
20
31.3031323
11
21.0080333
21
31.3031323
0
LINE
8
DEFAULT_255_2_778
10
21.0080333
20
31.3031323
11
21.0080333
21
31.3028323
0
LINE
8
DEFAULT_255_2_778
10
21.7143927
20
32.3376062
11
21.7143927
21
31.9206062
0
LINE
8
DEFAULT_255_2_778
10
21.7143927
20
31.9206062
11
22.0993927
21
31.9206062
0
LINE
8
DEFAULT_255_2_778
10
22.0993927
20
31.9206062
11
22.0993927
21
31.7489062
0
LINE
8
DEFAULT_255_2_778
10
22.0993927
20
31.7489062
11
21.7143927
21
31.7489062
0
LINE
8
DEFAULT_255_2_778
10
21.7143927
20
31.7489062
11
21.7143927
21
31.2978062
0
LINE
8
DEFAULT_255_2_778
10
21.7143927
20
31.2978062
11
21.5379927
21
31.2978062
0
LINE
8
DEFAULT_255_2_778
10
21.5379927
20
31.2978062
11
21.5379927
21
31.7489062
0
LINE
8
DEFAULT_255_2_778
10
21.5379927
20
31.7489062
11
21.1529927
21
31.7489062
0
LINE
8
DEFAULT_255_2_778
10
21.1529927
20
31.7489062
11
21.1529927
21
31.9206062
0
LINE
8
DEFAULT_255_2_778
10
21.1529927
20
31.9206062
11
21.5379927
21
31.9206062
0
LINE
8
DEFAULT_255_2_778
10
21.5379927
20
31.9206062
11
21.5379927
21
32.3376062
0
LINE
8
DEFAULT_255_2_778
10
21.5379927
20
32.3376062
11
21.7143927
21
32.3376062
0
LINE
8
DEFAULT_255_2_778
10
21.7143927
20
32.3376062
11
21.7143927
21
32.3376062
0
LINE
8
DEFAULT_255_2_778
10
18.7063841
20
36.0981104
11
18.7063841
21
35.9431104
0
LINE
8
DEFAULT_255_2_778
10
18.7063841
20
35.9431104
11
18.2626841
21
35.9431104
0
LINE
8
DEFAULT_255_2_778
10
18.2626841
20
35.9431104
11
18.2626841
21
34.6699104
0
LINE
8
DEFAULT_255_2_778
10
18.2626841
20
34.6699104
11
18.0814841
21
34.6699104
0
LINE
8
DEFAULT_255_2_778
10
18.0814841
20
34.6699104
11
18.0814841
21
35.9431104
0
LINE
8
DEFAULT_255_2_778
10
18.0814841
20
35.9431104
11
17.6385841
21
35.9431104
0
LINE
8
DEFAULT_255_2_778
10
17.6385841
20
35.9431104
11
17.6385841
21
36.0981104
0
LINE
8
DEFAULT_255_2_778
10
17.6385841
20
36.0981104
11
18.7063841
21
36.0981104
0
LINE
8
DEFAULT_255_2_778
10
18.7063841
20
36.0981104
11
18.7063841
21
36.0981104
0
ARC
8
DEFAULT_255_2_778
10
19.2930268
20
35.1781958
40
0.6097206
50
330.3465634
51
354.8145625
0
ARC
8
DEFAULT_255_2_778
10
19.4377151
20
35.105151
40
0.4479159
50
312.2108141
51
329.3095556
0
ARC
8
DEFAULT_255_2_778
10
19.4164929
20
35.1419919
40
0.4895449
50
273.3727232
51
311.1535226
0
ARC
8
DEFAULT_255_2_778
10
19.3779714
20
35.4056378
40
0.755349
50
269.9226804
51
275.1133855
0
ARC
8
DEFAULT_255_2_778
10
19.3607147
20
35.1294943
40
0.4794798
50
218.3812408
51
271.9406664
0
ARC
8
DEFAULT_255_2_778
10
19.5016111
20
35.2380291
40
0.6573207
50
188.276129
51
218.1719338
0
ARC
8
DEFAULT_255_2_778
10
19.884916
20
35.3122454
40
1.047476
50
179.7240865
51
189.275471
0
ARC
8
DEFAULT_255_2_778
10
19.7096172
20
35.4679165
40
0.8722654
50
160.6881617
51
180.8688631
0
ARC
8
DEFAULT_255_2_778
10
19.5259198
20
35.5222215
40
0.6810114
50
155.4947
51
159.8887768
0
ARC
8
DEFAULT_255_2_778
10
19.3894479
20
35.5965056
40
0.5261356
50
123.2134377
51
156.6913015
0
ARC
8
DEFAULT_255_2_778
10
19.3826986
20
35.5889263
40
0.5288706
50
88.8457665
51
122.1518658
0
ARC
8
DEFAULT_255_2_778
10
19.4073238
20
35.5795753
40
0.5382956
50
62.7995675
51
91.4873071
0
ARC
8
DEFAULT_255_2_778
10
19.4493902
20
35.6816188
40
0.4284076
50
46.1735819
51
61.5650138
0
ARC
8
DEFAULT_255_2_778
10
19.3874947
20
35.6285398
40
0.5096233
50
8.8442965
51
45.28559
0
ARC
8
DEFAULT_255_2_778
10
19.1268802
20
35.5653293
40
0.7771802
50
5.4460006
51
10.4951357
0
ARC
8
DEFAULT_255_2_778
10
19.162985
20
35.5742226
40
0.5582486
50
6.6726848
51
24.8137879
0
ARC
8
DEFAULT_255_2_778
10
19.4189332
20
35.688925
40
0.2778129
50
25.4946563
51
45.2399967
0
ARC
8
DEFAULT_255_2_778
10
19.4175758
20
35.6686796
40
0.2934455
50
47.8361155
51
90.1007886
0
ARC
8
DEFAULT_255_2_778
10
19.3932817
20
35.4621138
40
0.5005759
50
87.2773659
51
90.026284
0
ARC
8
DEFAULT_255_2_778
10
19.3805001
20
35.6411601
40
0.3217744
50
87.7643954
51
144.2208397
0
ARC
8
DEFAULT_255_2_778
10
19.5258404
20
35.5423047
40
0.4975056
50
144.7708816
51
171.1919732
0
ARC
8
DEFAULT_255_2_778
10
19.9643527
20
35.4566342
40
0.944127
50
170.1290881
51
180.4275172
0
ARC
8
DEFAULT_255_2_778
10
19.8388911
20
35.2987841
40
0.8187345
50
179.1248224
51
195.5158866
0
ARC
8
DEFAULT_255_2_778
10
19.5188394
20
35.2133733
40
0.4875101
50
195.9057907
51
213.9109659
0
ARC
8
DEFAULT_255_2_778
10
19.3667038
20
35.1042282
40
0.3004135
50
212.8231906
51
271.9549691
0
ARC
8
DEFAULT_255_2_778
10
19.3895606
20
35.2111066
40
0.4073123
50
268.2261012
51
293.5231844
0
ARC
8
DEFAULT_255_2_778
10
19.4468218
20
35.0622526
40
0.2480702
50
295.1188999
51
311.0555927
0
ARC
8
DEFAULT_255_2_778
10
19.3994727
20
35.0948889
40
0.3041138
50
313.7449706
51
344.3583977
0
ARC
8
DEFAULT_255_2_778
10
19.0354668
20
35.2208169
40
0.6889802
50
342.4352397
51
351.8286659
0
LINE
8
DEFAULT_255_2_778
10
19.7171521
20
35.1230896
11
19.9002521
21
35.1230896
0
LINE
8
DEFAULT_255_2_778
10
18.8374521
20
35.3172896
11
18.8374521
21
35.4546896
0
LINE
8
DEFAULT_255_2_778
10
19.9005521
20
35.6390896
11
19.7174521
21
35.6390896
0
LINE
8
DEFAULT_255_2_778
10
19.0202521
20
35.4495896
11
19.0202521
21
35.3112896
0
LINE
8
DEFAULT_255_2_778
10
19.7174521
20
35.1228896
11
19.7171521
21
35.1230896
0
LINE
8
DEFAULT_255_2_778
10
20.6799875
20
36.10505
11
20.6799875
21
34.66995
0
LINE
8
DEFAULT_255_2_778
10
20.6799875
20
34.66995
11
20.5034875
21
34.66995
0
LINE
8
DEFAULT_255_2_778
10
20.5034875
20
34.66995
11
20.5034875
21
35.87935
0
LINE
8
DEFAULT_255_2_778
10
20.5034875
20
35.87935
11
20.1497875
21
35.74495
0
LINE
8
DEFAULT_255_2_778
10
20.1497875
20
35.74495
11
20.1497875
21
35.90975
0
LINE
8
DEFAULT_255_2_778
10
20.1497875
20
35.90975
11
20.6524875
21
36.10505
0
LINE
8
DEFAULT_255_2_778
10
20.6524875
20
36.10505
11
20.6799875
21
36.10505
0
LINE
8
DEFAULT_255_2_778
10
20.6799875
20
36.10505
11
20.6799875
21
36.10505
0
LINE
8
DEFAULT_255_2_778
10
21.5769219
20
35.3506833
11
21.5769219
21
35.2024833
0
LINE
8
DEFAULT_255_2_778
10
21.5769219
20
35.2024833
11
21.1141219
21
35.2024833
0
LINE
8
DEFAULT_255_2_778
10
21.1141219
20
35.2024833
11
21.1141219
21
35.3506833
0
LINE
8
DEFAULT_255_2_778
10
21.1141219
20
35.3506833
11
21.5769219
21
35.3506833
0
LINE
8
DEFAULT_255_2_778
10
21.5769219
20
35.3506833
11
21.5769219
21
35.3506833
0
LINE
8
DEFAULT_255_2_778
10
18.7063841
20
29.0673104
11
18.7063841
21
28.9123104
0
LINE
8
DEFAULT_255_2_778
10
18.7063841
20
28.9123104
11
18.2626841
21
28.9123104
0
LINE
8
DEFAULT_255_2_778
10
18.2626841
20
28.9123104
11
18.2626841
21
27.6391104
0
LINE
8
DEFAULT_255_2_778
10
18.2626841
20
27.6391104
11
18.0814841
21
27.6391104
0
LINE
8
DEFAULT_255_2_778
10
18.0814841
20
27.6391104
11
18.0814841
21
28.9123104
0
LINE
8
DEFAULT_255_2_778
10
18.0814841
20
28.9123104
11
17.6385841
21
28.9123104
0
LINE
8
DEFAULT_255_2_778
10
17.6385841
20
28.9123104
11
17.6385841
21
29.0673104
0
LINE
8
DEFAULT_255_2_778
10
17.6385841
20
29.0673104
11
18.7063841
21
29.0673104
0
LINE
8
DEFAULT_255_2_778
10
18.7063841
20
29.0673104
11
18.7063841
21
29.0673104
0
ARC
8
DEFAULT_255_2_778
10
19.2930268
20
28.1473958
40
0.6097206
50
330.3465634
51
354.8145625
0
ARC
8
DEFAULT_255_2_778
10
19.4377151
20
28.074351
40
0.4479159
50
312.2108141
51
329.3095556
0
ARC
8
DEFAULT_255_2_778
10
19.4164929
20
28.1111919
40
0.4895449
50
273.3727232
51
311.1535226
0
ARC
8
DEFAULT_255_2_778
10
19.3779714
20
28.3748378
40
0.755349
50
269.9226804
51
275.1133855
0
ARC
8
DEFAULT_255_2_778
10
19.3607147
20
28.0986943
40
0.4794798
50
218.3812408
51
271.9406664
0
ARC
8
DEFAULT_255_2_778
10
19.5016111
20
28.2072291
40
0.6573207
50
188.276129
51
218.1719338
0
ARC
8
DEFAULT_255_2_778
10
19.884916
20
28.2814454
40
1.047476
50
179.7240865
51
189.275471
0
ARC
8
DEFAULT_255_2_778
10
19.7096172
20
28.4371165
40
0.8722654
50
160.6881617
51
180.8688631
0
ARC
8
DEFAULT_255_2_778
10
19.5259198
20
28.4914215
40
0.6810114
50
155.4947
51
159.8887768
0
ARC
8
DEFAULT_255_2_778
10
19.3894479
20
28.5657056
40
0.5261356
50
123.2134377
51
156.6913015
0
ARC
8
DEFAULT_255_2_778
10
19.3826986
20
28.5581263
40
0.5288706
50
88.8457665
51
122.1518658
0
ARC
8
DEFAULT_255_2_778
10
19.4073238
20
28.5487753
40
0.5382956
50
62.7995675
51
91.4873071
0
ARC
8
DEFAULT_255_2_778
10
19.4493902
20
28.6508188
40
0.4284076
50
46.1735819
51
61.5650138
0
ARC
8
DEFAULT_255_2_778
10
19.3874947
20
28.5977398
40
0.5096233
50
8.8442965
51
45.28559
0
ARC
8
DEFAULT_255_2_778
10
19.1268802
20
28.5345293
40
0.7771802
50
5.4460006
51
10.4951357
0
ARC
8
DEFAULT_255_2_778
10
19.162985
20
28.5434226
40
0.5582486
50
6.6726848
51
24.8137879
0
ARC
8
DEFAULT_255_2_778
10
19.4189332
20
28.658125
40
0.2778129
50
25.4946563
51
45.2399967
0
ARC
8
DEFAULT_255_2_778
10
19.4175758
20
28.6378796
40
0.2934455
50
47.8361155
51
90.1007886
0
ARC
8
DEFAULT_255_2_778
10
19.3932817
20
28.4313138
40
0.5005759
50
87.2773659
51
90.026284
0
ARC
8
DEFAULT_255_2_778
10
19.3805001
20
28.6103601
40
0.3217744
50
87.7643954
51
144.2208397
0
ARC
8
DEFAULT_255_2_778
10
19.5258404
20
28.5115047
40
0.4975056
50
144.7708816
51
171.1919732
0
ARC
8
DEFAULT_255_2_778
10
19.9643527
20
28.4258342
40
0.944127
50
170.1290881
51
180.4275172
0
ARC
8
DEFAULT_255_2_778
10
19.8388911
20
28.2679841
40
0.8187345
50
179.1248224
51
195.5158866
0
ARC
8
DEFAULT_255_2_778
10
19.5188394
20
28.1825733
40
0.4875101
50
195.9057907
51
213.9109659
0
ARC
8
DEFAULT_255_2_778
10
19.3667038
20
28.0734282
40
0.3004135
50
212.8231906
51
271.9549691
0
ARC
8
DEFAULT_255_2_778
10
19.3895606
20
28.1803066
40
0.4073123
50
268.2261012
51
293.5231844
0
ARC
8
DEFAULT_255_2_778
10
19.4468218
20
28.0314526
40
0.2480702
50
295.1188999
51
311.0555927
0
ARC
8
DEFAULT_255_2_778
10
19.3994727
20
28.0640889
40
0.3041138
50
313.7449706
51
344.3583977
0
ARC
8
DEFAULT_255_2_778
10
19.0354668
20
28.1900169
40
0.6889802
50
342.4352397
51
351.8286659
0
LINE
8
DEFAULT_255_2_778
10
19.7171521
20
28.0922896
11
19.9002521
21
28.0922896
0
LINE
8
DEFAULT_255_2_778
10
18.8374521
20
28.2864896
11
18.8374521
21
28.4238896
0
LINE
8
DEFAULT_255_2_778
10
19.9005521
20
28.6082896
11
19.7174521
21
28.6082896
0
LINE
8
DEFAULT_255_2_778
10
19.0202521
20
28.4187896
11
19.0202521
21
28.2804896
0
LINE
8
DEFAULT_255_2_778
10
19.7174521
20
28.0920896
11
19.7171521
21
28.0922896
0
ARC
8
DEFAULT_255_2_778
10
19.2563253
20
29.4616919
40
1.7497273
50
319.2237125
51
324.4494139
0
ARC
8
DEFAULT_255_2_778
10
20.1216961
20
28.844502
40
0.6868128
50
324.3661616
51
331.9498485
0
ARC
8
DEFAULT_255_2_778
10
20.4203112
20
28.6840488
40
0.3478239
50
332.1448487
51
359.8160779
0
ARC
8
DEFAULT_255_2_778
10
20.5071601
20
28.6932306
40
0.2611763
50
357.7402104
51
41.5120145
0
ARC
8
DEFAULT_255_2_778
10
20.5379932
20
28.7136042
40
0.2246446
50
42.8331297
51
92.5155745
0
ARC
8
DEFAULT_255_2_778
10
20.5131503
20
28.6689556
40
0.2694935
50
86.8128768
51
132.3629929
0
ARC
8
DEFAULT_255_2_778
10
20.4938077
20
28.7017603
40
0.2323522
50
134.2898579
51
136.7268933
0
ARC
8
DEFAULT_255_2_778
10
20.5420462
20
28.6699063
40
0.2894779
50
138.6815457
51
180.4134724
0
ARC
8
DEFAULT_255_2_778
10
20.7463284
20
28.6469105
40
0.494195
50
177.5753843
51
180.0206619
0
ARC
8
DEFAULT_255_2_778
10
20.5053598
20
28.6646787
40
0.429002
50
135.4696349
51
182.3975464
0
ARC
8
DEFAULT_255_2_778
10
20.5003033
20
28.6521272
40
0.4343792
50
90.5057179
51
133.8214436
0
ARC
8
DEFAULT_255_2_778
10
20.5278847
20
28.4223971
40
0.664835
50
89.9785694
51
92.7084011
0
ARC
8
DEFAULT_255_2_778
10
20.5416292
20
28.6041562
40
0.4832646
50
63.8943368
51
91.600277
0
ARC
8
DEFAULT_255_2_778
10
20.5906727
20
28.7235579
40
0.354565
50
46.9673016
51
62.520674
0
ARC
8
DEFAULT_255_2_778
10
20.5824464
20
28.7205009
40
0.3624345
50
357.4905852
51
46.346485
0
ARC
8
DEFAULT_255_2_778
10
20.4655505
20
28.7176906
40
0.4791609
50
333.7371208
51
358.438354
0
ARC
8
DEFAULT_255_2_778
10
19.9623603
20
28.9498384
40
1.0332328
50
322.5910016
51
334.5397055
0
ARC
8
DEFAULT_255_2_778
10
19.3535207
20
29.3962351
40
1.7880974
50
318.1149295
51
323.0809098
0
LINE
8
DEFAULT_255_2_778
10
21.0080333
20
27.7873323
11
21.0080333
21
27.6391323
0
LINE
8
DEFAULT_255_2_778
10
21.0080333
20
27.6391323
11
20.1034333
21
27.6391323
0
LINE
8
DEFAULT_255_2_778
10
20.1034333
20
27.6391323
11
20.1034333
21
27.7696323
0
LINE
8
DEFAULT_255_2_778
10
20.1034333
20
27.7696323
11
20.5813333
21
28.3189323
0
LINE
8
DEFAULT_255_2_778
10
20.2521333
20
28.6467323
11
20.0767333
21
28.6467323
0
LINE
8
DEFAULT_255_2_778
10
20.6847333
20
28.2024323
11
20.3148333
21
27.7876323
0
LINE
8
DEFAULT_255_2_778
10
20.3148333
20
27.7876323
11
21.0080333
21
27.7876323
0
LINE
8
DEFAULT_255_2_778
10
21.0080333
20
27.7876323
11
21.0080333
21
27.7873323
0
LINE
8
DEFAULT_255_2_778
10
21.5769219
20
28.3198833
11
21.5769219
21
28.1716833
0
LINE
8
DEFAULT_255_2_778
10
21.5769219
20
28.1716833
11
21.1141219
21
28.1716833
0
LINE
8
DEFAULT_255_2_778
10
21.1141219
20
28.1716833
11
21.1141219
21
28.3198833
0
LINE
8
DEFAULT_255_2_778
10
21.1141219
20
28.3198833
11
21.5769219
21
28.3198833
0
LINE
8
DEFAULT_255_2_778
10
21.5769219
20
28.3198833
11
21.5769219
21
28.3198833
0
ARC
8
DEFAULT_255_2_778
10
18.0870268
20
7.2453958
40
0.6097206
50
330.3465634
51
354.8145625
0
ARC
8
DEFAULT_255_2_778
10
18.2317151
20
7.172351
40
0.4479159
50
312.2108141
51
329.3095556
0
ARC
8
DEFAULT_255_2_778
10
18.2104929
20
7.2091919
40
0.4895449
50
273.3727232
51
311.1535226
0
ARC
8
DEFAULT_255_2_778
10
18.1719714
20
7.4728378
40
0.755349
50
269.9226804
51
275.1133855
0
ARC
8
DEFAULT_255_2_778
10
18.1547147
20
7.1966943
40
0.4794798
50
218.3812408
51
271.9406664
0
ARC
8
DEFAULT_255_2_778
10
18.2956111
20
7.3052291
40
0.6573207
50
188.276129
51
218.1719338
0
ARC
8
DEFAULT_255_2_778
10
18.678916
20
7.3794454
40
1.047476
50
179.7240865
51
189.275471
0
ARC
8
DEFAULT_255_2_778
10
18.5036172
20
7.5351165
40
0.8722654
50
160.6881617
51
180.8688631
0
ARC
8
DEFAULT_255_2_778
10
18.3199198
20
7.5894215
40
0.6810114
50
155.4947
51
159.8887768
0
ARC
8
DEFAULT_255_2_778
10
18.1834479
20
7.6637056
40
0.5261356
50
123.2134377
51
156.6913015
0
ARC
8
DEFAULT_255_2_778
10
18.1766986
20
7.6561263
40
0.5288706
50
88.8457665
51
122.1518658
0
ARC
8
DEFAULT_255_2_778
10
18.2013238
20
7.6467753
40
0.5382956
50
62.7995675
51
91.4873071
0
ARC
8
DEFAULT_255_2_778
10
18.2433902
20
7.7488188
40
0.4284076
50
46.1735819
51
61.5650138
0
ARC
8
DEFAULT_255_2_778
10
18.1814947
20
7.6957398
40
0.5096233
50
8.8442965
51
45.28559
0
ARC
8
DEFAULT_255_2_778
10
17.9208802
20
7.6325293
40
0.7771802
50
5.4460006
51
10.4951357
0
ARC
8
DEFAULT_255_2_778
10
17.956985
20
7.6414226
40
0.5582486
50
6.6726848
51
24.8137879
0
ARC
8
DEFAULT_255_2_778
10
18.2129332
20
7.756125
40
0.2778129
50
25.4946563
51
45.2399967
0
ARC
8
DEFAULT_255_2_778
10
18.2115758
20
7.7358796
40
0.2934455
50
47.8361155
51
90.1007886
0
ARC
8
DEFAULT_255_2_778
10
18.1872817
20
7.5293138
40
0.5005759
50
87.2773659
51
90.026284
0
ARC
8
DEFAULT_255_2_778
10
18.1745001
20
7.7083601
40
0.3217744
50
87.7643954
51
144.2208397
0
ARC
8
DEFAULT_255_2_778
10
18.3198404
20
7.6095047
40
0.4975056
50
144.7708816
51
171.1919732
0
ARC
8
DEFAULT_255_2_778
10
18.7583527
20
7.5238342
40
0.944127
50
170.1290881
51
180.4275172
0
ARC
8
DEFAULT_255_2_778
10
18.6328911
20
7.3659841
40
0.8187345
50
179.1248224
51
195.5158866
0
ARC
8
DEFAULT_255_2_778
10
18.3128394
20
7.2805733
40
0.4875101
50
195.9057907
51
213.9109659
0
ARC
8
DEFAULT_255_2_778
10
18.1607038
20
7.1714282
40
0.3004135
50
212.8231906
51
271.9549691
0
ARC
8
DEFAULT_255_2_778
10
18.1835606
20
7.2783066
40
0.4073123
50
268.2261012
51
293.5231844
0
ARC
8
DEFAULT_255_2_778
10
18.2408218
20
7.1294526
40
0.2480702
50
295.1188999
51
311.0555927
0
ARC
8
DEFAULT_255_2_778
10
18.1934727
20
7.1620889
40
0.3041138
50
313.7449706
51
344.3583977
0
ARC
8
DEFAULT_255_2_778
10
17.8294668
20
7.2880169
40
0.6889802
50
342.4352397
51
351.8286659
0
LINE
8
DEFAULT_255_2_778
10
18.5111521
20
7.1902896
11
18.6942521
21
7.1902896
0
LINE
8
DEFAULT_255_2_778
10
17.6314521
20
7.3844896
11
17.6314521
21
7.5218896
0
LINE
8
DEFAULT_255_2_778
10
18.6945521
20
7.7062896
11
18.5114521
21
7.7062896
0
LINE
8
DEFAULT_255_2_778
10
17.8142521
20
7.5167896
11
17.8142521
21
7.3784896
0
LINE
8
DEFAULT_255_2_778
10
18.5114521
20
7.1900896
11
18.5111521
21
7.1902896
0
ARC
8
DEFAULT_255_2_778
10
19.0301756
20
7.3920166
40
0.9747512
50
343.165184
51
0.766555
0
ARC
8
DEFAULT_255_2_778
10
19.2684969
20
7.329368
40
0.728556
50
336.4828707
51
342.4528645
0
ARC
8
DEFAULT_255_2_778
10
19.4441068
20
7.2395703
40
0.5318422
50
304.2121359
51
337.8044962
0
ARC
8
DEFAULT_255_2_778
10
19.4623268
20
7.2369088
40
0.5195742
50
268.7552134
51
302.715451
0
ARC
8
DEFAULT_255_2_778
10
19.4420837
20
7.2326287
40
0.5152493
50
237.0504722
51
270.9959461
0
ARC
8
DEFAULT_255_2_778
10
19.4638474
20
7.249774
40
0.5415478
50
203.1859965
51
236.104818
0
ARC
8
DEFAULT_255_2_778
10
19.7449605
20
7.3764822
40
0.8498628
50
181.6784986
51
203.5766941
0
ARC
8
DEFAULT_255_2_778
10
20.054792
20
7.403975
40
1.1605125
50
180.5834628
51
182.5872436
0
ARC
8
DEFAULT_255_2_778
10
19.8301197
20
7.5081929
40
0.9358723
50
161.2955045
51
180.8042112
0
ARC
8
DEFAULT_255_2_778
10
19.6391993
20
7.562793
40
0.7375872
50
156.3345481
51
160.5568012
0
ARC
8
DEFAULT_255_2_778
10
19.4648783
20
7.6531497
40
0.5418079
50
124.3148252
51
157.6868289
0
ARC
8
DEFAULT_255_2_778
10
19.4404244
20
7.6725448
40
0.5120866
50
89.0248325
51
123.2782513
0
ARC
8
DEFAULT_255_2_778
10
19.4592133
20
7.6614172
40
0.5232371
50
57.3061731
51
91.1031613
0
ARC
8
DEFAULT_255_2_778
10
19.4443875
20
7.6611093
40
0.5316469
50
22.138333
51
55.9793345
0
ARC
8
DEFAULT_255_2_778
10
19.1281728
20
7.52474
40
0.8759683
50
1.836859
51
22.6061424
0
ARC
8
DEFAULT_255_2_778
10
18.7886577
20
7.4955492
40
1.2163821
50
359.9768273
51
2.6985591
0
ARC
8
DEFAULT_255_2_778
10
18.9042454
20
7.5097228
40
0.91938
50
359.2168896
51
13.3276211
0
ARC
8
DEFAULT_255_2_778
10
19.3327456
20
7.6124761
40
0.4787353
50
13.1829837
51
35.0131372
0
ARC
8
DEFAULT_255_2_778
10
19.4621843
20
7.7014613
40
0.3216688
50
35.2601217
51
92.3598191
0
ARC
8
DEFAULT_255_2_778
10
19.4381795
20
7.7043586
40
0.3186804
50
88.0650705
51
144.9975556
0
ARC
8
DEFAULT_255_2_778
10
19.6089286
20
7.5868092
40
0.525976
50
145.1779135
51
171.431765
0
ARC
8
DEFAULT_255_2_778
10
20.0259766
20
7.5055642
40
0.9506482
50
170.3345729
51
179.7231726
0
ARC
8
DEFAULT_255_2_778
10
19.9383148
20
7.3926189
40
0.8630648
50
179.1742358
51
194.7162599
0
ARC
8
DEFAULT_255_2_778
10
19.5826657
20
7.3009064
40
0.4957872
50
194.9060633
51
214.7573045
0
ARC
8
DEFAULT_255_2_778
10
19.4402791
20
7.1969603
40
0.3195743
50
213.9998614
51
271.8757744
0
ARC
8
DEFAULT_255_2_778
10
19.4651728
20
7.1950876
40
0.3178582
50
267.3974441
51
324.4669709
0
ARC
8
DEFAULT_255_2_778
10
19.3063663
20
7.2988858
40
0.5074768
50
325.3504726
51
350.492182
0
ARC
8
DEFAULT_255_2_778
10
18.8395852
20
7.3943321
40
0.983759
50
349.5002025
51
359.8267418
0
LINE
8
DEFAULT_255_2_778
10
20.0048396
20
7.4953573
11
20.0048396
21
7.4050573
0
LINE
8
DEFAULT_255_2_778
10
18.8943396
20
7.3921573
11
18.8943396
21
7.4950573
0
LINE
8
DEFAULT_255_2_778
10
20.0050396
20
7.4950573
11
20.0048396
21
7.4953573
0
LINE
8
DEFAULT_255_2_778
10
19.8235396
20
7.3913573
11
19.8235396
21
7.4971573
0
LINE
8
DEFAULT_255_2_778
10
19.0753396
20
7.5101573
11
19.0753396
21
7.4050573
0
LINE
8
DEFAULT_255_2_778
10
19.8233396
20
7.3913573
11
19.8235396
21
7.3913573
0
LINE
8
DEFAULT_255_2_778
10
20.2780962
20
8.1653104
11
20.5132962
21
8.1653104
0
LINE
8
DEFAULT_255_2_778
10
20.5132962
20
8.1653104
11
20.9646962
21
7.0001104
0
LINE
8
DEFAULT_255_2_778
10
20.9646962
20
7.0001104
11
21.4160962
21
8.1653104
0
LINE
8
DEFAULT_255_2_778
10
21.4160962
20
8.1653104
11
21.6520962
21
8.1653104
0
LINE
8
DEFAULT_255_2_778
10
21.6520962
20
8.1653104
11
21.6520962
21
6.7371104
0
LINE
8
DEFAULT_255_2_778
10
21.6520962
20
6.7371104
11
21.4699962
21
6.7371104
0
LINE
8
DEFAULT_255_2_778
10
21.4699962
20
6.7371104
11
21.4699962
21
7.2932104
0
LINE
8
DEFAULT_255_2_778
10
21.4699962
20
7.2932104
11
21.4871962
21
7.8936104
0
LINE
8
DEFAULT_255_2_778
10
21.4871962
20
7.8936104
11
21.0339962
21
6.7371104
0
LINE
8
DEFAULT_255_2_778
10
21.0339962
20
6.7371104
11
20.8945962
21
6.7371104
0
LINE
8
DEFAULT_255_2_778
10
20.8945962
20
6.7371104
11
20.4421962
21
7.8907104
0
LINE
8
DEFAULT_255_2_778
10
20.4421962
20
7.8907104
11
20.4600962
21
7.2932104
0
LINE
8
DEFAULT_255_2_778
10
20.4600962
20
7.2932104
11
20.4600962
21
6.7371104
0
LINE
8
DEFAULT_255_2_778
10
20.4600962
20
6.7371104
11
20.2780962
21
6.7371104
0
LINE
8
DEFAULT_255_2_778
10
20.2780962
20
6.7371104
11
20.2780962
21
8.1653104
0
LINE
8
DEFAULT_255_2_778
10
20.2780962
20
8.1653104
11
20.2780962
21
8.1653104
0
LINE
8
DEFAULT_255_2_778
10
18.7063841
20
39.4718104
11
18.7063841
21
39.3168104
0
LINE
8
DEFAULT_255_2_778
10
18.7063841
20
39.3168104
11
18.2626841
21
39.3168104
0
LINE
8
DEFAULT_255_2_778
10
18.2626841
20
39.3168104
11
18.2626841
21
38.0436104
0
LINE
8
DEFAULT_255_2_778
10
18.2626841
20
38.0436104
11
18.0814841
21
38.0436104
0
LINE
8
DEFAULT_255_2_778
10
18.0814841
20
38.0436104
11
18.0814841
21
39.3168104
0
LINE
8
DEFAULT_255_2_778
10
18.0814841
20
39.3168104
11
17.6385841
21
39.3168104
0
LINE
8
DEFAULT_255_2_778
10
17.6385841
20
39.3168104
11
17.6385841
21
39.4718104
0
LINE
8
DEFAULT_255_2_778
10
17.6385841
20
39.4718104
11
18.7063841
21
39.4718104
0
LINE
8
DEFAULT_255_2_778
10
18.7063841
20
39.4718104
11
18.7063841
21
39.4718104
0
ARC
8
DEFAULT_255_2_778
10
19.2930268
20
38.5518958
40
0.6097206
50
330.3465634
51
354.8145625
0
ARC
8
DEFAULT_255_2_778
10
19.4377151
20
38.478851
40
0.4479159
50
312.2108141
51
329.3095556
0
ARC
8
DEFAULT_255_2_778
10
19.4164929
20
38.5156919
40
0.4895449
50
273.3727232
51
311.1535226
0
ARC
8
DEFAULT_255_2_778
10
19.3779714
20
38.7793378
40
0.755349
50
269.9226804
51
275.1133855
0
ARC
8
DEFAULT_255_2_778
10
19.3607147
20
38.5031943
40
0.4794798
50
218.3812408
51
271.9406664
0
ARC
8
DEFAULT_255_2_778
10
19.5016111
20
38.6117291
40
0.6573207
50
188.276129
51
218.1719338
0
ARC
8
DEFAULT_255_2_778
10
19.884916
20
38.6859454
40
1.047476
50
179.7240865
51
189.275471
0
ARC
8
DEFAULT_255_2_778
10
19.7096172
20
38.8416165
40
0.8722654
50
160.6881617
51
180.8688631
0
ARC
8
DEFAULT_255_2_778
10
19.5259198
20
38.8959215
40
0.6810114
50
155.4947
51
159.8887768
0
ARC
8
DEFAULT_255_2_778
10
19.3894479
20
38.9702056
40
0.5261356
50
123.2134377
51
156.6913015
0
ARC
8
DEFAULT_255_2_778
10
19.3826986
20
38.9626263
40
0.5288706
50
88.8457665
51
122.1518658
0
ARC
8
DEFAULT_255_2_778
10
19.4073238
20
38.9532753
40
0.5382956
50
62.7995675
51
91.4873071
0
ARC
8
DEFAULT_255_2_778
10
19.4493902
20
39.0553188
40
0.4284076
50
46.1735819
51
61.5650138
0
ARC
8
DEFAULT_255_2_778
10
19.3874947
20
39.0022398
40
0.5096233
50
8.8442965
51
45.28559
0
ARC
8
DEFAULT_255_2_778
10
19.1268802
20
38.9390293
40
0.7771802
50
5.4460006
51
10.4951357
0
ARC
8
DEFAULT_255_2_778
10
19.162985
20
38.9479226
40
0.5582486
50
6.6726848
51
24.8137879
0
ARC
8
DEFAULT_255_2_778
10
19.4189332
20
39.062625
40
0.2778129
50
25.4946563
51
45.2399967
0
ARC
8
DEFAULT_255_2_778
10
19.4175758
20
39.0423796
40
0.2934455
50
47.8361155
51
90.1007886
0
ARC
8
DEFAULT_255_2_778
10
19.3932817
20
38.8358138
40
0.5005759
50
87.2773659
51
90.026284
0
ARC
8
DEFAULT_255_2_778
10
19.3805001
20
39.0148601
40
0.3217744
50
87.7643954
51
144.2208397
0
ARC
8
DEFAULT_255_2_778
10
19.5258404
20
38.9160047
40
0.4975056
50
144.7708816
51
171.1919732
0
ARC
8
DEFAULT_255_2_778
10
19.9643527
20
38.8303342
40
0.944127
50
170.1290881
51
180.4275172
0
ARC
8
DEFAULT_255_2_778
10
19.8388911
20
38.6724841
40
0.8187345
50
179.1248224
51
195.5158866
0
ARC
8
DEFAULT_255_2_778
10
19.5188394
20
38.5870733
40
0.4875101
50
195.9057907
51
213.9109659
0
ARC
8
DEFAULT_255_2_778
10
19.3667038
20
38.4779282
40
0.3004135
50
212.8231906
51
271.9549691
0
ARC
8
DEFAULT_255_2_778
10
19.3895606
20
38.5848066
40
0.4073123
50
268.2261012
51
293.5231844
0
ARC
8
DEFAULT_255_2_778
10
19.4468218
20
38.4359526
40
0.2480702
50
295.1188999
51
311.0555927
0
ARC
8
DEFAULT_255_2_778
10
19.3994727
20
38.4685889
40
0.3041138
50
313.7449706
51
344.3583977
0
ARC
8
DEFAULT_255_2_778
10
19.0354668
20
38.5945169
40
0.6889802
50
342.4352397
51
351.8286659
0
LINE
8
DEFAULT_255_2_778
10
19.7171521
20
38.4967896
11
19.9002521
21
38.4967896
0
LINE
8
DEFAULT_255_2_778
10
18.8374521
20
38.6909896
11
18.8374521
21
38.8283896
0
LINE
8
DEFAULT_255_2_778
10
19.9005521
20
39.0127896
11
19.7174521
21
39.0127896
0
LINE
8
DEFAULT_255_2_778
10
19.0202521
20
38.8232896
11
19.0202521
21
38.6849896
0
LINE
8
DEFAULT_255_2_778
10
19.7174521
20
38.4965896
11
19.7171521
21
38.4967896
0
LINE
8
DEFAULT_255_2_778
10
20.6799875
20
39.47875
11
20.6799875
21
38.04365
0
LINE
8
DEFAULT_255_2_778
10
20.6799875
20
38.04365
11
20.5034875
21
38.04365
0
LINE
8
DEFAULT_255_2_778
10
20.5034875
20
38.04365
11
20.5034875
21
39.25305
0
LINE
8
DEFAULT_255_2_778
10
20.5034875
20
39.25305
11
20.1497875
21
39.11865
0
LINE
8
DEFAULT_255_2_778
10
20.1497875
20
39.11865
11
20.1497875
21
39.28345
0
LINE
8
DEFAULT_255_2_778
10
20.1497875
20
39.28345
11
20.6524875
21
39.47875
0
LINE
8
DEFAULT_255_2_778
10
20.6524875
20
39.47875
11
20.6799875
21
39.47875
0
LINE
8
DEFAULT_255_2_778
10
20.6799875
20
39.47875
11
20.6799875
21
39.47875
0
LINE
8
DEFAULT_255_2_778
10
21.7143927
20
39.2265062
11
21.7143927
21
38.8095062
0
LINE
8
DEFAULT_255_2_778
10
21.7143927
20
38.8095062
11
22.0993927
21
38.8095062
0
LINE
8
DEFAULT_255_2_778
10
22.0993927
20
38.8095062
11
22.0993927
21
38.6378062
0
LINE
8
DEFAULT_255_2_778
10
22.0993927
20
38.6378062
11
21.7143927
21
38.6378062
0
LINE
8
DEFAULT_255_2_778
10
21.7143927
20
38.6378062
11
21.7143927
21
38.1867062
0
LINE
8
DEFAULT_255_2_778
10
21.7143927
20
38.1867062
11
21.5379927
21
38.1867062
0
LINE
8
DEFAULT_255_2_778
10
21.5379927
20
38.1867062
11
21.5379927
21
38.6378062
0
LINE
8
DEFAULT_255_2_778
10
21.5379927
20
38.6378062
11
21.1529927
21
38.6378062
0
LINE
8
DEFAULT_255_2_778
10
21.1529927
20
38.6378062
11
21.1529927
21
38.8095062
0
LINE
8
DEFAULT_255_2_778
10
21.1529927
20
38.8095062
11
21.5379927
21
38.8095062
0
LINE
8
DEFAULT_255_2_778
10
21.5379927
20
38.8095062
11
21.5379927
21
39.2265062
0
LINE
8
DEFAULT_255_2_778
10
21.5379927
20
39.2265062
11
21.7143927
21
39.2265062
0
LINE
8
DEFAULT_255_2_778
10
21.7143927
20
39.2265062
11
21.7143927
21
39.2265062
0
ARC
8
DEFAULT_255_2_778
10
18.1610239
20
42.0671204
40
0.6095175
50
330.2715244
51
354.8199441
0
ARC
8
DEFAULT_255_2_778
10
18.3051152
20
41.9942379
40
0.4483232
50
312.2326207
51
329.2281898
0
ARC
8
DEFAULT_255_2_778
10
18.2843295
20
42.0311999
40
0.4897528
50
273.3670036
51
311.1265873
0
ARC
8
DEFAULT_255_2_778
10
18.2457715
20
42.2952373
40
0.7559485
50
269.922736
51
275.1093134
0
ARC
8
DEFAULT_255_2_778
10
18.2285147
20
42.0184943
40
0.4794798
50
218.3812408
51
271.9406664
0
ARC
8
DEFAULT_255_2_778
10
18.3694111
20
42.1270291
40
0.6573207
50
188.276129
51
218.1719338
0
ARC
8
DEFAULT_255_2_778
10
18.752716
20
42.2012454
40
1.047476
50
179.7240865
51
189.275471
0
ARC
8
DEFAULT_255_2_778
10
18.5774172
20
42.3569165
40
0.8722654
50
160.6881617
51
180.8688631
0
ARC
8
DEFAULT_255_2_778
10
18.3937198
20
42.4112215
40
0.6810114
50
155.4947
51
159.8887768
0
ARC
8
DEFAULT_255_2_778
10
18.2572479
20
42.4855056
40
0.5261356
50
123.2134377
51
156.6913015
0
ARC
8
DEFAULT_255_2_778
10
18.2504986
20
42.4779263
40
0.5288706
50
88.8457665
51
122.1518658
0
ARC
8
DEFAULT_255_2_778
10
18.2751238
20
42.4685753
40
0.5382956
50
62.7995675
51
91.4873071
0
ARC
8
DEFAULT_255_2_778
10
18.3171902
20
42.5706188
40
0.4284076
50
46.1735819
51
61.5650138
0
ARC
8
DEFAULT_255_2_778
10
18.2552947
20
42.5175398
40
0.5096233
50
8.8442965
51
45.28559
0
ARC
8
DEFAULT_255_2_778
10
17.9946802
20
42.4543293
40
0.7771802
50
5.4460006
51
10.4951357
0
ARC
8
DEFAULT_255_2_778
10
18.030785
20
42.4632226
40
0.5582486
50
6.6726848
51
24.8137879
0
ARC
8
DEFAULT_255_2_778
10
18.2867332
20
42.577925
40
0.2778129
50
25.4946563
51
45.2399967
0
ARC
8
DEFAULT_255_2_778
10
18.2853758
20
42.5576796
40
0.2934455
50
47.8361155
51
90.1007886
0
ARC
8
DEFAULT_255_2_778
10
18.2610817
20
42.3511138
40
0.5005759
50
87.2773659
51
90.026284
0
ARC
8
DEFAULT_255_2_778
10
18.2483001
20
42.5301601
40
0.3217744
50
87.7643954
51
144.2208397
0
ARC
8
DEFAULT_255_2_778
10
18.3941139
20
42.4311305
40
0.4979929
50
144.785932
51
171.1858352
0
ARC
8
DEFAULT_255_2_778
10
18.831786
20
42.3456196
40
0.9437602
50
170.1272043
51
180.4267991
0
ARC
8
DEFAULT_255_2_778
10
18.7066911
20
42.1877841
40
0.8187345
50
179.1248224
51
195.5158866
0
ARC
8
DEFAULT_255_2_778
10
18.3866394
20
42.1023733
40
0.4875101
50
195.9057907
51
213.9109659
0
ARC
8
DEFAULT_255_2_778
10
18.2345038
20
41.9932282
40
0.3004135
50
212.8231906
51
271.9549691
0
ARC
8
DEFAULT_255_2_778
10
18.2573606
20
42.1001066
40
0.4073123
50
268.2261012
51
293.5231844
0
ARC
8
DEFAULT_255_2_778
10
18.3146218
20
41.9512526
40
0.2480702
50
295.1188999
51
311.0555927
0
ARC
8
DEFAULT_255_2_778
10
18.2672727
20
41.9838889
40
0.3041138
50
313.7449706
51
344.3583977
0
ARC
8
DEFAULT_255_2_778
10
17.9032668
20
42.1098169
40
0.6889802
50
342.4352397
51
351.8286659
0
LINE
8
DEFAULT_255_2_778
10
18.5849521
20
42.0120896
11
18.7680521
21
42.0120896
0
LINE
8
DEFAULT_255_2_778
10
17.7052521
20
42.2062896
11
17.7052521
21
42.3436896
0
LINE
8
DEFAULT_255_2_778
10
18.7683521
20
42.5280896
11
18.5852521
21
42.5280896
0
LINE
8
DEFAULT_255_2_778
10
17.8880521
20
42.3385896
11
17.8880521
21
42.2002896
0
LINE
8
DEFAULT_255_2_778
10
18.5852521
20
42.0118896
11
18.5849521
21
42.0120896
0
ARC
8
DEFAULT_255_2_778
10
19.1039756
20
42.2138166
40
0.9747512
50
343.165184
51
0.766555
0
ARC
8
DEFAULT_255_2_778
10
19.3422969
20
42.151168
40
0.728556
50
336.4828707
51
342.4528645
0
ARC
8
DEFAULT_255_2_778
10
19.5179068
20
42.0613703
40
0.5318422
50
304.2121359
51
337.8044962
0
ARC
8
DEFAULT_255_2_778
10
19.5361268
20
42.0587088
40
0.5195742
50
268.7552134
51
302.715451
0
ARC
8
DEFAULT_255_2_778
10
19.5158837
20
42.0544287
40
0.5152493
50
237.0504722
51
270.9959461
0
ARC
8
DEFAULT_255_2_778
10
19.5376474
20
42.071574
40
0.5415478
50
203.1859965
51
236.104818
0
ARC
8
DEFAULT_255_2_778
10
19.8187605
20
42.1982822
40
0.8498628
50
181.6784986
51
203.5766941
0
ARC
8
DEFAULT_255_2_778
10
20.128592
20
42.225775
40
1.1605125
50
180.5834628
51
182.5872436
0
ARC
8
DEFAULT_255_2_778
10
19.9039197
20
42.3299929
40
0.9358723
50
161.2955045
51
180.8042112
0
ARC
8
DEFAULT_255_2_778
10
19.7129993
20
42.384593
40
0.7375872
50
156.3345481
51
160.5568012
0
ARC
8
DEFAULT_255_2_778
10
19.5386783
20
42.4749497
40
0.5418079
50
124.3148252
51
157.6868289
0
ARC
8
DEFAULT_255_2_778
10
19.5142244
20
42.4943448
40
0.5120866
50
89.0248325
51
123.2782513
0
ARC
8
DEFAULT_255_2_778
10
19.5330133
20
42.4832172
40
0.5232371
50
57.3061731
51
91.1031613
0
ARC
8
DEFAULT_255_2_778
10
19.5181875
20
42.4829093
40
0.5316469
50
22.138333
51
55.9793345
0
ARC
8
DEFAULT_255_2_778
10
19.2019728
20
42.34654
40
0.8759683
50
1.836859
51
22.6061424
0
ARC
8
DEFAULT_255_2_778
10
18.8624577
20
42.3173492
40
1.2163821
50
359.9768273
51
2.6985591
0
ARC
8
DEFAULT_255_2_778
10
18.9780454
20
42.3315228
40
0.91938
50
359.2168896
51
13.3276211
0
ARC
8
DEFAULT_255_2_778
10
19.4065456
20
42.4342761
40
0.4787353
50
13.1829837
51
35.0131372
0
ARC
8
DEFAULT_255_2_778
10
19.5359843
20
42.5232613
40
0.3216688
50
35.2601217
51
92.3598191
0
ARC
8
DEFAULT_255_2_778
10
19.5119795
20
42.5261586
40
0.3186804
50
88.0650705
51
144.9975556
0
ARC
8
DEFAULT_255_2_778
10
19.6827286
20
42.4086092
40
0.525976
50
145.1779135
51
171.431765
0
ARC
8
DEFAULT_255_2_778
10
20.0997766
20
42.3273642
40
0.9506482
50
170.3345729
51
179.7231726
0
ARC
8
DEFAULT_255_2_778
10
20.0121148
20
42.2144189
40
0.8630648
50
179.1742358
51
194.7162599
0
ARC
8
DEFAULT_255_2_778
10
19.6564657
20
42.1227064
40
0.4957872
50
194.9060633
51
214.7573045
0
ARC
8
DEFAULT_255_2_778
10
19.5140791
20
42.0187603
40
0.3195743
50
213.9998614
51
271.8757744
0
ARC
8
DEFAULT_255_2_778
10
19.5389728
20
42.0168876
40
0.3178582
50
267.3974441
51
324.4669709
0
ARC
8
DEFAULT_255_2_778
10
19.3801663
20
42.1206858
40
0.5074768
50
325.3504726
51
350.492182
0
ARC
8
DEFAULT_255_2_778
10
18.9133852
20
42.2161321
40
0.983759
50
349.5002025
51
359.8267418
0
LINE
8
DEFAULT_255_2_778
10
20.0786396
20
42.3171573
11
20.0786396
21
42.2268573
0
LINE
8
DEFAULT_255_2_778
10
18.9681396
20
42.2139573
11
18.9681396
21
42.3168573
0
LINE
8
DEFAULT_255_2_778
10
20.0788396
20
42.3168573
11
20.0786396
21
42.3171573
0
LINE
8
DEFAULT_255_2_778
10
19.8973396
20
42.2131573
11
19.8973396
21
42.3189573
0
LINE
8
DEFAULT_255_2_778
10
19.1491396
20
42.3319573
11
19.1491396
21
42.2268573
0
LINE
8
DEFAULT_255_2_778
10
19.8971396
20
42.2131573
11
19.8973396
21
42.2131573
0
LINE
8
DEFAULT_255_2_778
10
20.3519094
20
42.9871104
11
20.5871094
21
42.9871104
0
LINE
8
DEFAULT_255_2_778
10
20.5871094
20
42.9871104
11
21.0385094
21
41.8219104
0
LINE
8
DEFAULT_255_2_778
10
21.0385094
20
41.8219104
11
21.4899094
21
42.9871104
0
LINE
8
DEFAULT_255_2_778
10
21.4899094
20
42.9871104
11
21.7259094
21
42.9871104
0
LINE
8
DEFAULT_255_2_778
10
21.7259094
20
42.9871104
11
21.7259094
21
41.5589104
0
LINE
8
DEFAULT_255_2_778
10
21.7259094
20
41.5589104
11
21.5438094
21
41.5589104
0
LINE
8
DEFAULT_255_2_778
10
21.5438094
20
41.5589104
11
21.5438094
21
42.1150104
0
LINE
8
DEFAULT_255_2_778
10
21.5438094
20
42.1150104
11
21.5610094
21
42.7154104
0
LINE
8
DEFAULT_255_2_778
10
21.5610094
20
42.7154104
11
21.1078094
21
41.5589104
0
LINE
8
DEFAULT_255_2_778
10
21.1078094
20
41.5589104
11
20.9684094
21
41.5589104
0
LINE
8
DEFAULT_255_2_778
10
20.9684094
20
41.5589104
11
20.5159094
21
42.7125104
0
LINE
8
DEFAULT_255_2_778
10
20.5159094
20
42.7125104
11
20.5339094
21
42.1150104
0
LINE
8
DEFAULT_255_2_778
10
20.5339094
20
42.1150104
11
20.5339094
21
41.5589104
0
LINE
8
DEFAULT_255_2_778
10
20.5339094
20
41.5589104
11
20.3519094
21
41.5589104
0
LINE
8
DEFAULT_255_2_778
10
20.3519094
20
41.5589104
11
20.3519094
21
42.9871104
0
LINE
8
DEFAULT_255_2_778
10
20.3519094
20
42.9871104
11
20.3519094
21
42.9871104
0
ARC
8
DEFAULT_255_2_778
10
18.1608268
20
24.6321958
40
0.6097206
50
330.3465634
51
354.8145625
0
ARC
8
DEFAULT_255_2_778
10
18.3055151
20
24.559151
40
0.4479159
50
312.2108141
51
329.3095556
0
ARC
8
DEFAULT_255_2_778
10
18.2842929
20
24.5959919
40
0.4895449
50
273.3727232
51
311.1535226
0
ARC
8
DEFAULT_255_2_778
10
18.2457714
20
24.8596378
40
0.755349
50
269.9226804
51
275.1133855
0
ARC
8
DEFAULT_255_2_778
10
18.2285147
20
24.5834943
40
0.4794798
50
218.3812408
51
271.9406664
0
ARC
8
DEFAULT_255_2_778
10
18.3694111
20
24.6920291
40
0.6573207
50
188.276129
51
218.1719338
0
ARC
8
DEFAULT_255_2_778
10
18.752716
20
24.7662454
40
1.047476
50
179.7240865
51
189.275471
0
ARC
8
DEFAULT_255_2_778
10
18.5774172
20
24.9219165
40
0.8722654
50
160.6881617
51
180.8688631
0
ARC
8
DEFAULT_255_2_778
10
18.3937198
20
24.9762215
40
0.6810114
50
155.4947
51
159.8887768
0
ARC
8
DEFAULT_255_2_778
10
18.2572479
20
25.0505056
40
0.5261356
50
123.2134377
51
156.6913015
0
ARC
8
DEFAULT_255_2_778
10
18.2504986
20
25.0429263
40
0.5288706
50
88.8457665
51
122.1518658
0
ARC
8
DEFAULT_255_2_778
10
18.2751238
20
25.0335753
40
0.5382956
50
62.7995675
51
91.4873071
0
ARC
8
DEFAULT_255_2_778
10
18.3171902
20
25.1356188
40
0.4284076
50
46.1735819
51
61.5650138
0
ARC
8
DEFAULT_255_2_778
10
18.2552947
20
25.0825398
40
0.5096233
50
8.8442965
51
45.28559
0
ARC
8
DEFAULT_255_2_778
10
17.9946802
20
25.0193293
40
0.7771802
50
5.4460006
51
10.4951357
0
ARC
8
DEFAULT_255_2_778
10
18.030785
20
25.0282226
40
0.5582486
50
6.6726848
51
24.8137879
0
ARC
8
DEFAULT_255_2_778
10
18.2867332
20
25.142925
40
0.2778129
50
25.4946563
51
45.2399967
0
ARC
8
DEFAULT_255_2_778
10
18.2853758
20
25.1226796
40
0.2934455
50
47.8361155
51
90.1007886
0
ARC
8
DEFAULT_255_2_778
10
18.2610817
20
24.9161138
40
0.5005759
50
87.2773659
51
90.026284
0
ARC
8
DEFAULT_255_2_778
10
18.2483001
20
25.0951601
40
0.3217744
50
87.7643954
51
144.2208397
0
ARC
8
DEFAULT_255_2_778
10
18.3936404
20
24.9963047
40
0.4975056
50
144.7708816
51
171.1919732
0
ARC
8
DEFAULT_255_2_778
10
18.8321527
20
24.9106342
40
0.944127
50
170.1290881
51
180.4275172
0
ARC
8
DEFAULT_255_2_778
10
18.7066911
20
24.7527841
40
0.8187345
50
179.1248224
51
195.5158866
0
ARC
8
DEFAULT_255_2_778
10
18.3866394
20
24.6673733
40
0.4875101
50
195.9057907
51
213.9109659
0
ARC
8
DEFAULT_255_2_778
10
18.2345038
20
24.5582282
40
0.3004135
50
212.8231906
51
271.9549691
0
ARC
8
DEFAULT_255_2_778
10
18.2573606
20
24.6651066
40
0.4073123
50
268.2261012
51
293.5231844
0
ARC
8
DEFAULT_255_2_778
10
18.3146218
20
24.5162526
40
0.2480702
50
295.1188999
51
311.0555927
0
ARC
8
DEFAULT_255_2_778
10
18.2672727
20
24.5488889
40
0.3041138
50
313.7449706
51
344.3583977
0
ARC
8
DEFAULT_255_2_778
10
17.9032668
20
24.6748169
40
0.6889802
50
342.4352397
51
351.8286659
0
LINE
8
DEFAULT_255_2_778
10
18.5849521
20
24.5770896
11
18.7680521
21
24.5770896
0
LINE
8
DEFAULT_255_2_778
10
17.7052521
20
24.7712896
11
17.7052521
21
24.9086896
0
LINE
8
DEFAULT_255_2_778
10
18.7683521
20
25.0930896
11
18.5852521
21
25.0930896
0
LINE
8
DEFAULT_255_2_778
10
17.8880521
20
24.9035896
11
17.8880521
21
24.7652896
0
LINE
8
DEFAULT_255_2_778
10
18.5852521
20
24.5768896
11
18.5849521
21
24.5770896
0
ARC
8
DEFAULT_255_2_778
10
19.1039756
20
24.7789166
40
0.9747512
50
343.165184
51
0.766555
0
ARC
8
DEFAULT_255_2_778
10
19.3422969
20
24.716268
40
0.728556
50
336.4828707
51
342.4528645
0
ARC
8
DEFAULT_255_2_778
10
19.5179068
20
24.6264703
40
0.5318422
50
304.2121359
51
337.8044962
0
ARC
8
DEFAULT_255_2_778
10
19.5361268
20
24.6238088
40
0.5195742
50
268.7552134
51
302.715451
0
ARC
8
DEFAULT_255_2_778
10
19.5158837
20
24.6195287
40
0.5152493
50
237.0504722
51
270.9959461
0
ARC
8
DEFAULT_255_2_778
10
19.5376474
20
24.636674
40
0.5415478
50
203.1859965
51
236.104818
0
ARC
8
DEFAULT_255_2_778
10
19.8187605
20
24.7633822
40
0.8498628
50
181.6784986
51
203.5766941
0
ARC
8
DEFAULT_255_2_778
10
20.128592
20
24.790875
40
1.1605125
50
180.5834628
51
182.5872436
0
ARC
8
DEFAULT_255_2_778
10
19.9039197
20
24.8950929
40
0.9358723
50
161.2955045
51
180.8042112
0
ARC
8
DEFAULT_255_2_778
10
19.7129993
20
24.949693
40
0.7375872
50
156.3345481
51
160.5568012
0
ARC
8
DEFAULT_255_2_778
10
19.5386783
20
25.0400497
40
0.5418079
50
124.3148252
51
157.6868289
0
ARC
8
DEFAULT_255_2_778
10
19.5142244
20
25.0594448
40
0.5120866
50
89.0248325
51
123.2782513
0
ARC
8
DEFAULT_255_2_778
10
19.5330133
20
25.0483172
40
0.5232371
50
57.3061731
51
91.1031613
0
ARC
8
DEFAULT_255_2_778
10
19.5181875
20
25.0480093
40
0.5316469
50
22.138333
51
55.9793345
0
ARC
8
DEFAULT_255_2_778
10
19.2019728
20
24.91164
40
0.8759683
50
1.836859
51
22.6061424
0
ARC
8
DEFAULT_255_2_778
10
18.8624577
20
24.8824492
40
1.2163821
50
359.9768273
51
2.6985591
0
ARC
8
DEFAULT_255_2_778
10
18.9780454
20
24.8966228
40
0.91938
50
359.2168896
51
13.3276211
0
ARC
8
DEFAULT_255_2_778
10
19.4065456
20
24.9993761
40
0.4787353
50
13.1829837
51
35.0131372
0
ARC
8
DEFAULT_255_2_778
10
19.5359843
20
25.0883613
40
0.3216688
50
35.2601217
51
92.3598191
0
ARC
8
DEFAULT_255_2_778
10
19.5119795
20
25.0912586
40
0.3186804
50
88.0650705
51
144.9975556
0
ARC
8
DEFAULT_255_2_778
10
19.6827286
20
24.9737092
40
0.525976
50
145.1779135
51
171.431765
0
ARC
8
DEFAULT_255_2_778
10
20.0997766
20
24.8924642
40
0.9506482
50
170.3345729
51
179.7231726
0
ARC
8
DEFAULT_255_2_778
10
20.0121148
20
24.7795189
40
0.8630648
50
179.1742358
51
194.7162599
0
ARC
8
DEFAULT_255_2_778
10
19.6564657
20
24.6878064
40
0.4957872
50
194.9060633
51
214.7573045
0
ARC
8
DEFAULT_255_2_778
10
19.5140791
20
24.5838603
40
0.3195743
50
213.9998614
51
271.8757744
0
ARC
8
DEFAULT_255_2_778
10
19.5389728
20
24.5819876
40
0.3178582
50
267.3974441
51
324.4669709
0
ARC
8
DEFAULT_255_2_778
10
19.3801663
20
24.6857858
40
0.5074768
50
325.3504726
51
350.492182
0
ARC
8
DEFAULT_255_2_778
10
18.9133852
20
24.7812321
40
0.983759
50
349.5002025
51
359.8267418
0
LINE
8
DEFAULT_255_2_778
10
20.0786396
20
24.8822573
11
20.0786396
21
24.7919573
0
LINE
8
DEFAULT_255_2_778
10
18.9681396
20
24.7790573
11
18.9681396
21
24.8819573
0
LINE
8
DEFAULT_255_2_778
10
20.0788396
20
24.8819573
11
20.0786396
21
24.8822573
0
LINE
8
DEFAULT_255_2_778
10
19.8973396
20
24.7782573
11
19.8973396
21
24.8840573
0
LINE
8
DEFAULT_255_2_778
10
19.1491396
20
24.8970573
11
19.1491396
21
24.7919573
0
LINE
8
DEFAULT_255_2_778
10
19.8971396
20
24.7782573
11
19.8973396
21
24.7782573
0
LINE
8
DEFAULT_255_2_778
10
20.3519094
20
25.5521104
11
20.5871094
21
25.5521104
0
LINE
8
DEFAULT_255_2_778
10
20.5871094
20
25.5521104
11
21.0385094
21
24.3869104
0
LINE
8
DEFAULT_255_2_778
10
21.0385094
20
24.3869104
11
21.4899094
21
25.5521104
0
LINE
8
DEFAULT_255_2_778
10
21.4899094
20
25.5521104
11
21.7259094
21
25.5521104
0
LINE
8
DEFAULT_255_2_778
10
21.7259094
20
25.5521104
11
21.7259094
21
24.1239104
0
LINE
8
DEFAULT_255_2_778
10
21.7259094
20
24.1239104
11
21.5438094
21
24.1239104
0
LINE
8
DEFAULT_255_2_778
10
21.5438094
20
24.1239104
11
21.5438094
21
24.6800104
0
LINE
8
DEFAULT_255_2_778
10
21.5438094
20
24.6800104
11
21.5610094
21
25.2804104
0
LINE
8
DEFAULT_255_2_778
10
21.5610094
20
25.2804104
11
21.1078094
21
24.1239104
0
LINE
8
DEFAULT_255_2_778
10
21.1078094
20
24.1239104
11
20.9684094
21
24.1239104
0
LINE
8
DEFAULT_255_2_778
10
20.9684094
20
24.1239104
11
20.5159094
21
25.2775104
0
LINE
8
DEFAULT_255_2_778
10
20.5159094
20
25.2775104
11
20.5339094
21
24.6800104
0
LINE
8
DEFAULT_255_2_778
10
20.5339094
20
24.6800104
11
20.5339094
21
24.1239104
0
LINE
8
DEFAULT_255_2_778
10
20.5339094
20
24.1239104
11
20.3519094
21
24.1239104
0
LINE
8
DEFAULT_255_2_778
10
20.3519094
20
24.1239104
11
20.3519094
21
25.5521104
0
LINE
8
DEFAULT_255_2_778
10
20.3519094
20
25.5521104
11
20.3519094
21
25.5521104
0
LINE
8
DEFAULT_255_2_778
10
18.7063841
20
22.0368104
11
18.7063841
21
21.8818104
0
LINE
8
DEFAULT_255_2_778
10
18.7063841
20
21.8818104
11
18.2626841
21
21.8818104
0
LINE
8
DEFAULT_255_2_778
10
18.2626841
20
21.8818104
11
18.2626841
21
20.6086104
0
LINE
8
DEFAULT_255_2_778
10
18.2626841
20
20.6086104
11
18.0814841
21
20.6086104
0
LINE
8
DEFAULT_255_2_778
10
18.0814841
20
20.6086104
11
18.0814841
21
21.8818104
0
LINE
8
DEFAULT_255_2_778
10
18.0814841
20
21.8818104
11
17.6385841
21
21.8818104
0
LINE
8
DEFAULT_255_2_778
10
17.6385841
20
21.8818104
11
17.6385841
21
22.0368104
0
LINE
8
DEFAULT_255_2_778
10
17.6385841
20
22.0368104
11
18.7063841
21
22.0368104
0
LINE
8
DEFAULT_255_2_778
10
18.7063841
20
22.0368104
11
18.7063841
21
22.0368104
0
ARC
8
DEFAULT_255_2_778
10
19.2930268
20
21.1168958
40
0.6097206
50
330.3465634
51
354.8145625
0
ARC
8
DEFAULT_255_2_778
10
19.4377151
20
21.043851
40
0.4479159
50
312.2108141
51
329.3095556
0
ARC
8
DEFAULT_255_2_778
10
19.4164929
20
21.0806919
40
0.4895449
50
273.3727232
51
311.1535226
0
ARC
8
DEFAULT_255_2_778
10
19.3779714
20
21.3443378
40
0.755349
50
269.9226804
51
275.1133855
0
ARC
8
DEFAULT_255_2_778
10
19.3607147
20
21.0681943
40
0.4794798
50
218.3812408
51
271.9406664
0
ARC
8
DEFAULT_255_2_778
10
19.5016111
20
21.1767291
40
0.6573207
50
188.276129
51
218.1719338
0
ARC
8
DEFAULT_255_2_778
10
19.884916
20
21.2509454
40
1.047476
50
179.7240865
51
189.275471
0
ARC
8
DEFAULT_255_2_778
10
19.7096172
20
21.4066165
40
0.8722654
50
160.6881617
51
180.8688631
0
ARC
8
DEFAULT_255_2_778
10
19.5259198
20
21.4609215
40
0.6810114
50
155.4947
51
159.8887768
0
ARC
8
DEFAULT_255_2_778
10
19.3894479
20
21.5352056
40
0.5261356
50
123.2134377
51
156.6913015
0
ARC
8
DEFAULT_255_2_778
10
19.3826986
20
21.5276263
40
0.5288706
50
88.8457665
51
122.1518658
0
ARC
8
DEFAULT_255_2_778
10
19.4073238
20
21.5182753
40
0.5382956
50
62.7995675
51
91.4873071
0
ARC
8
DEFAULT_255_2_778
10
19.4493902
20
21.6203188
40
0.4284076
50
46.1735819
51
61.5650138
0
ARC
8
DEFAULT_255_2_778
10
19.3874947
20
21.5672398
40
0.5096233
50
8.8442965
51
45.28559
0
ARC
8
DEFAULT_255_2_778
10
19.1268802
20
21.5040293
40
0.7771802
50
5.4460006
51
10.4951357
0
ARC
8
DEFAULT_255_2_778
10
19.162985
20
21.5129226
40
0.5582486
50
6.6726848
51
24.8137879
0
ARC
8
DEFAULT_255_2_778
10
19.4189332
20
21.627625
40
0.2778129
50
25.4946563
51
45.2399967
0
ARC
8
DEFAULT_255_2_778
10
19.4175758
20
21.6073796
40
0.2934455
50
47.8361155
51
90.1007886
0
ARC
8
DEFAULT_255_2_778
10
19.3932817
20
21.4008138
40
0.5005759
50
87.2773659
51
90.026284
0
ARC
8
DEFAULT_255_2_778
10
19.3805001
20
21.5798601
40
0.3217744
50
87.7643954
51
144.2208397
0
ARC
8
DEFAULT_255_2_778
10
19.5258404
20
21.4810047
40
0.4975056
50
144.7708816
51
171.1919732
0
ARC
8
DEFAULT_255_2_778
10
19.9643527
20
21.3953342
40
0.944127
50
170.1290881
51
180.4275172
0
ARC
8
DEFAULT_255_2_778
10
19.8388911
20
21.2374841
40
0.8187345
50
179.1248224
51
195.5158866
0
ARC
8
DEFAULT_255_2_778
10
19.5188394
20
21.1520733
40
0.4875101
50
195.9057907
51
213.9109659
0
ARC
8
DEFAULT_255_2_778
10
19.3667038
20
21.0429282
40
0.3004135
50
212.8231906
51
271.9549691
0
ARC
8
DEFAULT_255_2_778
10
19.3895606
20
21.1498066
40
0.4073123
50
268.2261012
51
293.5231844
0
ARC
8
DEFAULT_255_2_778
10
19.4468218
20
21.0009526
40
0.2480702
50
295.1188999
51
311.0555927
0
ARC
8
DEFAULT_255_2_778
10
19.3994727
20
21.0335889
40
0.3041138
50
313.7449706
51
344.3583977
0
ARC
8
DEFAULT_255_2_778
10
19.0354668
20
21.1595169
40
0.6889802
50
342.4352397
51
351.8286659
0
LINE
8
DEFAULT_255_2_778
10
19.7171521
20
21.0617896
11
19.9002521
21
21.0617896
0
LINE
8
DEFAULT_255_2_778
10
18.8374521
20
21.2559896
11
18.8374521
21
21.3933896
0
LINE
8
DEFAULT_255_2_778
10
19.9005521
20
21.5777896
11
19.7174521
21
21.5777896
0
LINE
8
DEFAULT_255_2_778
10
19.0202521
20
21.3882896
11
19.0202521
21
21.2499896
0
LINE
8
DEFAULT_255_2_778
10
19.7174521
20
21.0615896
11
19.7171521
21
21.0617896
0
ARC
8
DEFAULT_255_2_778
10
20.4997585
20
21.7026532
40
0.2916511
50
268.13109
51
306.1207943
0
ARC
8
DEFAULT_255_2_778
10
20.5328219
20
21.6430534
40
0.2241757
50
308.274769
51
312.9083451
0
ARC
8
DEFAULT_255_2_778
10
20.5272557
20
21.6453483
40
0.22966
50
313.5356658
51
2.7725467
0
ARC
8
DEFAULT_255_2_778
10
20.4519534
20
21.6691029
40
0.3049558
50
357.6234371
51
27.1331534
0
ARC
8
DEFAULT_255_2_778
10
20.5495694
20
21.7025493
40
0.2033647
50
31.293346
51
89.4927144
0
ARC
8
DEFAULT_255_2_778
10
20.5155483
20
21.4932272
40
0.4142307
50
85.03901
51
90.0970204
0
ARC
8
DEFAULT_255_2_778
10
20.5027389
20
21.6614537
40
0.2463013
50
87.1822387
51
133.4516967
0
ARC
8
DEFAULT_255_2_778
10
20.5050327
20
21.6730844
40
0.2396305
50
135.7630219
51
182.5896474
0
ARC
8
DEFAULT_255_2_778
10
20.460345
20
21.6713468
40
0.3703097
50
132.525295
51
181.4065129
0
ARC
8
DEFAULT_255_2_778
10
20.4993143
20
21.6285462
40
0.4281928
50
87.9211584
51
132.497197
0
ARC
8
DEFAULT_255_2_778
10
20.5282058
20
21.5719462
40
0.4846952
50
64.4702815
51
91.5793506
0
ARC
8
DEFAULT_255_2_778
10
20.579228
20
21.697892
40
0.3491541
50
46.119387
51
63.118062
0
ARC
8
DEFAULT_255_2_778
10
20.554038
20
21.6839
40
0.3767948
50
1.3940774
51
44.8331668
0
ARC
8
DEFAULT_255_2_778
10
20.3238468
20
21.6529307
40
0.6082004
50
359.9554005
51
3.7838086
0
ARC
8
DEFAULT_255_2_778
10
20.6108455
20
21.6563918
40
0.3212255
50
324.9592442
51
359.2982025
0
ARC
8
DEFAULT_255_2_778
10
20.5798385
20
21.6680018
40
0.3533757
50
292.5135779
51
326.3046793
0
ARC
8
DEFAULT_255_2_778
10
20.6180195
20
21.0163665
40
0.3393859
50
36.4404523
51
73.3702715
0
ARC
8
DEFAULT_255_2_778
10
20.6027583
20
21.0183164
40
0.3506661
50
358.1763815
51
34.702738
0
ARC
8
DEFAULT_255_2_778
10
20.5408459
20
20.9918857
40
0.4126837
50
323.6439728
51
2.1207494
0
ARC
8
DEFAULT_255_2_778
10
20.5798285
20
20.9741997
40
0.3709107
50
312.8013261
51
322.2743443
0
ARC
8
DEFAULT_255_2_778
10
20.5381918
20
21.0291719
40
0.4395876
50
269.4433148
51
311.9147339
0
ARC
8
DEFAULT_255_2_778
10
20.5159181
20
21.2434165
40
0.6540594
50
269.9937597
51
271.577244
0
ARC
8
DEFAULT_255_2_778
10
20.5015259
20
21.0735603
40
0.4844148
50
239.6101239
51
271.6941062
0
ARC
8
DEFAULT_255_2_778
10
20.4675353
20
20.9975266
40
0.4017369
50
228.19661
51
238.3059538
0
ARC
8
DEFAULT_255_2_778
10
20.4439104
20
20.9712978
40
0.3664372
50
177.7854859
51
228.2165201
0
ARC
8
DEFAULT_255_2_778
10
20.4917854
20
20.9747717
40
0.2377787
50
177.4243153
51
225.5752226
0
ARC
8
DEFAULT_255_2_778
10
20.5026365
20
21.0019574
40
0.2650295
50
228.0144653
51
272.8570846
0
ARC
8
DEFAULT_255_2_778
10
20.5292519
20
21.0184901
40
0.2815521
50
267.2710468
51
303.530991
0
ARC
8
DEFAULT_255_2_778
10
20.5657424
20
20.9482206
40
0.2029933
50
305.902041
51
315.4273428
0
ARC
8
DEFAULT_255_2_778
10
20.5199236
20
20.9784
40
0.2570341
50
317.8037177
51
0.1945962
0
ARC
8
DEFAULT_255_2_778
10
20.3166735
20
21.002599
40
0.4608735
50
357.0988671
51
0.0321035
0
ARC
8
DEFAULT_255_2_778
10
20.5315431
20
21.0178915
40
0.2464627
50
356.502789
51
44.1829698
0
ARC
8
DEFAULT_255_2_778
10
20.5614183
20
21.0363458
40
0.2123126
50
46.2310485
51
48.0131352
0
ARC
8
DEFAULT_255_2_778
10
20.5189908
20
20.972563
40
0.2883194
50
50.2258398
51
87.3830285
0
ARC
8
DEFAULT_255_2_778
10
20.4837582
20
20.7330927
40
0.5297043
50
84.7578158
51
89.2981343
0
LINE
8
DEFAULT_255_2_778
10
20.3584469
20
21.2629573
11
20.3584469
21
21.4111573
0
LINE
8
DEFAULT_255_2_778
10
20.3584469
20
21.4111573
11
20.4902469
21
21.4111573
0
LINE
8
DEFAULT_255_2_778
10
20.2656469
20
21.6622573
11
20.0901469
21
21.6622573
0
LINE
8
DEFAULT_255_2_778
10
20.0777469
20
20.9854573
11
20.2542469
21
20.9854573
0
LINE
8
DEFAULT_255_2_778
10
20.4902469
20
21.2627573
11
20.3584469
21
21.2627573
0
LINE
8
DEFAULT_255_2_778
10
20.3584469
20
21.2627573
11
20.3584469
21
21.2629573
0
LINE
8
DEFAULT_255_2_778
10
21.7143927
20
21.7916062
11
21.7143927
21
21.3746062
0
LINE
8
DEFAULT_255_2_778
10
21.7143927
20
21.3746062
11
22.0993927
21
21.3746062
0
LINE
8
DEFAULT_255_2_778
10
22.0993927
20
21.3746062
11
22.0993927
21
21.2029062
0
LINE
8
DEFAULT_255_2_778
10
22.0993927
20
21.2029062
11
21.7143927
21
21.2029062
0
LINE
8
DEFAULT_255_2_778
10
21.7143927
20
21.2029062
11
21.7143927
21
20.7518062
0
LINE
8
DEFAULT_255_2_778
10
21.7143927
20
20.7518062
11
21.5379927
21
20.7518062
0
LINE
8
DEFAULT_255_2_778
10
21.5379927
20
20.7518062
11
21.5379927
21
21.2029062
0
LINE
8
DEFAULT_255_2_778
10
21.5379927
20
21.2029062
11
21.1529927
21
21.2029062
0
LINE
8
DEFAULT_255_2_778
10
21.1529927
20
21.2029062
11
21.1529927
21
21.3746062
0
LINE
8
DEFAULT_255_2_778
10
21.1529927
20
21.3746062
11
21.5379927
21
21.3746062
0
LINE
8
DEFAULT_255_2_778
10
21.5379927
20
21.3746062
11
21.5379927
21
21.7916062
0
LINE
8
DEFAULT_255_2_778
10
21.5379927
20
21.7916062
11
21.7143927
21
21.7916062
0
LINE
8
DEFAULT_255_2_778
10
21.7143927
20
21.7916062
11
21.7143927
21
21.7916062
0
LINE
8
DEFAULT_255_2_778
10
18.7063841
20
18.5213104
11
18.7063841
21
18.3663104
0
LINE
8
DEFAULT_255_2_778
10
18.7063841
20
18.3663104
11
18.2626841
21
18.3663104
0
LINE
8
DEFAULT_255_2_778
10
18.2626841
20
18.3663104
11
18.2626841
21
17.0931104
0
LINE
8
DEFAULT_255_2_778
10
18.2626841
20
17.0931104
11
18.0814841
21
17.0931104
0
LINE
8
DEFAULT_255_2_778
10
18.0814841
20
17.0931104
11
18.0814841
21
18.3663104
0
LINE
8
DEFAULT_255_2_778
10
18.0814841
20
18.3663104
11
17.6385841
21
18.3663104
0
LINE
8
DEFAULT_255_2_778
10
17.6385841
20
18.3663104
11
17.6385841
21
18.5213104
0
LINE
8
DEFAULT_255_2_778
10
17.6385841
20
18.5213104
11
18.7063841
21
18.5213104
0
LINE
8
DEFAULT_255_2_778
10
18.7063841
20
18.5213104
11
18.7063841
21
18.5213104
0
ARC
8
DEFAULT_255_2_778
10
19.2930268
20
17.6013958
40
0.6097206
50
330.3465634
51
354.8145625
0
ARC
8
DEFAULT_255_2_778
10
19.4377151
20
17.528351
40
0.4479159
50
312.2108141
51
329.3095556
0
ARC
8
DEFAULT_255_2_778
10
19.4164929
20
17.5651919
40
0.4895449
50
273.3727232
51
311.1535226
0
ARC
8
DEFAULT_255_2_778
10
19.3779714
20
17.8288378
40
0.755349
50
269.9226804
51
275.1133855
0
ARC
8
DEFAULT_255_2_778
10
19.3607147
20
17.5526943
40
0.4794798
50
218.3812408
51
271.9406664
0
ARC
8
DEFAULT_255_2_778
10
19.5016111
20
17.6612291
40
0.6573207
50
188.276129
51
218.1719338
0
ARC
8
DEFAULT_255_2_778
10
19.884916
20
17.7354454
40
1.047476
50
179.7240865
51
189.275471
0
ARC
8
DEFAULT_255_2_778
10
19.7096172
20
17.8911165
40
0.8722654
50
160.6881617
51
180.8688631
0
ARC
8
DEFAULT_255_2_778
10
19.5259198
20
17.9454215
40
0.6810114
50
155.4947
51
159.8887768
0
ARC
8
DEFAULT_255_2_778
10
19.3894479
20
18.0197056
40
0.5261356
50
123.2134377
51
156.6913015
0
ARC
8
DEFAULT_255_2_778
10
19.3826986
20
18.0121263
40
0.5288706
50
88.8457665
51
122.1518658
0
ARC
8
DEFAULT_255_2_778
10
19.4073238
20
18.0027753
40
0.5382956
50
62.7995675
51
91.4873071
0
ARC
8
DEFAULT_255_2_778
10
19.4493902
20
18.1048188
40
0.4284076
50
46.1735819
51
61.5650138
0
ARC
8
DEFAULT_255_2_778
10
19.3874947
20
18.0517398
40
0.5096233
50
8.8442965
51
45.28559
0
ARC
8
DEFAULT_255_2_778
10
19.1268802
20
17.9885293
40
0.7771802
50
5.4460006
51
10.4951357
0
ARC
8
DEFAULT_255_2_778
10
19.162985
20
17.9974226
40
0.5582486
50
6.6726848
51
24.8137879
0
ARC
8
DEFAULT_255_2_778
10
19.4189332
20
18.112125
40
0.2778129
50
25.4946563
51
45.2399967
0
ARC
8
DEFAULT_255_2_778
10
19.4175758
20
18.0918796
40
0.2934455
50
47.8361155
51
90.1007886
0
ARC
8
DEFAULT_255_2_778
10
19.3932817
20
17.8853138
40
0.5005759
50
87.2773659
51
90.026284
0
ARC
8
DEFAULT_255_2_778
10
19.3805001
20
18.0643601
40
0.3217744
50
87.7643954
51
144.2208397
0
ARC
8
DEFAULT_255_2_778
10
19.5258404
20
17.9655047
40
0.4975056
50
144.7708816
51
171.1919732
0
ARC
8
DEFAULT_255_2_778
10
19.9643527
20
17.8798342
40
0.944127
50
170.1290881
51
180.4275172
0
ARC
8
DEFAULT_255_2_778
10
19.8388911
20
17.7219841
40
0.8187345
50
179.1248224
51
195.5158866
0
ARC
8
DEFAULT_255_2_778
10
19.5188394
20
17.6365733
40
0.4875101
50
195.9057907
51
213.9109659
0
ARC
8
DEFAULT_255_2_778
10
19.3667038
20
17.5274282
40
0.3004135
50
212.8231906
51
271.9549691
0
ARC
8
DEFAULT_255_2_778
10
19.3895606
20
17.6343066
40
0.4073123
50
268.2261012
51
293.5231844
0
ARC
8
DEFAULT_255_2_778
10
19.4468218
20
17.4854526
40
0.2480702
50
295.1188999
51
311.0555927
0
ARC
8
DEFAULT_255_2_778
10
19.3994727
20
17.5180889
40
0.3041138
50
313.7449706
51
344.3583977
0
ARC
8
DEFAULT_255_2_778
10
19.0354668
20
17.6440169
40
0.6889802
50
342.4352397
51
351.8286659
0
LINE
8
DEFAULT_255_2_778
10
19.7171521
20
17.5462896
11
19.9002521
21
17.5462896
0
LINE
8
DEFAULT_255_2_778
10
18.8374521
20
17.7404896
11
18.8374521
21
17.8778896
0
LINE
8
DEFAULT_255_2_778
10
19.9005521
20
18.0622896
11
19.7174521
21
18.0622896
0
LINE
8
DEFAULT_255_2_778
10
19.0202521
20
17.8727896
11
19.0202521
21
17.7344896
0
LINE
8
DEFAULT_255_2_778
10
19.7174521
20
17.5460896
11
19.7171521
21
17.5462896
0
ARC
8
DEFAULT_255_2_778
10
20.4997585
20
18.1870532
40
0.2916511
50
268.13109
51
306.1207943
0
ARC
8
DEFAULT_255_2_778
10
20.5328219
20
18.1274534
40
0.2241757
50
308.274769
51
312.9083451
0
ARC
8
DEFAULT_255_2_778
10
20.5272557
20
18.1297483
40
0.22966
50
313.5356658
51
2.7725467
0
ARC
8
DEFAULT_255_2_778
10
20.4519534
20
18.1535029
40
0.3049558
50
357.6234371
51
27.1331534
0
ARC
8
DEFAULT_255_2_778
10
20.5495694
20
18.1869493
40
0.2033647
50
31.293346
51
89.4927144
0
ARC
8
DEFAULT_255_2_778
10
20.5155483
20
17.9776272
40
0.4142307
50
85.03901
51
90.0970204
0
ARC
8
DEFAULT_255_2_778
10
20.5027389
20
18.1458537
40
0.2463013
50
87.1822387
51
133.4516967
0
ARC
8
DEFAULT_255_2_778
10
20.5050327
20
18.1574844
40
0.2396305
50
135.7630219
51
182.5896474
0
ARC
8
DEFAULT_255_2_778
10
20.460345
20
18.1557468
40
0.3703097
50
132.525295
51
181.4065129
0
ARC
8
DEFAULT_255_2_778
10
20.4993143
20
18.1129462
40
0.4281928
50
87.9211584
51
132.497197
0
ARC
8
DEFAULT_255_2_778
10
20.5282058
20
18.0563462
40
0.4846952
50
64.4702815
51
91.5793506
0
ARC
8
DEFAULT_255_2_778
10
20.579228
20
18.182292
40
0.3491541
50
46.119387
51
63.118062
0
ARC
8
DEFAULT_255_2_778
10
20.554038
20
18.1683
40
0.3767948
50
1.3940774
51
44.8331668
0
ARC
8
DEFAULT_255_2_778
10
20.3238468
20
18.1373307
40
0.6082004
50
359.9554005
51
3.7838086
0
ARC
8
DEFAULT_255_2_778
10
20.6108455
20
18.1407918
40
0.3212255
50
324.9592442
51
359.2982025
0
ARC
8
DEFAULT_255_2_778
10
20.5798385
20
18.1524018
40
0.3533757
50
292.5135779
51
326.3046793
0
ARC
8
DEFAULT_255_2_778
10
20.6180195
20
17.5007665
40
0.3393859
50
36.4404523
51
73.3702715
0
ARC
8
DEFAULT_255_2_778
10
20.6027583
20
17.5027164
40
0.3506661
50
358.1763815
51
34.702738
0
ARC
8
DEFAULT_255_2_778
10
20.5408459
20
17.4762857
40
0.4126837
50
323.6439728
51
2.1207494
0
ARC
8
DEFAULT_255_2_778
10
20.5798285
20
17.4585997
40
0.3709107
50
312.8013261
51
322.2743443
0
ARC
8
DEFAULT_255_2_778
10
20.5381918
20
17.5135719
40
0.4395876
50
269.4433148
51
311.9147339
0
ARC
8
DEFAULT_255_2_778
10
20.5159181
20
17.7278165
40
0.6540594
50
269.9937597
51
271.577244
0
ARC
8
DEFAULT_255_2_778
10
20.5015259
20
17.5579603
40
0.4844148
50
239.6101239
51
271.6941062
0
ARC
8
DEFAULT_255_2_778
10
20.4675353
20
17.4819266
40
0.4017369
50
228.19661
51
238.3059538
0
ARC
8
DEFAULT_255_2_778
10
20.4439104
20
17.4556978
40
0.3664372
50
177.7854859
51
228.2165201
0
ARC
8
DEFAULT_255_2_778
10
20.4917854
20
17.4591717
40
0.2377787
50
177.4243153
51
225.5752226
0
ARC
8
DEFAULT_255_2_778
10
20.5026365
20
17.4863574
40
0.2650295
50
228.0144653
51
272.8570846
0
ARC
8
DEFAULT_255_2_778
10
20.5292519
20
17.5028901
40
0.2815521
50
267.2710468
51
303.530991
0
ARC
8
DEFAULT_255_2_778
10
20.5657424
20
17.4326206
40
0.2029933
50
305.902041
51
315.4273428
0
ARC
8
DEFAULT_255_2_778
10
20.5199236
20
17.4628
40
0.2570341
50
317.8037177
51
0.1945962
0
ARC
8
DEFAULT_255_2_778
10
20.3166735
20
17.486999
40
0.4608735
50
357.0988671
51
0.0321035
0
ARC
8
DEFAULT_255_2_778
10
20.5315431
20
17.5022915
40
0.2464627
50
356.502789
51
44.1829698
0
ARC
8
DEFAULT_255_2_778
10
20.5614183
20
17.5207458
40
0.2123126
50
46.2310485
51
48.0131352
0
ARC
8
DEFAULT_255_2_778
10
20.5189908
20
17.456963
40
0.2883194
50
50.2258398
51
87.3830285
0
ARC
8
DEFAULT_255_2_778
10
20.4837582
20
17.2174927
40
0.5297043
50
84.7578158
51
89.2981343
0
LINE
8
DEFAULT_255_2_778
10
20.3584469
20
17.7473573
11
20.3584469
21
17.8955573
0
LINE
8
DEFAULT_255_2_778
10
20.3584469
20
17.8955573
11
20.4902469
21
17.8955573
0
LINE
8
DEFAULT_255_2_778
10
20.2656469
20
18.1466573
11
20.0901469
21
18.1466573
0
LINE
8
DEFAULT_255_2_778
10
20.0777469
20
17.4698573
11
20.2542469
21
17.4698573
0
LINE
8
DEFAULT_255_2_778
10
20.4902469
20
17.7471573
11
20.3584469
21
17.7471573
0
LINE
8
DEFAULT_255_2_778
10
20.3584469
20
17.7471573
11
20.3584469
21
17.7473573
0
LINE
8
DEFAULT_255_2_778
10
21.5769219
20
17.7738833
11
21.5769219
21
17.6256833
0
LINE
8
DEFAULT_255_2_778
10
21.5769219
20
17.6256833
11
21.1141219
21
17.6256833
0
LINE
8
DEFAULT_255_2_778
10
21.1141219
20
17.6256833
11
21.1141219
21
17.7738833
0
LINE
8
DEFAULT_255_2_778
10
21.1141219
20
17.7738833
11
21.5769219
21
17.7738833
0
LINE
8
DEFAULT_255_2_778
10
21.5769219
20
17.7738833
11
21.5769219
21
17.7738833
0
LINE
8
DEFAULT_255_2_778
10
18.7063841
20
15.0061104
11
18.7063841
21
14.8511104
0
LINE
8
DEFAULT_255_2_778
10
18.7063841
20
14.8511104
11
18.2626841
21
14.8511104
0
LINE
8
DEFAULT_255_2_778
10
18.2626841
20
14.8511104
11
18.2626841
21
13.5779104
0
LINE
8
DEFAULT_255_2_778
10
18.2626841
20
13.5779104
11
18.0814841
21
13.5779104
0
LINE
8
DEFAULT_255_2_778
10
18.0814841
20
13.5779104
11
18.0814841
21
14.8511104
0
LINE
8
DEFAULT_255_2_778
10
18.0814841
20
14.8511104
11
17.6385841
21
14.8511104
0
LINE
8
DEFAULT_255_2_778
10
17.6385841
20
14.8511104
11
17.6385841
21
15.0061104
0
LINE
8
DEFAULT_255_2_778
10
17.6385841
20
15.0061104
11
18.7063841
21
15.0061104
0
LINE
8
DEFAULT_255_2_778
10
18.7063841
20
15.0061104
11
18.7063841
21
15.0061104
0
ARC
8
DEFAULT_255_2_778
10
19.2930268
20
14.0861958
40
0.6097206
50
330.3465634
51
354.8145625
0
ARC
8
DEFAULT_255_2_778
10
19.4377151
20
14.013151
40
0.4479159
50
312.2108141
51
329.3095556
0
ARC
8
DEFAULT_255_2_778
10
19.4164929
20
14.0499919
40
0.4895449
50
273.3727232
51
311.1535226
0
ARC
8
DEFAULT_255_2_778
10
19.3779714
20
14.3136378
40
0.755349
50
269.9226804
51
275.1133855
0
ARC
8
DEFAULT_255_2_778
10
19.3607147
20
14.0374943
40
0.4794798
50
218.3812408
51
271.9406664
0
ARC
8
DEFAULT_255_2_778
10
19.5016111
20
14.1460291
40
0.6573207
50
188.276129
51
218.1719338
0
ARC
8
DEFAULT_255_2_778
10
19.884916
20
14.2202454
40
1.047476
50
179.7240865
51
189.275471
0
ARC
8
DEFAULT_255_2_778
10
19.7096172
20
14.3759165
40
0.8722654
50
160.6881617
51
180.8688631
0
ARC
8
DEFAULT_255_2_778
10
19.5259198
20
14.4302215
40
0.6810114
50
155.4947
51
159.8887768
0
ARC
8
DEFAULT_255_2_778
10
19.3894479
20
14.5045056
40
0.5261356
50
123.2134377
51
156.6913015
0
ARC
8
DEFAULT_255_2_778
10
19.3826986
20
14.4969263
40
0.5288706
50
88.8457665
51
122.1518658
0
ARC
8
DEFAULT_255_2_778
10
19.4073238
20
14.4875753
40
0.5382956
50
62.7995675
51
91.4873071
0
ARC
8
DEFAULT_255_2_778
10
19.4493902
20
14.5896188
40
0.4284076
50
46.1735819
51
61.5650138
0
ARC
8
DEFAULT_255_2_778
10
19.3874947
20
14.5365398
40
0.5096233
50
8.8442965
51
45.28559
0
ARC
8
DEFAULT_255_2_778
10
19.1268802
20
14.4733293
40
0.7771802
50
5.4460006
51
10.4951357
0
ARC
8
DEFAULT_255_2_778
10
19.162985
20
14.4822226
40
0.5582486
50
6.6726848
51
24.8137879
0
ARC
8
DEFAULT_255_2_778
10
19.4189332
20
14.596925
40
0.2778129
50
25.4946563
51
45.2399967
0
ARC
8
DEFAULT_255_2_778
10
19.4175758
20
14.5766796
40
0.2934455
50
47.8361155
51
90.1007886
0
ARC
8
DEFAULT_255_2_778
10
19.3932817
20
14.3701138
40
0.5005759
50
87.2773659
51
90.026284
0
ARC
8
DEFAULT_255_2_778
10
19.3805001
20
14.5491601
40
0.3217744
50
87.7643954
51
144.2208397
0
ARC
8
DEFAULT_255_2_778
10
19.5258404
20
14.4503047
40
0.4975056
50
144.7708816
51
171.1919732
0
ARC
8
DEFAULT_255_2_778
10
19.9643527
20
14.3646342
40
0.944127
50
170.1290881
51
180.4275172
0
ARC
8
DEFAULT_255_2_778
10
19.8388911
20
14.2067841
40
0.8187345
50
179.1248224
51
195.5158866
0
ARC
8
DEFAULT_255_2_778
10
19.5188394
20
14.1213733
40
0.4875101
50
195.9057907
51
213.9109659
0
ARC
8
DEFAULT_255_2_778
10
19.3667038
20
14.0122282
40
0.3004135
50
212.8231906
51
271.9549691
0
ARC
8
DEFAULT_255_2_778
10
19.3895606
20
14.1191066
40
0.4073123
50
268.2261012
51
293.5231844
0
ARC
8
DEFAULT_255_2_778
10
19.4468218
20
13.9702526
40
0.2480702
50
295.1188999
51
311.0555927
0
ARC
8
DEFAULT_255_2_778
10
19.3994727
20
14.0028889
40
0.3041138
50
313.7449706
51
344.3583977
0
ARC
8
DEFAULT_255_2_778
10
19.0354668
20
14.1288169
40
0.6889802
50
342.4352397
51
351.8286659
0
LINE
8
DEFAULT_255_2_778
10
19.7171521
20
14.0310896
11
19.9002521
21
14.0310896
0
LINE
8
DEFAULT_255_2_778
10
18.8374521
20
14.2252896
11
18.8374521
21
14.3626896
0
LINE
8
DEFAULT_255_2_778
10
19.9005521
20
14.5470896
11
19.7174521
21
14.5470896
0
LINE
8
DEFAULT_255_2_778
10
19.0202521
20
14.3575896
11
19.0202521
21
14.2192896
0
LINE
8
DEFAULT_255_2_778
10
19.7174521
20
14.0308896
11
19.7171521
21
14.0310896
0
LINE
8
DEFAULT_255_2_778
10
20.8439573
20
15.0061104
11
20.8439573
21
14.0576104
0
LINE
8
DEFAULT_255_2_778
10
20.8439573
20
14.0576104
11
21.0355573
21
14.0576104
0
LINE
8
DEFAULT_255_2_778
10
21.0355573
20
14.0576104
11
21.0355573
21
13.9094104
0
LINE
8
DEFAULT_255_2_778
10
21.0355573
20
13.9094104
11
20.8439573
21
13.9094104
0
LINE
8
DEFAULT_255_2_778
10
20.8439573
20
13.9094104
11
20.8439573
21
13.5779104
0
LINE
8
DEFAULT_255_2_778
10
20.8439573
20
13.5779104
11
20.6674573
21
13.5779104
0
LINE
8
DEFAULT_255_2_778
10
20.6674573
20
13.5779104
11
20.6674573
21
13.9094104
0
LINE
8
DEFAULT_255_2_778
10
20.6674573
20
13.9094104
11
20.0388573
21
13.9094104
0
LINE
8
DEFAULT_255_2_778
10
20.0388573
20
13.9094104
11
20.0388573
21
14.0163104
0
LINE
8
DEFAULT_255_2_778
10
20.0388573
20
14.0163104
11
20.6571573
21
15.0058104
0
LINE
8
DEFAULT_255_2_778
10
20.6571573
20
15.0058104
11
20.8439573
21
15.0058104
0
LINE
8
DEFAULT_255_2_778
10
20.8439573
20
15.0058104
11
20.8439573
21
15.0061104
0
LINE
8
DEFAULT_255_2_778
10
20.6465573
20
14.7188104
11
20.2378573
21
14.0576104
0
LINE
8
DEFAULT_255_2_778
10
20.2378573
20
14.0576104
11
20.6674573
21
14.0576104
0
LINE
8
DEFAULT_255_2_778
10
20.6674573
20
14.0576104
11
20.6674573
21
14.7579104
0
LINE
8
DEFAULT_255_2_778
10
20.6674573
20
14.7579104
11
20.6465573
21
14.7188104
0
LINE
8
DEFAULT_255_2_778
10
20.6465573
20
14.7188104
11
20.6465573
21
14.7188104
0
LINE
8
DEFAULT_255_2_778
10
21.7143927
20
14.7608062
11
21.7143927
21
14.3438062
0
LINE
8
DEFAULT_255_2_778
10
21.7143927
20
14.3438062
11
22.0993927
21
14.3438062
0
LINE
8
DEFAULT_255_2_778
10
22.0993927
20
14.3438062
11
22.0993927
21
14.1721062
0
LINE
8
DEFAULT_255_2_778
10
22.0993927
20
14.1721062
11
21.7143927
21
14.1721062
0
LINE
8
DEFAULT_255_2_778
10
21.7143927
20
14.1721062
11
21.7143927
21
13.7210062
0
LINE
8
DEFAULT_255_2_778
10
21.7143927
20
13.7210062
11
21.5379927
21
13.7210062
0
LINE
8
DEFAULT_255_2_778
10
21.5379927
20
13.7210062
11
21.5379927
21
14.1721062
0
LINE
8
DEFAULT_255_2_778
10
21.5379927
20
14.1721062
11
21.1529927
21
14.1721062
0
LINE
8
DEFAULT_255_2_778
10
21.1529927
20
14.1721062
11
21.1529927
21
14.3438062
0
LINE
8
DEFAULT_255_2_778
10
21.1529927
20
14.3438062
11
21.5379927
21
14.3438062
0
LINE
8
DEFAULT_255_2_778
10
21.5379927
20
14.3438062
11
21.5379927
21
14.7608062
0
LINE
8
DEFAULT_255_2_778
10
21.5379927
20
14.7608062
11
21.7143927
21
14.7608062
0
LINE
8
DEFAULT_255_2_778
10
21.7143927
20
14.7608062
11
21.7143927
21
14.7608062
0
ARC
8
DEFAULT_255_2_778
10
1.9582732
20
1.4697581
40
1.6999406
50
180.0012956
51
224.9999493
0
ARC
8
DEFAULT_255_2_778
10
1.9583433
20
1.4699345
40
1.7001149
50
225.0024839
51
269.9962718
0
ARC
8
DEFAULT_255_2_778
10
25.5582942
20
1.4697602
40
1.6999406
50
270.0012956
51
314.9999493
0
ARC
8
DEFAULT_255_2_778
10
25.5582921
20
1.4697581
40
1.6999406
50
315.0000507
51
359.9987044
0
ARC
8
DEFAULT_255_2_778
10
1.958447
20
83.0698092
40
1.7001143
50
135.0024747
51
179.9962776
0
ARC
8
DEFAULT_255_2_778
10
1.9583433
20
83.0697045
40
1.700115
50
90.0037291
51
134.997511
0
ARC
8
DEFAULT_255_2_778
10
25.5582827
20
83.0705756
40
1.6992441
50
44.9903231
51
90.0084321
0
ARC
8
DEFAULT_255_2_778
10
25.5569805
20
83.0693206
40
1.7010523
50
0.0201775
51
44.9892071
0
LINE
8
DEFAULT_255_2_778
10
22.0084327
20
74.2698197
11
25.0085327
21
74.2698197
0
LINE
8
DEFAULT_255_2_778
10
25.0085327
20
74.2698197
11
22.0084327
21
69.2697197
0
LINE
8
DEFAULT_255_2_778
10
22.0084327
20
69.2697197
11
22.0084327
21
74.2698197
0
LINE
8
DEFAULT_255_2_778
10
15.7584327
20
14.2697197
11
15.7084327
21
14.2697197
0
LINE
8
DEFAULT_255_2_778
10
15.7584327
20
15.2696197
11
15.7084327
21
15.2696197
0
LINE
8
DEFAULT_255_2_778
10
15.7584327
20
25.9696197
11
15.7084327
21
25.9696197
0
LINE
8
DEFAULT_255_2_778
10
15.7584327
20
27.6695197
11
15.7084327
21
27.6695197
0
LINE
8
DEFAULT_255_2_778
10
15.7084327
20
24.5694197
11
15.7584327
21
24.5694197
0
LINE
8
DEFAULT_255_2_778
10
15.7084327
20
30.8795197
11
15.7584327
21
30.8795197
0
LINE
8
DEFAULT_255_2_778
10
15.7584327
20
31.0795197
11
15.7084327
21
31.0795197
0
LINE
8
DEFAULT_255_2_778
10
11.6084327
20
43.9695197
11
15.7084327
21
43.9695197
0
LINE
8
DEFAULT_255_2_778
10
15.7084327
20
43.9695197
11
15.7084327
21
5.4694197
0
LINE
8
DEFAULT_255_2_778
10
15.7084327
20
5.4694197
11
11.6084327
21
5.4694197
0
LINE
8
DEFAULT_255_2_778
10
11.6084327
20
5.4694197
11
11.6084327
21
43.9697197
0
LINE
8
DEFAULT_255_2_778
10
11.6084327
20
43.9697197
11
4.6083327
21
43.9697197
0
LINE
8
DEFAULT_255_2_778
10
4.6083327
20
43.9697197
11
4.6083327
21
5.4697197
0
LINE
8
DEFAULT_255_2_778
10
4.6083327
20
5.4697197
11
11.6084327
21
5.4697197
0
LINE
8
DEFAULT_255_2_778
10
15.7584327
20
4.2870197
11
8.0585327
21
4.2198197
0
LINE
8
DEFAULT_255_2_778
10
8.0585327
20
4.2198197
11
8.0585327
21
4.1698197
0
LINE
8
DEFAULT_255_2_778
10
9.6584327
20
4.2338197
11
9.6584327
21
4.7699197
0
LINE
8
DEFAULT_255_2_778
10
14.9585327
20
43.9700197
11
14.9585327
21
45.2699197
0
LINE
8
DEFAULT_255_2_778
10
9.9585327
20
44.6698197
11
9.9585327
21
45.1098197
0
LINE
8
DEFAULT_255_2_778
10
9.9585327
20
45.1098197
11
7.9585327
21
45.1098197
0
LINE
8
DEFAULT_255_2_778
10
7.9585327
20
4.1698197
11
7.9585327
21
4.7696197
0
LINE
8
DEFAULT_255_2_778
10
7.9585327
20
44.6696197
11
7.9585327
21
45.2696197
0
LINE
8
DEFAULT_255_2_778
10
14.8585327
20
43.9697197
11
14.8585327
21
44.6698197
0
LINE
8
DEFAULT_255_2_778
10
14.8585327
20
44.6698197
11
7.9582327
21
44.6698197
0
LINE
8
DEFAULT_255_2_778
10
7.9582327
20
44.6698197
11
7.9582327
21
43.9697197
0
LINE
8
DEFAULT_255_2_778
10
7.9582327
20
5.4697197
11
7.9582327
21
4.7696197
0
LINE
8
DEFAULT_255_2_778
10
7.9582327
20
4.7696197
11
14.8583327
21
4.7696197
0
LINE
8
DEFAULT_255_2_778
10
14.8583327
20
4.7696197
11
14.8583327
21
5.4697197
0
LINE
8
DEFAULT_255_2_778
10
7.4584327
20
43.9697197
11
7.4584327
21
45.2696197
0
LINE
8
DEFAULT_255_2_778
10
7.4584327
20
45.2696197
11
15.7584327
21
45.2696197
0
LINE
8
DEFAULT_255_2_778
10
15.7584327
20
45.2696197
11
15.7584327
21
76.7699197
0
LINE
8
DEFAULT_255_2_778
10
15.7584327
20
76.7699197
11
15.7584327
21
4.1698197
0
LINE
8
DEFAULT_255_2_778
10
15.7584327
20
4.1698197
11
7.4584327
21
4.1698197
0
LINE
8
DEFAULT_255_2_778
10
7.4584327
20
4.1698197
11
7.4584327
21
5.4697197
0
LINE
8
DEFAULT_255_2_778
10
9.4584327
20
4.7696197
11
9.4584327
21
4.2320197
0
LINE
8
DEFAULT_255_2_778
10
7.4584327
20
-0.2259803
11
7.4584327
21
4.1698197
0
LINE
8
DEFAULT_255_2_778
10
1.9582327
20
-0.2301803
11
7.4584327
21
-0.2301803
0
LINE
8
DEFAULT_255_2_778
10
7.4584327
20
-0.2301803
11
7.4584327
21
-0.2301803
0
LINE
8
DEFAULT_255_2_778
10
7.4584327
20
-0.2301803
11
25.5583327
21
-0.2301803
0
LINE
8
DEFAULT_255_2_778
10
1.9582327
20
84.7698197
11
7.4581327
21
84.7698197
0
LINE
8
DEFAULT_255_2_778
10
7.4581327
20
84.7698197
11
7.4581327
21
76.7699197
0
LINE
8
DEFAULT_255_2_778
10
7.4581327
20
76.7699197
11
15.7581327
21
76.7699197
0
LINE
8
DEFAULT_255_2_778
10
15.7581327
20
76.7699197
11
7.4581327
21
76.7699197
0
LINE
8
DEFAULT_255_2_778
10
7.4581327
20
76.7699197
11
7.4581327
21
84.7698197
0
LINE
8
DEFAULT_255_2_778
10
7.4581327
20
84.7698197
11
25.5580327
21
84.7698197
0
LINE
8
DEFAULT_255_2_778
10
27.2580327
20
83.0699197
11
27.2580327
21
1.4697197
0
LINE
8
DEFAULT_255_2_778
10
27.2580327
20
1.4697197
11
27.2580327
21
1.4845197
0
LINE
8
DEFAULT_255_2_778
10
0.2583327
20
1.4845197
11
0.2583327
21
1.4697197
0
LINE
8
DEFAULT_255_2_778
10
0.2583327
20
1.4697197
11
0.2583327
21
83.0699197
0
LINE
8
DEFAULT_255_2_778
10
0.2583327
20
83.0699197
11
0.2583327
21
83.0550197
0
LINE
8
DEFAULT_255_2_778
10
26.1782327
20
83.0550197
11
26.1782327
21
83.0699197
0
ENDSEC
0
EOF