0
SECTION
2
HEADER
9
$MEASUREMENT
70
1
0
ENDSEC
0
SECTION
2
TABLES
0
TABLE
2
LTYPE
0
LTYPE
72
65
70
64
2
CONTINUOUS
3
______
73
0
40
0
0
ENDTAB
0
TABLE
2
LAYER
0
LAYER
2
DEFAULT_255_2_778
70
0
62
255
6
CONTINUOUS
0
ENDTAB
0
ENDSEC
0
SECTION
2
ENTITIES
0
LINE
8
DEFAULT_255_2_778
10
71.7030459
20
3.4816197
11
71.7030459
21
-0.2301803
0
LINE
8
DEFAULT_255_2_778
10
71.7030459
20
-0.2301803
11
75.2029459
21
-0.2301803
0
LINE
8
DEFAULT_255_2_778
10
75.2029459
20
-0.2301803
11
75.2029459
21
3.4816197
0
LINE
8
DEFAULT_255_2_778
10
71.7030198
20
5.3373904
11
71.7030198
21
23.2467904
0
LINE
8
DEFAULT_255_2_778
10
71.7030198
20
23.2467904
11
73.5030198
21
23.2467904
0
LINE
8
DEFAULT_255_2_778
10
73.5030198
20
23.2467904
11
73.5030198
21
5.3373904
0
LINE
8
DEFAULT_255_2_778
10
73.5030198
20
5.3373904
11
71.7030198
21
5.3373904
0
LINE
8
DEFAULT_255_2_778
10
75.203271
20
23.7108237
11
75.203271
21
3.4816237
0
LINE
8
DEFAULT_255_2_778
10
75.203271
20
3.4816237
11
66.153171
21
3.4816237
0
LINE
8
DEFAULT_255_2_778
10
66.153171
20
3.4816237
11
66.153171
21
5.0728237
0
LINE
8
DEFAULT_255_2_778
10
66.153171
20
5.0728237
11
64.153171
21
5.0728237
0
LINE
8
DEFAULT_255_2_778
10
64.153171
20
5.0728237
11
64.153171
21
5.0590237
0
LINE
8
DEFAULT_255_2_778
10
64.153171
20
5.0590237
11
66.153171
21
5.0590237
0
ARC
8
DEFAULT_255_2_778
10
66.9415792
20
7.7968847
40
1.838577
50
148.1137389
51
180.0071199
0
ARC
8
DEFAULT_255_2_778
10
67.1089942
20
7.6843297
40
2.0401968
50
115.2511734
51
147.9133406
0
ARC
8
DEFAULT_255_2_778
10
67.1907959
20
7.5301182
40
2.2145835
50
94.6964693
51
115.4633403
0
ARC
8
DEFAULT_255_2_778
10
67.2026569
20
7.4347494
40
2.3106068
50
89.9914385
51
94.7959701
0
ARC
8
DEFAULT_255_2_778
10
67.2073891
20
7.4938427
40
2.2515178
50
70.7263551
51
90.1116377
0
ARC
8
DEFAULT_255_2_778
10
67.2595371
20
7.6322796
40
2.1036298
50
43.2406079
51
70.8224998
0
ARC
8
DEFAULT_255_2_778
10
67.4386804
20
7.7909588
40
1.8644353
50
1.2300473
51
43.4597022
0
ARC
8
DEFAULT_255_2_778
10
67.4399584
20
7.7966587
40
1.8630438
50
359.9999215
51
1.0556355
0
ARC
8
DEFAULT_255_2_778
10
67.4645503
20
7.7964172
40
1.8384519
50
328.1126253
51
0.0074492
0
ARC
8
DEFAULT_255_2_778
10
67.2971341
20
7.908997
40
2.040086
50
295.2487917
51
327.9117492
0
ARC
8
DEFAULT_255_2_778
10
67.2152246
20
8.0634316
40
2.2147201
50
274.695759
51
295.4611944
0
ARC
8
DEFAULT_255_2_778
10
67.2033474
20
8.1588917
40
2.3108356
50
269.9914403
51
274.7954953
0
ARC
8
DEFAULT_255_2_778
10
67.1986107
20
8.0997619
40
2.25171
50
250.7281878
51
270.1117432
0
ARC
8
DEFAULT_255_2_778
10
67.1463832
20
7.9611064
40
2.1035896
50
223.2427828
51
250.8245416
0
ARC
8
DEFAULT_255_2_778
10
66.9671745
20
7.8023366
40
1.8642856
50
181.2296227
51
223.4615218
0
ARC
8
DEFAULT_255_2_778
10
66.9660441
20
7.7966536
40
1.863042
50
179.9999214
51
181.0556353
0
ARC
8
DEFAULT_255_2_778
10
67.0650725
20
7.7794534
40
1.4620716
50
118.3814647
51
179.3258381
0
ARC
8
DEFAULT_255_2_778
10
67.1918458
20
7.6017705
40
1.6788762
50
94.5176107
51
119.3055298
0
ARC
8
DEFAULT_255_2_778
10
67.202755
20
7.5196465
40
1.7616098
50
89.9919607
51
94.6609383
0
ARC
8
DEFAULT_255_2_778
10
67.2074058
20
7.5743538
40
1.7069081
50
67.4269025
51
90.1478194
0
ARC
8
DEFAULT_255_2_778
10
67.2712541
20
7.7091723
40
1.5579258
50
30.6279066
51
67.6918877
0
ARC
8
DEFAULT_255_2_778
10
67.4039163
20
7.7971245
40
1.3989861
50
359.9808207
51
30.2963242
0
ARC
8
DEFAULT_255_2_778
10
67.3407079
20
7.8141009
40
1.4622983
50
298.3178402
51
359.3164668
0
ARC
8
DEFAULT_255_2_778
10
67.2140269
20
7.9917918
40
1.6790384
50
274.4665591
51
299.2471235
0
ARC
8
DEFAULT_255_2_778
10
67.2032419
20
8.0735348
40
1.7613786
50
269.9921999
51
274.6092402
0
ARC
8
DEFAULT_255_2_778
10
67.1985993
20
8.0190872
40
1.7069367
50
247.4272684
51
270.1477879
0
ARC
8
DEFAULT_255_2_778
10
67.1347462
20
7.8842714
40
1.557955
50
210.6300055
51
247.6924852
0
ARC
8
DEFAULT_255_2_778
10
67.0018853
20
7.7962004
40
1.3987834
50
179.9813297
51
210.2985736
0
LINE
8
DEFAULT_255_2_778
10
65.1030021
20
7.7966562
11
65.1030021
21
7.7966562
0
LINE
8
DEFAULT_255_2_778
10
65.6031021
20
7.7966562
11
65.6031021
21
7.7966562
0
ARC
8
DEFAULT_255_2_778
10
6.9416792
20
7.7968847
40
1.838577
50
148.1137389
51
180.0071199
0
ARC
8
DEFAULT_255_2_778
10
7.1090942
20
7.6843297
40
2.0401968
50
115.2511734
51
147.9133406
0
ARC
8
DEFAULT_255_2_778
10
7.1908959
20
7.5301182
40
2.2145835
50
94.6964693
51
115.4633403
0
ARC
8
DEFAULT_255_2_778
10
7.2027569
20
7.4347494
40
2.3106068
50
89.9914385
51
94.7959701
0
ARC
8
DEFAULT_255_2_778
10
7.2074891
20
7.4938427
40
2.2515178
50
70.7263551
51
90.1116377
0
ARC
8
DEFAULT_255_2_778
10
7.2596371
20
7.6322796
40
2.1036298
50
43.2406079
51
70.8224998
0
ARC
8
DEFAULT_255_2_778
10
7.4387804
20
7.7909588
40
1.8644353
50
1.2300473
51
43.4597022
0
ARC
8
DEFAULT_255_2_778
10
7.4400584
20
7.7966587
40
1.8630438
50
359.9999215
51
1.0556355
0
ARC
8
DEFAULT_255_2_778
10
7.4646503
20
7.7964172
40
1.8384519
50
328.1126253
51
0.0074492
0
ARC
8
DEFAULT_255_2_778
10
7.2972341
20
7.908997
40
2.040086
50
295.2487917
51
327.9117492
0
ARC
8
DEFAULT_255_2_778
10
7.2153246
20
8.0634316
40
2.2147201
50
274.695759
51
295.4611944
0
ARC
8
DEFAULT_255_2_778
10
7.2034474
20
8.1588917
40
2.3108356
50
269.9914403
51
274.7954953
0
ARC
8
DEFAULT_255_2_778
10
7.1987107
20
8.0997619
40
2.25171
50
250.7281878
51
270.1117432
0
ARC
8
DEFAULT_255_2_778
10
7.1464832
20
7.9611064
40
2.1035896
50
223.2427828
51
250.8245416
0
ARC
8
DEFAULT_255_2_778
10
6.9672745
20
7.8023366
40
1.8642856
50
181.2296227
51
223.4615218
0
ARC
8
DEFAULT_255_2_778
10
6.9661441
20
7.7966536
40
1.863042
50
179.9999214
51
181.0556353
0
ARC
8
DEFAULT_255_2_778
10
7.0651725
20
7.7794534
40
1.4620716
50
118.3814647
51
179.3258381
0
ARC
8
DEFAULT_255_2_778
10
7.1919458
20
7.6017705
40
1.6788762
50
94.5176107
51
119.3055298
0
ARC
8
DEFAULT_255_2_778
10
7.202855
20
7.5196465
40
1.7616098
50
89.9919607
51
94.6609383
0
ARC
8
DEFAULT_255_2_778
10
7.2075058
20
7.5743538
40
1.7069081
50
67.4269025
51
90.1478194
0
ARC
8
DEFAULT_255_2_778
10
7.2713541
20
7.7091723
40
1.5579258
50
30.6279066
51
67.6918877
0
ARC
8
DEFAULT_255_2_778
10
7.4040163
20
7.7971245
40
1.3989861
50
359.9808207
51
30.2963242
0
ARC
8
DEFAULT_255_2_778
10
7.3408079
20
7.8141009
40
1.4622983
50
298.3178402
51
359.3164668
0
ARC
8
DEFAULT_255_2_778
10
7.2141269
20
7.9917918
40
1.6790384
50
274.4665591
51
299.2471235
0
ARC
8
DEFAULT_255_2_778
10
7.2033419
20
8.0735348
40
1.7613786
50
269.9921999
51
274.6092402
0
ARC
8
DEFAULT_255_2_778
10
7.1986993
20
8.0190872
40
1.7069367
50
247.4272684
51
270.1477879
0
ARC
8
DEFAULT_255_2_778
10
7.1348462
20
7.8842714
40
1.557955
50
210.6300055
51
247.6924852
0
ARC
8
DEFAULT_255_2_778
10
7.0019853
20
7.7962004
40
1.3987834
50
179.9813297
51
210.2985736
0
LINE
8
DEFAULT_255_2_778
10
7.9778021
20
6.4975562
11
6.4287021
21
6.4975562
0
LINE
8
DEFAULT_255_2_778
10
8.7644021
20
8.1213562
11
5.6418021
21
8.1213562
0
LINE
8
DEFAULT_255_2_778
10
5.1031021
20
7.7966562
11
5.1031021
21
7.7966562
0
LINE
8
DEFAULT_255_2_778
10
5.6032021
20
7.7966562
11
5.6032021
21
7.7966562
0
ARC
8
DEFAULT_255_2_778
10
6.9416792
20
78.3207847
40
1.838577
50
148.1137389
51
180.0071199
0
ARC
8
DEFAULT_255_2_778
10
7.1090942
20
78.2082297
40
2.0401968
50
115.2511734
51
147.9133406
0
ARC
8
DEFAULT_255_2_778
10
7.1908959
20
78.0540182
40
2.2145835
50
94.6964693
51
115.4633403
0
ARC
8
DEFAULT_255_2_778
10
7.2027569
20
77.9586494
40
2.3106068
50
89.9914385
51
94.7959701
0
ARC
8
DEFAULT_255_2_778
10
7.2074891
20
78.0177427
40
2.2515178
50
70.7263551
51
90.1116377
0
ARC
8
DEFAULT_255_2_778
10
7.2596371
20
78.1561796
40
2.1036298
50
43.2406079
51
70.8224998
0
ARC
8
DEFAULT_255_2_778
10
7.4387804
20
78.3148588
40
1.8644353
50
1.2300473
51
43.4597022
0
ARC
8
DEFAULT_255_2_778
10
7.4400584
20
78.3205587
40
1.8630438
50
359.9999215
51
1.0556355
0
ARC
8
DEFAULT_255_2_778
10
7.4646503
20
78.3203172
40
1.8384519
50
328.1126253
51
0.0074492
0
ARC
8
DEFAULT_255_2_778
10
7.2972341
20
78.432897
40
2.040086
50
295.2487917
51
327.9117492
0
ARC
8
DEFAULT_255_2_778
10
7.2153246
20
78.5873316
40
2.2147201
50
274.695759
51
295.4611944
0
ARC
8
DEFAULT_255_2_778
10
7.2034474
20
78.6827917
40
2.3108356
50
269.9914403
51
274.7954953
0
ARC
8
DEFAULT_255_2_778
10
7.1987107
20
78.6236619
40
2.25171
50
250.7281878
51
270.1117432
0
ARC
8
DEFAULT_255_2_778
10
7.1464832
20
78.4850064
40
2.1035896
50
223.2427828
51
250.8245416
0
ARC
8
DEFAULT_255_2_778
10
6.9672745
20
78.3262366
40
1.8642856
50
181.2296227
51
223.4615218
0
ARC
8
DEFAULT_255_2_778
10
6.9661441
20
78.3205536
40
1.863042
50
179.9999214
51
181.0556353
0
ARC
8
DEFAULT_255_2_778
10
7.0651725
20
78.3033534
40
1.4620716
50
118.3814647
51
179.3258381
0
ARC
8
DEFAULT_255_2_778
10
7.1919458
20
78.1256705
40
1.6788762
50
94.5176107
51
119.3055298
0
ARC
8
DEFAULT_255_2_778
10
7.202855
20
78.0435465
40
1.7616098
50
89.9919607
51
94.6609383
0
ARC
8
DEFAULT_255_2_778
10
7.2075058
20
78.0982538
40
1.7069081
50
67.4269025
51
90.1478194
0
ARC
8
DEFAULT_255_2_778
10
7.2713541
20
78.2330723
40
1.5579258
50
30.6279066
51
67.6918877
0
ARC
8
DEFAULT_255_2_778
10
7.4040163
20
78.3210245
40
1.3989861
50
359.9808207
51
30.2963242
0
ARC
8
DEFAULT_255_2_778
10
7.3408079
20
78.3380009
40
1.4622983
50
298.3178402
51
359.3164668
0
ARC
8
DEFAULT_255_2_778
10
7.2141269
20
78.5156918
40
1.6790384
50
274.4665591
51
299.2471235
0
ARC
8
DEFAULT_255_2_778
10
7.2033419
20
78.5974348
40
1.7613786
50
269.9921999
51
274.6092402
0
ARC
8
DEFAULT_255_2_778
10
7.1986993
20
78.5429872
40
1.7069367
50
247.4272684
51
270.1477879
0
ARC
8
DEFAULT_255_2_778
10
7.1348462
20
78.4081714
40
1.557955
50
210.6300055
51
247.6924852
0
ARC
8
DEFAULT_255_2_778
10
7.0019853
20
78.3201004
40
1.3987834
50
179.9813297
51
210.2985736
0
LINE
8
DEFAULT_255_2_778
10
6.0413021
20
79.3413562
11
8.3651021
21
79.3413562
0
LINE
8
DEFAULT_255_2_778
10
5.1031021
20
78.3205562
11
5.1031021
21
78.3205562
0
LINE
8
DEFAULT_255_2_778
10
5.6032021
20
78.3205562
11
5.6032021
21
78.3205562
0
ARC
8
DEFAULT_255_2_778
10
66.9415792
20
78.3207847
40
1.838577
50
148.1137389
51
180.0071199
0
ARC
8
DEFAULT_255_2_778
10
67.1089942
20
78.2082297
40
2.0401968
50
115.2511734
51
147.9133406
0
ARC
8
DEFAULT_255_2_778
10
67.1907959
20
78.0540182
40
2.2145835
50
94.6964693
51
115.4633403
0
ARC
8
DEFAULT_255_2_778
10
67.2026569
20
77.9586494
40
2.3106068
50
89.9914385
51
94.7959701
0
ARC
8
DEFAULT_255_2_778
10
67.2073891
20
78.0177427
40
2.2515178
50
70.7263551
51
90.1116377
0
ARC
8
DEFAULT_255_2_778
10
67.2595371
20
78.1561796
40
2.1036298
50
43.2406079
51
70.8224998
0
ARC
8
DEFAULT_255_2_778
10
67.4386804
20
78.3148588
40
1.8644353
50
1.2300473
51
43.4597022
0
ARC
8
DEFAULT_255_2_778
10
67.4399584
20
78.3205587
40
1.8630438
50
359.9999215
51
1.0556355
0
ARC
8
DEFAULT_255_2_778
10
67.4645503
20
78.3203172
40
1.8384519
50
328.1126253
51
0.0074492
0
ARC
8
DEFAULT_255_2_778
10
67.2971341
20
78.432897
40
2.040086
50
295.2487917
51
327.9117492
0
ARC
8
DEFAULT_255_2_778
10
67.2152246
20
78.5873316
40
2.2147201
50
274.695759
51
295.4611944
0
ARC
8
DEFAULT_255_2_778
10
67.2033474
20
78.6827917
40
2.3108356
50
269.9914403
51
274.7954953
0
ARC
8
DEFAULT_255_2_778
10
67.1986107
20
78.6236619
40
2.25171
50
250.7281878
51
270.1117432
0
ARC
8
DEFAULT_255_2_778
10
67.1463832
20
78.4850064
40
2.1035896
50
223.2427828
51
250.8245416
0
ARC
8
DEFAULT_255_2_778
10
66.9671745
20
78.3262366
40
1.8642856
50
181.2296227
51
223.4615218
0
ARC
8
DEFAULT_255_2_778
10
66.9660441
20
78.3205536
40
1.863042
50
179.9999214
51
181.0556353
0
ARC
8
DEFAULT_255_2_778
10
67.0650725
20
78.3033534
40
1.4620716
50
118.3814647
51
179.3258381
0
ARC
8
DEFAULT_255_2_778
10
67.1918458
20
78.1256705
40
1.6788762
50
94.5176107
51
119.3055298
0
ARC
8
DEFAULT_255_2_778
10
67.202755
20
78.0435465
40
1.7616098
50
89.9919607
51
94.6609383
0
ARC
8
DEFAULT_255_2_778
10
67.2074058
20
78.0982538
40
1.7069081
50
67.4269025
51
90.1478194
0
ARC
8
DEFAULT_255_2_778
10
67.2712541
20
78.2330723
40
1.5579258
50
30.6279066
51
67.6918877
0
ARC
8
DEFAULT_255_2_778
10
67.4039163
20
78.3210245
40
1.3989861
50
359.9808207
51
30.2963242
0
ARC
8
DEFAULT_255_2_778
10
67.3407079
20
78.3380009
40
1.4622983
50
298.3178402
51
359.3164668
0
ARC
8
DEFAULT_255_2_778
10
67.2140269
20
78.5156918
40
1.6790384
50
274.4665591
51
299.2471235
0
ARC
8
DEFAULT_255_2_778
10
67.2032419
20
78.5974348
40
1.7613786
50
269.9921999
51
274.6092402
0
ARC
8
DEFAULT_255_2_778
10
67.1985993
20
78.5429872
40
1.7069367
50
247.4272684
51
270.1477879
0
ARC
8
DEFAULT_255_2_778
10
67.1347462
20
78.4081714
40
1.557955
50
210.6300055
51
247.6924852
0
ARC
8
DEFAULT_255_2_778
10
67.0018853
20
78.3201004
40
1.3987834
50
179.9813297
51
210.2985736
0
LINE
8
DEFAULT_255_2_778
10
65.1030021
20
78.3205562
11
65.1030021
21
78.3205562
0
LINE
8
DEFAULT_255_2_778
10
65.6031021
20
78.3205562
11
65.6031021
21
78.3205562
0
LINE
8
DEFAULT_255_2_778
10
66.0412021
20
79.3413562
11
68.2031021
21
79.3413562
0
LINE
8
DEFAULT_255_2_778
10
68.2031021
20
79.3413562
11
68.2031021
21
77.1617562
0
LINE
8
DEFAULT_255_2_778
10
36.4030657
20
74.5624801
11
36.4030657
21
79.2947801
0
LINE
8
DEFAULT_255_2_778
10
30.5031657
20
74.5624801
11
36.4030657
21
74.5624801
0
LINE
8
DEFAULT_255_2_778
10
36.4030657
20
74.5624801
11
36.9031657
21
74.0983801
0
LINE
8
DEFAULT_255_2_778
10
30.5031657
20
79.2947801
11
30.5031657
21
74.5621801
0
LINE
8
DEFAULT_255_2_778
10
30.5031657
20
74.5621801
11
30.0030657
21
74.0980801
0
LINE
8
DEFAULT_255_2_778
10
30.0030657
20
74.0980801
11
30.0030657
21
79.7588801
0
LINE
8
DEFAULT_255_2_778
10
30.0030657
20
79.7588801
11
36.9031657
21
79.7588801
0
LINE
8
DEFAULT_255_2_778
10
36.9031657
20
79.7588801
11
36.9031657
21
74.0983801
0
LINE
8
DEFAULT_255_2_778
10
36.9031657
20
74.0983801
11
30.0030657
21
74.0983801
0
LINE
8
DEFAULT_255_2_778
10
36.9031657
20
79.7588801
11
36.4030657
21
79.2947801
0
LINE
8
DEFAULT_255_2_778
10
36.4030657
20
79.2947801
11
30.5031657
21
79.2947801
0
LINE
8
DEFAULT_255_2_778
10
30.5031657
20
79.2947801
11
30.0030657
21
79.7588801
0
LINE
8
DEFAULT_255_2_778
10
30.5031657
20
75.2119801
11
36.0030657
21
75.2119801
0
LINE
8
DEFAULT_255_2_778
10
36.3030657
20
74.9336801
11
30.5031657
21
74.9336801
0
LINE
8
DEFAULT_255_2_778
10
36.0030657
20
79.2021801
11
30.5031657
21
79.2021801
0
LINE
8
DEFAULT_255_2_778
10
36.3030657
20
79.2950801
11
36.3030657
21
74.9336801
0
LINE
8
DEFAULT_255_2_778
10
36.3030657
20
74.9336801
11
36.0030657
21
75.2119801
0
LINE
8
DEFAULT_255_2_778
10
36.0030657
20
75.2119801
11
36.0030657
21
79.2021801
0
LINE
8
DEFAULT_255_2_778
10
36.0030657
20
79.2021801
11
36.1030657
21
79.2950801
0
LINE
8
DEFAULT_255_2_778
10
63.6731438
20
44.7195708
11
63.9731438
21
44.9978708
0
LINE
8
DEFAULT_255_2_778
10
63.9731438
20
44.9978708
11
64.5732438
21
44.9978708
0
LINE
8
DEFAULT_255_2_778
10
62.3330573
20
44.7195708
11
61.1331573
21
44.7195708
0
LINE
8
DEFAULT_255_2_778
10
61.1331573
20
44.7195708
11
61.4331573
21
44.9978708
0
LINE
8
DEFAULT_255_2_778
10
61.4331573
20
44.9978708
11
62.0332573
21
44.9978708
0
LINE
8
DEFAULT_255_2_778
10
62.333025
20
45.8329156
11
61.133125
21
45.8329156
0
LINE
8
DEFAULT_255_2_778
10
61.133125
20
45.8329156
11
61.433125
21
45.5546156
0
LINE
8
DEFAULT_255_2_778
10
61.433125
20
45.5546156
11
62.033225
21
45.5546156
0
LINE
8
DEFAULT_255_2_778
10
62.033225
20
45.5546156
11
62.333225
21
45.8329156
0
LINE
8
DEFAULT_255_2_778
10
62.333225
20
45.8329156
11
62.333225
21
44.7193156
0
LINE
8
DEFAULT_255_2_778
10
62.333225
20
44.7193156
11
62.033225
21
44.9976156
0
LINE
8
DEFAULT_255_2_778
10
62.033225
20
44.9976156
11
62.033225
21
45.5543156
0
LINE
8
DEFAULT_255_2_778
10
61.4332
20
45.5546417
11
61.4332
21
44.9979417
0
LINE
8
DEFAULT_255_2_778
10
61.1332
20
44.7193156
11
61.1332
21
45.8329156
0
LINE
8
DEFAULT_255_2_778
10
63.9732
20
45.5546417
11
63.9732
21
44.9979417
0
LINE
8
DEFAULT_255_2_778
10
64.8730573
20
44.7193156
11
63.6731573
21
44.7193156
0
LINE
8
DEFAULT_255_2_778
10
63.6731573
20
44.7193156
11
63.6731573
21
45.8329156
0
LINE
8
DEFAULT_255_2_778
10
64.8730382
20
45.8329156
11
63.6731382
21
45.8329156
0
LINE
8
DEFAULT_255_2_778
10
63.6731382
20
45.8329156
11
63.9731382
21
45.5546156
0
LINE
8
DEFAULT_255_2_778
10
63.9731382
20
45.5546156
11
64.5732382
21
45.5546156
0
LINE
8
DEFAULT_255_2_778
10
64.5732382
20
45.5546156
11
64.8732382
21
45.8329156
0
LINE
8
DEFAULT_255_2_778
10
64.8732382
20
45.8329156
11
64.8732382
21
44.7193156
0
LINE
8
DEFAULT_255_2_778
10
64.8732382
20
44.7193156
11
64.5732382
21
44.9976156
0
LINE
8
DEFAULT_255_2_778
10
64.5732382
20
44.9976156
11
64.5732382
21
45.5543156
0
LINE
8
DEFAULT_255_2_778
10
61.1331927
20
49.4334156
11
61.1331927
21
50.5470156
0
LINE
8
DEFAULT_255_2_778
10
61.1331927
20
50.5470156
11
61.4331927
21
50.2687156
0
LINE
8
DEFAULT_255_2_778
10
61.4331927
20
50.2687156
11
61.4331927
21
49.7120156
0
LINE
8
DEFAULT_255_2_778
10
62.3332927
20
49.4336156
11
61.1334927
21
49.4336156
0
LINE
8
DEFAULT_255_2_778
10
61.1334927
20
49.4336156
11
61.4334927
21
49.7120156
0
LINE
8
DEFAULT_255_2_778
10
61.4334927
20
49.7120156
11
62.0335927
21
49.7120156
0
LINE
8
DEFAULT_255_2_778
10
61.4334927
20
50.2687156
11
62.0335927
21
50.2687156
0
LINE
8
DEFAULT_255_2_778
10
62.0335927
20
50.2687156
11
62.3335927
21
50.5470156
0
LINE
8
DEFAULT_255_2_778
10
62.3335927
20
50.5470156
11
62.3335927
21
49.4334156
0
LINE
8
DEFAULT_255_2_778
10
62.3335927
20
49.4334156
11
62.0335927
21
49.7117156
0
LINE
8
DEFAULT_255_2_778
10
62.0335927
20
49.7117156
11
62.0335927
21
50.2684156
0
LINE
8
DEFAULT_255_2_778
10
61.1334927
20
50.5467156
11
62.3332927
21
50.5467156
0
LINE
8
DEFAULT_255_2_778
10
64.573225
20
49.7119479
11
63.973125
21
49.7119479
0
LINE
8
DEFAULT_255_2_778
10
63.973125
20
49.7119479
11
63.673125
21
49.4336479
0
LINE
8
DEFAULT_255_2_778
10
63.673125
20
49.4336479
11
63.673125
21
50.5472479
0
LINE
8
DEFAULT_255_2_778
10
63.673125
20
50.5472479
11
63.973125
21
50.2689479
0
LINE
8
DEFAULT_255_2_778
10
63.973125
20
50.2689479
11
63.973125
21
49.7122479
0
LINE
8
DEFAULT_255_2_778
10
63.973125
20
50.2689479
11
64.573225
21
50.2689479
0
LINE
8
DEFAULT_255_2_778
10
64.573225
20
50.2689479
11
64.873225
21
50.5472479
0
LINE
8
DEFAULT_255_2_778
10
64.873225
20
50.5472479
11
64.873225
21
49.4336479
0
LINE
8
DEFAULT_255_2_778
10
64.873225
20
49.4336479
11
64.573225
21
49.7119479
0
LINE
8
DEFAULT_255_2_778
10
64.573225
20
49.7119479
11
64.573225
21
50.2686479
0
LINE
8
DEFAULT_255_2_778
10
63.673125
20
50.5469479
11
64.873025
21
50.5469479
0
LINE
8
DEFAULT_255_2_778
10
64.873025
20
49.4333479
11
63.673125
21
49.4333479
0
LINE
8
DEFAULT_255_2_778
10
63.6731927
20
47.0764479
11
63.6731927
21
48.1900479
0
LINE
8
DEFAULT_255_2_778
10
63.9731927
20
47.9117479
11
63.9731927
21
47.3550479
0
LINE
8
DEFAULT_255_2_778
10
64.8732927
20
48.1903479
11
63.6734927
21
48.1903479
0
LINE
8
DEFAULT_255_2_778
10
63.6734927
20
48.1903479
11
63.9734927
21
47.9120479
0
LINE
8
DEFAULT_255_2_778
10
63.9734927
20
47.9120479
11
64.5735927
21
47.9120479
0
LINE
8
DEFAULT_255_2_778
10
64.5735927
20
47.9120479
11
64.8735927
21
48.1903479
0
LINE
8
DEFAULT_255_2_778
10
64.8735927
20
48.1903479
11
64.8735927
21
47.0767479
0
LINE
8
DEFAULT_255_2_778
10
64.8735927
20
47.0767479
11
64.5735927
21
47.3550479
0
LINE
8
DEFAULT_255_2_778
10
64.5735927
20
47.3550479
11
64.5735927
21
47.9117479
0
LINE
8
DEFAULT_255_2_778
10
64.8735927
20
47.0767479
11
63.6737927
21
47.0767479
0
LINE
8
DEFAULT_255_2_778
10
63.6737927
20
47.0767479
11
63.9737927
21
47.3550479
0
LINE
8
DEFAULT_255_2_778
10
63.9737927
20
47.3550479
11
64.5738927
21
47.3550479
0
LINE
8
DEFAULT_255_2_778
10
61.133125
20
47.0764479
11
61.133125
21
48.1900479
0
LINE
8
DEFAULT_255_2_778
10
61.433125
20
47.9117479
11
61.433125
21
47.3550479
0
LINE
8
DEFAULT_255_2_778
10
62.333225
20
47.0767479
11
62.333225
21
48.1903479
0
LINE
8
DEFAULT_255_2_778
10
62.333225
20
48.1903479
11
62.033225
21
47.9120479
0
LINE
8
DEFAULT_255_2_778
10
62.033225
20
47.9120479
11
61.433125
21
47.9120479
0
LINE
8
DEFAULT_255_2_778
10
61.433125
20
47.9120479
11
61.133125
21
48.1903479
0
LINE
8
DEFAULT_255_2_778
10
61.133125
20
48.1903479
11
62.333025
21
48.1903479
0
LINE
8
DEFAULT_255_2_778
10
62.032925
20
47.9120479
11
62.032925
21
47.3553479
0
LINE
8
DEFAULT_255_2_778
10
62.032925
20
47.3553479
11
62.333025
21
47.0769479
0
LINE
8
DEFAULT_255_2_778
10
62.333025
20
47.0769479
11
61.133125
21
47.0769479
0
LINE
8
DEFAULT_255_2_778
10
61.133125
20
47.0769479
11
61.433125
21
47.3553479
0
LINE
8
DEFAULT_255_2_778
10
61.433125
20
47.3553479
11
62.033225
21
47.3553479
0
LINE
8
DEFAULT_255_2_778
10
61.433125
20
43.1977156
11
61.433125
21
42.6410156
0
LINE
8
DEFAULT_255_2_778
10
62.033225
20
43.1977156
11
62.033225
21
42.6410156
0
LINE
8
DEFAULT_255_2_778
10
62.033225
20
42.6410156
11
62.333225
21
42.3627156
0
LINE
8
DEFAULT_255_2_778
10
62.333225
20
42.3627156
11
61.133425
21
42.3627156
0
LINE
8
DEFAULT_255_2_778
10
61.133425
20
42.3627156
11
61.433425
21
42.6410156
0
LINE
8
DEFAULT_255_2_778
10
61.433425
20
42.6410156
11
62.033525
21
42.6410156
0
LINE
8
DEFAULT_255_2_778
10
61.133425
20
42.3627156
11
61.133425
21
43.4763156
0
LINE
8
DEFAULT_255_2_778
10
61.133425
20
43.4763156
11
62.333225
21
43.4763156
0
LINE
8
DEFAULT_255_2_778
10
62.333225
20
43.4763156
11
62.333225
21
42.3627156
0
LINE
8
DEFAULT_255_2_778
10
62.333225
20
43.4763156
11
62.033225
21
43.1980156
0
LINE
8
DEFAULT_255_2_778
10
62.033225
20
43.1980156
11
61.433125
21
43.1980156
0
LINE
8
DEFAULT_255_2_778
10
61.433125
20
43.1980156
11
61.133125
21
43.4763156
0
LINE
8
DEFAULT_255_2_778
10
64.873025
20
43.4760156
11
63.673125
21
43.4760156
0
LINE
8
DEFAULT_255_2_778
10
63.673125
20
43.4760156
11
63.973125
21
43.1977156
0
LINE
8
DEFAULT_255_2_778
10
63.973125
20
43.1977156
11
64.573225
21
43.1977156
0
LINE
8
DEFAULT_255_2_778
10
64.573225
20
43.1977156
11
64.873225
21
43.4760156
0
LINE
8
DEFAULT_255_2_778
10
64.873225
20
43.4760156
11
64.873225
21
42.3624156
0
LINE
8
DEFAULT_255_2_778
10
64.873225
20
42.3624156
11
64.573225
21
42.6407156
0
LINE
8
DEFAULT_255_2_778
10
64.573225
20
42.6407156
11
64.573225
21
43.1974156
0
LINE
8
DEFAULT_255_2_778
10
64.873225
20
42.3624156
11
63.673425
21
42.3624156
0
LINE
8
DEFAULT_255_2_778
10
63.673425
20
42.3624156
11
63.673425
21
43.4760156
0
LINE
8
DEFAULT_255_2_778
10
63.973425
20
43.1977156
11
63.973425
21
42.6410156
0
LINE
8
DEFAULT_255_2_778
10
63.673425
20
42.3626156
11
63.973425
21
42.6410156
0
LINE
8
DEFAULT_255_2_778
10
63.973425
20
42.6410156
11
64.573525
21
42.6410156
0
LINE
8
DEFAULT_255_2_778
10
63.673125
20
41.1191156
11
64.873025
21
41.1191156
0
LINE
8
DEFAULT_255_2_778
10
64.873025
20
41.1191156
11
64.572925
21
40.8408156
0
LINE
8
DEFAULT_255_2_778
10
64.572925
20
40.8408156
11
63.972925
21
40.8408156
0
LINE
8
DEFAULT_255_2_778
10
64.873025
20
40.0058156
11
63.673125
21
40.0058156
0
LINE
8
DEFAULT_255_2_778
10
64.573225
20
40.2841156
11
63.973125
21
40.2841156
0
LINE
8
DEFAULT_255_2_778
10
63.973125
20
40.2841156
11
63.673125
21
40.0058156
0
LINE
8
DEFAULT_255_2_778
10
63.673125
20
40.0058156
11
63.673125
21
41.1194156
0
LINE
8
DEFAULT_255_2_778
10
63.673125
20
41.1194156
11
63.973125
21
40.8411156
0
LINE
8
DEFAULT_255_2_778
10
63.973125
20
40.8411156
11
63.973125
21
40.2844156
0
LINE
8
DEFAULT_255_2_778
10
64.873225
20
41.1194156
11
64.873225
21
40.0058156
0
LINE
8
DEFAULT_255_2_778
10
64.873225
20
40.0058156
11
64.573225
21
40.2841156
0
LINE
8
DEFAULT_255_2_778
10
64.573225
20
40.2841156
11
64.573225
21
40.8408156
0
LINE
8
DEFAULT_255_2_778
10
61.433125
20
40.8408156
11
61.433125
21
40.2841156
0
LINE
8
DEFAULT_255_2_778
10
62.033225
20
40.8408156
11
62.033225
21
40.2841156
0
LINE
8
DEFAULT_255_2_778
10
62.033225
20
40.2841156
11
62.333225
21
40.0058156
0
LINE
8
DEFAULT_255_2_778
10
62.333225
20
40.0058156
11
61.133425
21
40.0058156
0
LINE
8
DEFAULT_255_2_778
10
61.133425
20
40.0058156
11
61.433425
21
40.2841156
0
LINE
8
DEFAULT_255_2_778
10
61.433425
20
40.2841156
11
62.033525
21
40.2841156
0
LINE
8
DEFAULT_255_2_778
10
61.133425
20
40.0058156
11
61.133425
21
41.1194156
0
LINE
8
DEFAULT_255_2_778
10
61.133425
20
41.1194156
11
62.333225
21
41.1194156
0
LINE
8
DEFAULT_255_2_778
10
62.333225
20
41.1194156
11
62.333225
21
40.0058156
0
LINE
8
DEFAULT_255_2_778
10
62.333225
20
41.1194156
11
62.033225
21
40.8411156
0
LINE
8
DEFAULT_255_2_778
10
62.033225
20
40.8411156
11
61.433125
21
40.8411156
0
LINE
8
DEFAULT_255_2_778
10
61.433125
20
40.8411156
11
61.133125
21
41.1194156
0
LINE
8
DEFAULT_255_2_778
10
62.333025
20
38.7622156
11
62.033025
21
38.4839156
0
LINE
8
DEFAULT_255_2_778
10
62.033025
20
38.4839156
11
61.432925
21
38.4839156
0
LINE
8
DEFAULT_255_2_778
10
61.432925
20
38.4839156
11
61.132925
21
38.7622156
0
LINE
8
DEFAULT_255_2_778
10
61.432925
20
37.9272156
11
62.033025
21
37.9272156
0
LINE
8
DEFAULT_255_2_778
10
62.033025
20
37.9272156
11
62.333025
21
37.6489156
0
LINE
8
DEFAULT_255_2_778
10
62.333025
20
37.6489156
11
61.133225
21
37.6489156
0
LINE
8
DEFAULT_255_2_778
10
61.133225
20
37.6489156
11
61.133225
21
38.7625156
0
LINE
8
DEFAULT_255_2_778
10
61.133225
20
38.7625156
11
62.333025
21
38.7625156
0
LINE
8
DEFAULT_255_2_778
10
62.333025
20
38.7625156
11
62.333025
21
37.6489156
0
LINE
8
DEFAULT_255_2_778
10
62.033025
20
37.9272156
11
62.033025
21
38.4839156
0
LINE
8
DEFAULT_255_2_778
10
61.432925
20
38.4839156
11
61.432925
21
37.9272156
0
LINE
8
DEFAULT_255_2_778
10
61.432925
20
37.9272156
11
61.132925
21
37.6489156
0
LINE
8
DEFAULT_255_2_778
10
64.573325
20
37.9272156
11
64.573325
21
38.4839156
0
LINE
8
DEFAULT_255_2_778
10
63.973225
20
38.4839156
11
63.973225
21
37.9272156
0
LINE
8
DEFAULT_255_2_778
10
63.973225
20
37.9272156
11
63.673225
21
37.6489156
0
LINE
8
DEFAULT_255_2_778
10
63.673225
20
37.6489156
11
63.673225
21
38.7625156
0
LINE
8
DEFAULT_255_2_778
10
64.873025
20
37.6489156
11
64.873025
21
38.7625156
0
LINE
8
DEFAULT_255_2_778
10
64.873025
20
38.7625156
11
64.573025
21
38.4842156
0
LINE
8
DEFAULT_255_2_778
10
64.573025
20
38.4842156
11
63.972925
21
38.4842156
0
LINE
8
DEFAULT_255_2_778
10
63.972925
20
38.4842156
11
63.672925
21
38.7625156
0
LINE
8
DEFAULT_255_2_778
10
63.672925
20
38.7625156
11
64.872825
21
38.7625156
0
LINE
8
DEFAULT_255_2_778
10
63.972725
20
37.9275156
11
64.572725
21
37.9275156
0
LINE
8
DEFAULT_255_2_778
10
64.572725
20
37.9275156
11
64.872825
21
37.6491156
0
LINE
8
DEFAULT_255_2_778
10
64.872825
20
37.6491156
11
63.672925
21
37.6491156
0
LINE
8
DEFAULT_255_2_778
10
64.873025
20
36.4050479
11
64.873025
21
35.2914479
0
LINE
8
DEFAULT_255_2_778
10
64.573025
20
35.5697479
11
64.573025
21
36.1264479
0
LINE
8
DEFAULT_255_2_778
10
63.672925
20
36.4047479
11
63.672925
21
35.2911479
0
LINE
8
DEFAULT_255_2_778
10
63.672925
20
35.2911479
11
63.972925
21
35.5694479
0
LINE
8
DEFAULT_255_2_778
10
63.972925
20
35.5694479
11
63.972925
21
36.1261479
0
LINE
8
DEFAULT_255_2_778
10
63.972925
20
36.1261479
11
63.672925
21
36.4045479
0
LINE
8
DEFAULT_255_2_778
10
63.672925
20
36.4045479
11
64.872825
21
36.4045479
0
LINE
8
DEFAULT_255_2_778
10
64.872825
20
36.4045479
11
64.572725
21
36.1261479
0
LINE
8
DEFAULT_255_2_778
10
64.572725
20
36.1261479
11
63.972725
21
36.1261479
0
LINE
8
DEFAULT_255_2_778
10
63.972725
20
35.5694479
11
64.572725
21
35.5694479
0
LINE
8
DEFAULT_255_2_778
10
64.572725
20
35.5694479
11
64.872825
21
35.2911479
0
LINE
8
DEFAULT_255_2_778
10
64.872825
20
35.2911479
11
63.672925
21
35.2911479
0
LINE
8
DEFAULT_255_2_778
10
62.0332573
20
36.1267156
11
62.0332573
21
35.5700156
0
LINE
8
DEFAULT_255_2_778
10
62.0332573
20
35.5700156
11
62.3333573
21
35.2916156
0
LINE
8
DEFAULT_255_2_778
10
62.3333573
20
35.2916156
11
61.1334573
21
35.2916156
0
LINE
8
DEFAULT_255_2_778
10
61.1334573
20
35.2916156
11
61.4334573
21
35.5700156
0
LINE
8
DEFAULT_255_2_778
10
61.4334573
20
35.5700156
11
62.0335573
21
35.5700156
0
LINE
8
DEFAULT_255_2_778
10
61.4334573
20
35.5700156
11
61.4334573
21
36.1267156
0
LINE
8
DEFAULT_255_2_778
10
61.4334573
20
36.1267156
11
61.1334573
21
36.4050156
0
LINE
8
DEFAULT_255_2_778
10
61.1334573
20
36.4050156
11
62.3333573
21
36.4050156
0
LINE
8
DEFAULT_255_2_778
10
62.3333573
20
36.4050156
11
62.0332573
21
36.1267156
0
LINE
8
DEFAULT_255_2_778
10
62.0332573
20
36.1267156
11
61.4332573
21
36.1267156
0
LINE
8
DEFAULT_255_2_778
10
62.3333573
20
36.4050156
11
62.3333573
21
35.2914156
0
LINE
8
DEFAULT_255_2_778
10
61.1334573
20
35.2914156
11
61.1334573
21
36.4050156
0
ARC
8
DEFAULT_255_2_778
10
69.7138094
20
36.2443191
40
0.2894173
50
268.9129905
51
357.8287111
0
ARC
8
DEFAULT_255_2_778
10
69.7139561
20
49.5944402
40
0.2892686
50
2.1621911
51
91.1166272
0
ARC
8
DEFAULT_255_2_778
10
69.7139561
20
51.5548675
40
0.2892686
50
268.8833631
51
357.8378127
0
ARC
8
DEFAULT_255_2_778
10
69.7139561
20
34.2827402
40
0.2892688
50
2.1621911
51
91.1166272
0
ARC
8
DEFAULT_255_2_778
10
69.7138921
20
38.2728724
40
0.2893353
50
2.175143
51
91.1037002
0
ARC
8
DEFAULT_255_2_778
10
69.7139563
20
39.7700675
40
0.2892685
50
268.8833256
51
357.8378211
0
ARC
8
DEFAULT_255_2_778
10
69.7138921
20
46.0677724
40
0.2893353
50
2.175143
51
91.1037002
0
ARC
8
DEFAULT_255_2_778
10
69.7136244
20
47.5673544
40
0.2896112
50
268.4160156
51
357.783574
0
LINE
8
DEFAULT_255_2_778
10
66.5031189
20
34.6243539
11
70.0030189
21
34.5677539
0
LINE
8
DEFAULT_255_2_778
10
66.5031189
20
35.9031539
11
69.7083189
21
35.9549539
0
LINE
8
DEFAULT_255_2_778
10
66.5031189
20
49.9355539
11
69.7083189
21
49.8836539
0
LINE
8
DEFAULT_255_2_778
10
66.5031189
20
51.2140539
11
70.0030189
21
51.2706539
0
LINE
8
DEFAULT_255_2_778
10
60.0031189
20
34.2058539
11
60.0031189
21
51.6325539
0
LINE
8
DEFAULT_255_2_778
10
66.0030189
20
34.2058539
11
66.0030189
21
41.0632539
0
LINE
8
DEFAULT_255_2_778
10
66.0030189
20
41.0632539
11
67.0032189
21
41.0632539
0
LINE
8
DEFAULT_255_2_778
10
67.0032189
20
41.0632539
11
67.0032189
21
44.7751539
0
LINE
8
DEFAULT_255_2_778
10
67.0032189
20
44.7751539
11
66.0030189
21
44.7751539
0
LINE
8
DEFAULT_255_2_778
10
66.0030189
20
44.7751539
11
66.0030189
21
51.6325539
0
LINE
8
DEFAULT_255_2_778
10
56.0031189
20
32.8508539
11
58.9032189
21
32.8508539
0
LINE
8
DEFAULT_255_2_778
10
58.9032189
20
32.8508539
11
58.9032189
21
34.2058539
0
LINE
8
DEFAULT_255_2_778
10
58.9032189
20
34.2058539
11
66.9031189
21
34.2058539
0
LINE
8
DEFAULT_255_2_778
10
66.9031189
20
34.2058539
11
66.9031189
21
32.8508539
0
LINE
8
DEFAULT_255_2_778
10
66.9031189
20
32.8508539
11
70.0033189
21
32.8508539
0
LINE
8
DEFAULT_255_2_778
10
70.0033189
20
32.8508539
11
70.0033189
21
52.9872539
0
LINE
8
DEFAULT_255_2_778
10
70.0033189
20
52.9872539
11
66.9031189
21
52.9872539
0
LINE
8
DEFAULT_255_2_778
10
66.9031189
20
52.9872539
11
66.9031189
21
51.6323539
0
LINE
8
DEFAULT_255_2_778
10
66.9031189
20
51.6323539
11
58.9032189
21
51.6323539
0
LINE
8
DEFAULT_255_2_778
10
58.9032189
20
51.6323539
11
58.9032189
21
52.9872539
0
LINE
8
DEFAULT_255_2_778
10
58.9032189
20
52.9872539
11
56.0031189
21
52.9872539
0
LINE
8
DEFAULT_255_2_778
10
56.0031189
20
52.9872539
11
56.0031189
21
32.8508539
0
LINE
8
DEFAULT_255_2_778
10
70.0030189
20
42.4552539
11
69.6278189
21
42.4552539
0
LINE
8
DEFAULT_255_2_778
10
68.4031189
20
43.3831539
11
68.2030189
21
43.3831539
0
LINE
8
DEFAULT_255_2_778
10
68.4031189
20
42.4552539
11
68.2030189
21
42.4552539
0
LINE
8
DEFAULT_255_2_778
10
68.2030189
20
46.3816539
11
68.2030189
21
39.4564539
0
LINE
8
DEFAULT_255_2_778
10
70.0030189
20
43.3828539
11
69.5492189
21
43.3828539
0
LINE
8
DEFAULT_255_2_778
10
69.5492189
20
43.3828539
11
69.5492189
21
42.4549539
0
LINE
8
DEFAULT_255_2_778
10
69.5492189
20
42.4549539
11
69.6278189
21
42.4549539
0
LINE
8
DEFAULT_255_2_778
10
69.6278189
20
42.4549539
11
69.6278189
21
43.3828539
0
LINE
8
DEFAULT_255_2_778
10
69.5492189
20
42.4549539
11
68.4205189
21
42.4549539
0
LINE
8
DEFAULT_255_2_778
10
68.4205189
20
42.4549539
11
68.4205189
21
43.3828539
0
LINE
8
DEFAULT_255_2_778
10
68.4205189
20
43.3828539
11
69.5492189
21
43.3828539
0
LINE
8
DEFAULT_255_2_778
10
68.4205189
20
42.4549539
11
68.4031189
21
42.4549539
0
LINE
8
DEFAULT_255_2_778
10
68.4031189
20
42.4549539
11
68.4031189
21
43.3828539
0
LINE
8
DEFAULT_255_2_778
10
68.4031189
20
43.3828539
11
68.4205189
21
43.3828539
0
LINE
8
DEFAULT_255_2_778
10
58.9029189
20
33.1609539
11
58.5944189
21
32.8503539
0
LINE
8
DEFAULT_255_2_778
10
58.9029189
20
52.6763539
11
58.5944189
21
52.9869539
0
LINE
8
DEFAULT_255_2_778
10
69.7083189
20
38.5621539
11
66.1030189
21
38.6206539
0
LINE
8
DEFAULT_255_2_778
10
66.1030189
20
38.6206539
11
66.1030189
21
39.4223539
0
LINE
8
DEFAULT_255_2_778
10
66.1030189
20
39.4223539
11
69.7083189
21
39.4808539
0
LINE
8
DEFAULT_255_2_778
10
69.7083189
20
46.3570539
11
66.1030189
21
46.4155539
0
LINE
8
DEFAULT_255_2_778
10
66.1030189
20
46.4155539
11
66.1030189
21
47.2487539
0
LINE
8
DEFAULT_255_2_778
10
66.1030189
20
47.2487539
11
69.7056189
21
47.2778539
0
LINE
8
DEFAULT_255_2_778
10
56.0031189
20
38.4330539
11
59.4030189
21
38.4055539
0
LINE
8
DEFAULT_255_2_778
10
59.4030189
20
38.4055539
11
59.4030189
21
39.6374539
0
LINE
8
DEFAULT_255_2_778
10
59.4030189
20
39.6374539
11
56.0031189
21
39.6099539
0
LINE
8
DEFAULT_255_2_778
10
56.0031189
20
46.2596539
11
59.4030189
21
46.2321539
0
LINE
8
DEFAULT_255_2_778
10
59.4030189
20
46.2321539
11
59.4030189
21
47.4640539
0
LINE
8
DEFAULT_255_2_778
10
59.4030189
20
47.4640539
11
56.0031189
21
47.4365539
0
LINE
8
DEFAULT_255_2_778
10
68.2030189
20
34.5968539
11
68.2030189
21
32.8508539
0
LINE
8
DEFAULT_255_2_778
10
68.2030189
20
38.5867539
11
68.2030189
21
35.9300539
0
LINE
8
DEFAULT_255_2_778
10
68.2030189
20
49.9075539
11
68.2030189
21
47.2656539
0
LINE
8
DEFAULT_255_2_778
10
68.2030189
20
52.9869539
11
68.2030189
21
51.2410539
0
LINE
8
DEFAULT_255_2_778
10
58.9029189
20
33.6390539
11
56.0438189
21
33.6390539
0
LINE
8
DEFAULT_255_2_778
10
58.9029189
20
52.1979539
11
56.0438189
21
52.1979539
0
LINE
8
DEFAULT_255_2_778
10
66.5028189
20
38.6137539
11
66.5028189
21
34.2050539
0
LINE
8
DEFAULT_255_2_778
10
66.5028189
20
41.0624539
11
66.5028189
21
39.4281539
0
LINE
8
DEFAULT_255_2_778
10
66.5028189
20
46.4083539
11
66.5028189
21
44.7740539
0
LINE
8
DEFAULT_255_2_778
10
66.5028189
20
51.6315539
11
66.5028189
21
47.2510539
0
ARC
8
DEFAULT_255_2_778
10
73.339437
20
25.4590434
40
1.035754
50
44.567728
51
90.3942296
0
ARC
8
DEFAULT_255_2_778
10
73.4044112
20
25.5357579
40
0.9356743
50
32.5274094
51
44.0130977
0
ARC
8
DEFAULT_255_2_778
10
73.4474084
20
23.7558139
40
1.7558076
50
0.1455063
51
32.7077915
0
LINE
8
DEFAULT_255_2_778
10
72.9230104
20
24.8244729
11
73.1029104
21
26.4947729
0
LINE
8
DEFAULT_255_2_778
10
73.1029104
20
26.4947729
11
73.3323104
21
26.4947729
0
LINE
8
DEFAULT_255_2_778
10
74.1933104
20
26.0388729
11
74.9248104
21
24.7045729
0
LINE
8
DEFAULT_255_2_778
10
75.2032104
20
23.7602729
11
75.2032104
21
23.7108729
0
LINE
8
DEFAULT_255_2_778
10
75.2032104
20
23.7108729
11
74.0033104
21
24.8244729
0
LINE
8
DEFAULT_255_2_778
10
74.0033104
20
24.8244729
11
72.9230104
21
24.8244729
0
LINE
8
DEFAULT_255_2_778
10
75.2029459
20
82.3570486
11
71.7030459
21
82.3570486
0
LINE
8
DEFAULT_255_2_778
10
71.7030459
20
82.3570486
11
71.7030459
21
58.0447486
0
LINE
8
DEFAULT_255_2_778
10
71.7032659
20
27.7939673
11
52.1031659
21
27.7939673
0
LINE
8
DEFAULT_255_2_778
10
52.1031659
20
27.7939673
11
52.1031659
21
58.0450673
0
LINE
8
DEFAULT_255_2_778
10
52.1031659
20
58.0450673
11
71.7032659
21
58.0450673
0
ARC
8
DEFAULT_255_2_778
10
62.9732027
20
61.108449
40
0.179794
50
312.4659456
51
359.5441918
0
ARC
8
DEFAULT_255_2_778
10
62.9544553
20
61.1287219
40
0.2074064
50
269.6783622
51
312.5052365
0
ARC
8
DEFAULT_255_2_778
10
61.3523335
20
61.1297734
40
0.2084569
50
227.6076048
51
270.263182
0
ARC
8
DEFAULT_255_2_778
10
61.3320571
20
61.1080855
40
0.1787693
50
180.3419317
51
227.7207494
0
ARC
8
DEFAULT_255_2_778
10
59.973302
20
61.1085863
40
0.1798959
50
312.4365813
51
359.5007177
0
ARC
8
DEFAULT_255_2_778
10
59.9545553
20
61.1287219
40
0.2074064
50
269.6783622
51
312.5052365
0
ARC
8
DEFAULT_255_2_778
10
58.3525304
20
61.1300232
40
0.2087068
50
227.6342091
51
270.2637183
0
ARC
8
DEFAULT_255_2_778
10
58.3325293
20
61.108115
40
0.1790417
50
180.3508484
51
227.6389676
0
ARC
8
DEFAULT_255_2_778
10
56.9735021
20
61.1084491
40
0.1797946
50
312.4660537
51
359.5441542
0
ARC
8
DEFAULT_255_2_778
10
56.9547553
20
61.1287219
40
0.2074064
50
269.6783622
51
312.5052365
0
ARC
8
DEFAULT_255_2_778
10
55.3524294
20
61.1284718
40
0.2071564
50
227.4678654
51
270.3212754
0
ARC
8
DEFAULT_255_2_778
10
55.3337805
20
61.1085867
40
0.1798965
50
180.4994141
51
227.5633951
0
ARC
8
DEFAULT_255_2_778
10
53.9739014
20
61.1085867
40
0.1798964
50
312.4366284
51
359.5005862
0
ARC
8
DEFAULT_255_2_778
10
53.9551553
20
61.1287219
40
0.2074064
50
269.6783622
51
312.5052365
0
ARC
8
DEFAULT_255_2_778
10
52.3530591
20
61.129838
40
0.2085219
50
227.6143817
51
270.2835412
0
ARC
8
DEFAULT_255_2_778
10
52.3327571
20
61.1080855
40
0.1787693
50
180.3419317
51
227.7207494
0
ARC
8
DEFAULT_255_2_778
10
50.9740018
20
61.1085864
40
0.1798961
50
312.4365974
51
359.5006728
0
ARC
8
DEFAULT_255_2_778
10
50.9553522
20
61.128473
40
0.2071575
50
269.6788469
51
312.5319976
0
ARC
8
DEFAULT_255_2_778
10
49.3530263
20
61.1287207
40
0.2074053
50
227.4946265
51
270.3217601
0
ARC
8
DEFAULT_255_2_778
10
49.3342783
20
61.1084485
40
0.1797931
50
180.4556524
51
227.5341954
0
ARC
8
DEFAULT_255_2_778
10
49.3342781
20
24.7301889
40
0.1797928
50
132.4657601
51
179.5443484
0
ARC
8
DEFAULT_255_2_778
10
49.3525977
20
24.7098871
40
0.2071377
50
89.5592729
51
132.4124505
0
ARC
8
DEFAULT_255_2_778
10
50.9554162
20
24.7091858
40
0.2078365
50
47.6633722
51
90.3377516
0
ARC
8
DEFAULT_255_2_778
10
50.9743324
20
24.7301984
40
0.1795643
50
0.4532036
51
47.6095176
0
ARC
8
DEFAULT_255_2_778
10
52.3338795
20
24.7300512
40
0.1798954
50
132.4364972
51
179.5007633
0
ARC
8
DEFAULT_255_2_778
10
52.3522772
20
24.7096892
40
0.2073375
50
89.4987657
51
132.3917889
0
ARC
8
DEFAULT_255_2_778
10
53.9552193
20
24.7089355
40
0.2080868
50
47.6900616
51
90.3381967
0
ARC
8
DEFAULT_255_2_778
10
53.974233
20
24.7301985
40
0.1795638
50
0.453166
51
47.6096256
0
ARC
8
DEFAULT_255_2_778
10
55.3337801
20
24.7300508
40
0.179896
50
132.4365442
51
179.5006318
0
ARC
8
DEFAULT_255_2_778
10
55.352001
20
24.710136
40
0.2068887
50
89.5596682
51
132.4391896
0
ARC
8
DEFAULT_255_2_778
10
56.9548193
20
24.7089355
40
0.2080868
50
47.6900616
51
90.3381967
0
ARC
8
DEFAULT_255_2_778
10
56.9738331
20
24.7303356
40
0.1794625
50
0.4096477
51
47.5801507
0
ARC
8
DEFAULT_255_2_778
10
58.3332785
20
24.7301888
40
0.1797932
50
132.4658305
51
179.5443239
0
ARC
8
DEFAULT_255_2_778
10
58.3516771
20
24.7096893
40
0.2073374
50
89.4987504
51
132.3917941
0
ARC
8
DEFAULT_255_2_778
10
59.9546193
20
24.7089355
40
0.2080868
50
47.6900616
51
90.3381967
0
ARC
8
DEFAULT_255_2_778
10
59.9736334
20
24.7301988
40
0.1795634
50
0.4530795
51
47.6096565
0
ARC
8
DEFAULT_255_2_778
10
61.3331792
20
24.7300515
40
0.179895
50
132.4364662
51
179.5008499
0
ARC
8
DEFAULT_255_2_778
10
61.3515506
20
24.7097551
40
0.2072709
50
89.5189097
51
132.3986451
0
ARC
8
DEFAULT_255_2_778
10
62.9545193
20
24.7089355
40
0.2080868
50
47.6900616
51
90.3381967
0
ARC
8
DEFAULT_255_2_778
10
62.9735335
20
24.7303357
40
0.1794622
50
0.4096232
51
47.5802211
0
LINE
8
DEFAULT_255_2_778
10
71.703791
20
58.0302187
11
72.603991
21
58.0302187
0
LINE
8
DEFAULT_255_2_778
10
72.603991
20
58.0302187
11
73.003191
21
55.9106187
0
LINE
8
DEFAULT_255_2_778
10
73.003191
20
55.9106187
11
74.702591
21
55.9106187
0
LINE
8
DEFAULT_255_2_778
10
74.702591
20
55.9106187
11
75.203191
21
56.3752187
0
LINE
8
DEFAULT_255_2_778
10
75.203191
20
56.3752187
11
75.203191
21
83.7490187
0
LINE
8
DEFAULT_255_2_778
10
75.203191
20
83.7490187
11
71.703291
21
83.7490187
0
LINE
8
DEFAULT_255_2_778
10
71.703291
20
83.7490187
11
71.703291
21
82.3570187
0
LINE
8
DEFAULT_255_2_778
10
71.703291
20
82.3570187
11
66.153091
21
82.3570187
0
LINE
8
DEFAULT_255_2_778
10
66.153091
20
82.3570187
11
66.153091
21
80.7658187
0
LINE
8
DEFAULT_255_2_778
10
66.153091
20
80.7658187
11
64.152891
21
80.7658187
0
LINE
8
DEFAULT_255_2_778
10
64.152891
20
80.7658187
11
64.152891
21
82.3570187
0
LINE
8
DEFAULT_255_2_778
10
64.152891
20
82.3570187
11
63.152991
21
82.3570187
0
LINE
8
DEFAULT_255_2_778
10
63.152991
20
82.3570187
11
63.152991
21
61.1070187
0
LINE
8
DEFAULT_255_2_778
10
62.953291
20
60.9213187
11
61.353291
21
60.9213187
0
LINE
8
DEFAULT_255_2_778
10
61.153291
20
61.1070187
11
61.153291
21
82.3570187
0
LINE
8
DEFAULT_255_2_778
10
61.153291
20
82.3570187
11
60.153191
21
82.3570187
0
LINE
8
DEFAULT_255_2_778
10
60.153191
20
82.3570187
11
60.153191
21
61.1070187
0
LINE
8
DEFAULT_255_2_778
10
59.953391
20
60.9213187
11
58.353491
21
60.9213187
0
LINE
8
DEFAULT_255_2_778
10
58.153491
20
61.1070187
11
58.153491
21
82.3570187
0
LINE
8
DEFAULT_255_2_778
10
58.153491
20
82.3570187
11
57.153291
21
82.3570187
0
LINE
8
DEFAULT_255_2_778
10
57.153291
20
82.3570187
11
57.153291
21
61.1070187
0
LINE
8
DEFAULT_255_2_778
10
56.953591
20
60.9213187
11
55.353591
21
60.9213187
0
LINE
8
DEFAULT_255_2_778
10
55.153891
20
61.1070187
11
55.153891
21
82.3570187
0
LINE
8
DEFAULT_255_2_778
10
55.153891
20
82.3570187
11
54.153791
21
82.3570187
0
LINE
8
DEFAULT_255_2_778
10
54.153791
20
82.3570187
11
54.153791
21
61.1070187
0
LINE
8
DEFAULT_255_2_778
10
53.953991
20
60.9213187
11
52.354091
21
60.9213187
0
LINE
8
DEFAULT_255_2_778
10
52.153991
20
61.1070187
11
52.153991
21
82.3570187
0
LINE
8
DEFAULT_255_2_778
10
52.153991
20
82.3570187
11
51.153891
21
82.3570187
0
LINE
8
DEFAULT_255_2_778
10
51.153891
20
82.3570187
11
51.153891
21
61.1070187
0
LINE
8
DEFAULT_255_2_778
10
50.954191
20
60.9213187
11
49.354191
21
60.9213187
0
LINE
8
DEFAULT_255_2_778
10
49.154491
20
61.1070187
11
49.154491
21
82.3570187
0
LINE
8
DEFAULT_255_2_778
10
49.154491
20
82.3570187
11
48.154591
21
82.3570187
0
LINE
8
DEFAULT_255_2_778
10
48.154591
20
82.3570187
11
48.154591
21
3.4816187
0
LINE
8
DEFAULT_255_2_778
10
48.154591
20
3.4816187
11
49.154491
21
3.4816187
0
LINE
8
DEFAULT_255_2_778
10
49.154491
20
3.4816187
11
49.154491
21
24.7316187
0
LINE
8
DEFAULT_255_2_778
10
49.354191
20
24.9170187
11
50.954191
21
24.9170187
0
LINE
8
DEFAULT_255_2_778
10
51.153891
20
24.7316187
11
51.153891
21
3.4816187
0
LINE
8
DEFAULT_255_2_778
10
51.153891
20
3.4816187
11
52.153991
21
3.4816187
0
LINE
8
DEFAULT_255_2_778
10
52.153991
20
3.4816187
11
52.153991
21
24.7316187
0
LINE
8
DEFAULT_255_2_778
10
52.354091
20
24.9170187
11
53.953991
21
24.9170187
0
LINE
8
DEFAULT_255_2_778
10
54.153791
20
24.7316187
11
54.153791
21
3.4816187
0
LINE
8
DEFAULT_255_2_778
10
54.153791
20
3.4816187
11
55.153891
21
3.4816187
0
LINE
8
DEFAULT_255_2_778
10
55.153891
20
3.4816187
11
55.153891
21
24.7316187
0
LINE
8
DEFAULT_255_2_778
10
55.353591
20
24.9170187
11
56.953591
21
24.9170187
0
LINE
8
DEFAULT_255_2_778
10
57.153291
20
24.7316187
11
57.153291
21
3.4816187
0
LINE
8
DEFAULT_255_2_778
10
57.153291
20
3.4816187
11
58.153491
21
3.4816187
0
LINE
8
DEFAULT_255_2_778
10
58.153491
20
3.4816187
11
58.153491
21
24.7316187
0
LINE
8
DEFAULT_255_2_778
10
58.353491
20
24.9170187
11
59.953391
21
24.9170187
0
LINE
8
DEFAULT_255_2_778
10
60.153191
20
24.7316187
11
60.153191
21
3.4816187
0
LINE
8
DEFAULT_255_2_778
10
60.153191
20
3.4816187
11
61.153291
21
3.4816187
0
LINE
8
DEFAULT_255_2_778
10
61.153291
20
3.4816187
11
61.153291
21
24.7316187
0
LINE
8
DEFAULT_255_2_778
10
61.353291
20
24.9170187
11
62.953291
21
24.9170187
0
LINE
8
DEFAULT_255_2_778
10
63.152991
20
24.7316187
11
63.152991
21
3.4816187
0
LINE
8
DEFAULT_255_2_778
10
63.152991
20
3.4816187
11
64.152891
21
3.4816187
0
LINE
8
DEFAULT_255_2_778
10
64.152891
20
3.4816187
11
64.152891
21
5.0590187
0
ARC
8
DEFAULT_255_2_778
10
40.307059
20
83.5030784
40
1.2667632
50
62.2340673
51
90.1802765
0
ARC
8
DEFAULT_255_2_778
10
40.4008414
20
83.6398102
40
1.1022542
50
0.8538206
51
63.2366271
0
ARC
8
DEFAULT_255_2_778
10
40.3901148
20
83.6770847
40
1.1130537
50
291.6142814
51
358.9266944
0
ARC
8
DEFAULT_255_2_778
10
40.3058941
20
83.8165812
40
1.2740489
50
269.8731413
51
292.8247452
0
ARC
8
DEFAULT_255_2_778
10
22.6990013
20
83.8095867
40
1.2670576
50
242.3989241
51
270.1796056
0
ARC
8
DEFAULT_255_2_778
10
22.6055902
20
83.6726992
40
1.1026398
50
180.8555299
51
243.4049031
0
ARC
8
DEFAULT_255_2_778
10
22.6158701
20
83.6353287
40
1.1129933
50
111.6121099
51
178.9236822
0
ARC
8
DEFAULT_255_2_778
10
22.7001551
20
83.4957522
40
1.2740863
50
89.8732701
51
112.8241744
0
LINE
8
DEFAULT_255_2_778
10
31.9530732
20
83.9348354
11
31.7530732
21
84.2131354
0
LINE
8
DEFAULT_255_2_778
10
31.7530732
20
84.2131354
11
31.2529732
21
84.2131354
0
LINE
8
DEFAULT_255_2_778
10
31.2529732
20
84.2131354
11
31.0529732
21
83.9348354
0
LINE
8
DEFAULT_255_2_778
10
34.9528732
20
83.9348354
11
34.7528732
21
84.2131354
0
LINE
8
DEFAULT_255_2_778
10
34.7528732
20
84.2131354
11
34.2527732
21
84.2131354
0
LINE
8
DEFAULT_255_2_778
10
34.2527732
20
84.2131354
11
34.0527732
21
83.9348354
0
LINE
8
DEFAULT_255_2_778
10
30.4528732
20
83.9348354
11
30.2528732
21
84.2131354
0
LINE
8
DEFAULT_255_2_778
10
30.2528732
20
84.2131354
11
29.7527732
21
84.2131354
0
LINE
8
DEFAULT_255_2_778
10
29.7527732
20
84.2131354
11
29.5527732
21
83.9348354
0
LINE
8
DEFAULT_255_2_778
10
28.9526732
20
83.9348354
11
28.7526732
21
84.2131354
0
LINE
8
DEFAULT_255_2_778
10
28.7526732
20
84.2131354
11
28.2525732
21
84.2131354
0
LINE
8
DEFAULT_255_2_778
10
28.2525732
20
84.2131354
11
28.0525732
21
83.9348354
0
LINE
8
DEFAULT_255_2_778
10
27.1524732
20
82.3573354
11
25.1524732
21
82.3573354
0
LINE
8
DEFAULT_255_2_778
10
24.1523732
20
82.3573354
11
22.1523732
21
82.3573354
0
LINE
8
DEFAULT_255_2_778
10
40.3427732
20
84.3049354
11
40.3030732
21
84.7698354
0
LINE
8
DEFAULT_255_2_778
10
40.3030732
20
82.5425354
11
22.7029732
21
82.5425354
0
LINE
8
DEFAULT_255_2_778
10
22.7029732
20
84.7698354
11
22.6627732
21
84.3047354
0
LINE
8
DEFAULT_255_2_778
10
35.5495732
20
83.4707354
11
35.5029732
21
83.9348354
0
LINE
8
DEFAULT_255_2_778
10
35.5029732
20
83.9348354
11
40.3030732
21
84.7698354
0
LINE
8
DEFAULT_255_2_778
10
40.3030732
20
84.7698354
11
38.9031732
21
84.7698354
0
LINE
8
DEFAULT_255_2_778
10
38.9031732
20
84.7698354
11
38.7030732
21
84.4915354
0
LINE
8
DEFAULT_255_2_778
10
38.7030732
20
84.4915354
11
37.3031732
21
84.4915354
0
LINE
8
DEFAULT_255_2_778
10
37.3031732
20
84.4915354
11
37.1031732
21
84.2131354
0
LINE
8
DEFAULT_255_2_778
10
37.1031732
20
84.2131354
11
35.7032732
21
84.2131354
0
LINE
8
DEFAULT_255_2_778
10
35.7032732
20
84.2131354
11
35.5032732
21
83.9348354
0
LINE
8
DEFAULT_255_2_778
10
35.5032732
20
83.9348354
11
27.5032732
21
83.9348354
0
LINE
8
DEFAULT_255_2_778
10
27.5032732
20
83.9348354
11
27.3032732
21
84.2131354
0
LINE
8
DEFAULT_255_2_778
10
27.3032732
20
84.2131354
11
25.9033732
21
84.2131354
0
LINE
8
DEFAULT_255_2_778
10
25.9033732
20
84.2131354
11
25.7033732
21
84.4915354
0
LINE
8
DEFAULT_255_2_778
10
25.7033732
20
84.4915354
11
24.3033732
21
84.4915354
0
LINE
8
DEFAULT_255_2_778
10
24.3033732
20
84.4915354
11
24.1031732
21
84.7698354
0
LINE
8
DEFAULT_255_2_778
10
24.1031732
20
84.7698354
11
22.7031732
21
84.7698354
0
LINE
8
DEFAULT_255_2_778
10
22.7031732
20
84.7698354
11
27.5032732
21
83.9348354
0
LINE
8
DEFAULT_255_2_778
10
27.5032732
20
83.9348354
11
27.4567732
21
83.4707354
0
LINE
8
DEFAULT_255_2_778
10
33.4532732
20
83.9348354
11
33.2531732
21
84.2131354
0
LINE
8
DEFAULT_255_2_778
10
33.2531732
20
84.2131354
11
32.7531732
21
84.2131354
0
LINE
8
DEFAULT_255_2_778
10
32.7531732
20
84.2131354
11
32.5531732
21
83.9348354
0
ARC
8
DEFAULT_255_2_778
10
33.0741656
20
7.597672
40
0.4295222
50
1.842245
51
85.1054304
0
ARC
8
DEFAULT_255_2_778
10
33.0535894
20
7.5388818
40
0.4900982
50
83.2948307
51
90.0144635
0
ARC
8
DEFAULT_255_2_778
10
33.0483446
20
7.5688434
40
0.4601652
50
89.3623483
51
142.8167775
0
ARC
8
DEFAULT_255_2_778
10
32.9982928
20
7.6108279
40
0.3949277
50
143.2810055
51
179.9053779
0
ARC
8
DEFAULT_255_2_778
10
33.0086827
20
7.5938501
40
0.7055373
50
103.52946
51
178.5681423
0
ARC
8
DEFAULT_255_2_778
10
33.0525791
20
7.5018177
40
0.8055628
50
89.9369383
51
105.0337625
0
ARC
8
DEFAULT_255_2_778
10
33.0576232
20
7.5242347
40
0.7831565
50
52.8465518
51
90.304161
0
ARC
8
DEFAULT_255_2_778
10
33.1272788
20
7.605544
40
0.676313
50
0.5028987
51
53.3896044
0
LINE
8
DEFAULT_255_2_778
10
30.5031657
20
10.9052801
11
36.4030657
21
10.9052801
0
LINE
8
DEFAULT_255_2_778
10
36.4030657
20
10.6269801
11
30.5031657
21
10.6269801
0
LINE
8
DEFAULT_255_2_778
10
36.4030657
20
11.2764801
11
30.5031657
21
11.2764801
0
LINE
8
DEFAULT_255_2_778
10
30.5031657
20
11.2764801
11
30.0030657
21
11.7405801
0
LINE
8
DEFAULT_255_2_778
10
30.0030657
20
11.7405801
11
36.9031657
21
11.7405801
0
LINE
8
DEFAULT_255_2_778
10
36.9031657
20
11.7405801
11
36.9031657
21
6.0800801
0
LINE
8
DEFAULT_255_2_778
10
36.9031657
20
6.0800801
11
30.0030657
21
6.0800801
0
LINE
8
DEFAULT_255_2_778
10
30.0030657
20
6.0800801
11
30.0030657
21
11.7405801
0
LINE
8
DEFAULT_255_2_778
10
30.5031657
20
11.2764801
11
30.5031657
21
6.5438801
0
LINE
8
DEFAULT_255_2_778
10
30.0030657
20
6.0797801
11
30.5031657
21
6.5438801
0
LINE
8
DEFAULT_255_2_778
10
30.5031657
20
6.5438801
11
36.4030657
21
6.5438801
0
LINE
8
DEFAULT_255_2_778
10
36.9031657
20
6.0797801
11
36.4030657
21
6.5438801
0
LINE
8
DEFAULT_255_2_778
10
36.4030657
20
6.5438801
11
36.4030657
21
11.2764801
0
LINE
8
DEFAULT_255_2_778
10
36.4030657
20
11.2764801
11
36.9031657
21
11.7405801
0
LINE
8
DEFAULT_255_2_778
10
33.7032657
20
6.5441801
11
33.8032657
21
6.6370801
0
LINE
8
DEFAULT_255_2_778
10
33.8032657
20
6.6370801
11
36.4033657
21
6.6370801
0
LINE
8
DEFAULT_255_2_778
10
30.5033657
20
7.3794801
11
32.3033657
21
7.3794801
0
LINE
8
DEFAULT_255_2_778
10
32.6033657
20
7.1010801
11
30.5033657
21
7.1010801
0
LINE
8
DEFAULT_255_2_778
10
33.5034657
20
6.5443801
11
33.5034657
21
7.6114801
0
LINE
8
DEFAULT_255_2_778
10
32.6033657
20
7.6114801
11
32.6033657
21
7.1010801
0
LINE
8
DEFAULT_255_2_778
10
32.6033657
20
7.1010801
11
32.3033657
21
7.3794801
0
LINE
8
DEFAULT_255_2_778
10
32.3033657
20
7.3794801
11
32.3033657
21
7.6114801
0
LINE
8
DEFAULT_255_2_778
10
33.8035657
20
7.6114801
11
33.8035657
21
6.6370801
0
LINE
8
DEFAULT_255_2_778
10
24.1531751
20
5.057501
11
22.1531751
21
5.059001
0
LINE
8
DEFAULT_255_2_778
10
22.1531751
20
5.059001
11
22.1531751
21
3.481601
0
LINE
8
DEFAULT_255_2_778
10
22.1531751
20
3.481601
11
21.1530751
21
3.481601
0
LINE
8
DEFAULT_255_2_778
10
21.1530751
20
3.481601
11
21.1530751
21
82.357301
0
LINE
8
DEFAULT_255_2_778
10
21.1530751
20
82.357301
11
22.1531751
21
82.357301
0
LINE
8
DEFAULT_255_2_778
10
22.1531751
20
82.357301
11
22.1531751
21
80.766101
0
LINE
8
DEFAULT_255_2_778
10
22.1531751
20
80.766101
11
24.1531751
21
80.766101
0
LINE
8
DEFAULT_255_2_778
10
24.1531751
20
80.766101
11
24.1531751
21
82.357301
0
LINE
8
DEFAULT_255_2_778
10
24.1531751
20
82.357301
11
25.1532751
21
82.357301
0
LINE
8
DEFAULT_255_2_778
10
25.1532751
20
82.357301
11
25.1532751
21
80.766101
0
LINE
8
DEFAULT_255_2_778
10
25.1532751
20
80.766101
11
27.1532751
21
80.766101
0
LINE
8
DEFAULT_255_2_778
10
27.1532751
20
80.766101
11
27.1532751
21
82.357301
0
LINE
8
DEFAULT_255_2_778
10
27.1532751
20
82.357301
11
29.5032751
21
82.357301
0
LINE
8
DEFAULT_255_2_778
10
29.5032751
20
82.357301
11
29.5032751
21
82.542801
0
LINE
8
DEFAULT_255_2_778
10
46.1532375
20
33.8719195
11
46.1532375
21
51.5029195
0
LINE
8
DEFAULT_255_2_778
10
46.1532375
20
51.5029195
11
45.1531375
21
51.5029195
0
LINE
8
DEFAULT_255_2_778
10
45.1531375
20
51.5029195
11
45.1531375
21
34.3359195
0
LINE
8
DEFAULT_255_2_778
10
45.1531375
20
34.3359195
11
46.1532375
21
34.3359195
0
LINE
8
DEFAULT_255_2_778
10
43.1531448
20
5.0590194
11
45.1531448
21
5.0590194
0
LINE
8
DEFAULT_255_2_778
10
45.1531448
20
5.0590194
11
45.1531448
21
3.4816194
0
LINE
8
DEFAULT_255_2_778
10
45.1531448
20
3.4816194
11
46.1532448
21
3.4816194
0
LINE
8
DEFAULT_255_2_778
10
46.1532448
20
3.4816194
11
46.1532448
21
28.0722194
0
LINE
8
DEFAULT_255_2_778
10
46.1532448
20
28.0722194
11
45.1531448
21
28.0722194
0
LINE
8
DEFAULT_255_2_778
10
45.1531448
20
28.0722194
11
45.1531448
21
5.0590194
0
ARC
8
DEFAULT_255_2_778
10
1.8933398
20
80.5878439
40
1.7695147
50
89.6869667
51
132.3624951
0
ARC
8
DEFAULT_255_2_778
10
1.7381239
20
80.7609747
40
1.5370028
50
132.4359453
51
171.6547872
0
ARC
8
DEFAULT_255_2_778
10
1.6684783
20
80.7799162
40
1.4653708
50
171.9923279
51
179.999373
0
ARC
8
DEFAULT_255_2_778
10
1.7245242
20
5.0696819
40
1.521452
50
180.3897557
51
227.3422288
0
ARC
8
DEFAULT_255_2_778
10
1.8212718
20
5.1512296
40
1.647058
50
226.789411
51
227.1437907
0
ARC
8
DEFAULT_255_2_778
10
1.8933397
20
5.2513202
40
1.7695143
50
227.6374973
51
270.3130352
0
LINE
8
DEFAULT_255_2_778
10
9.1532074
20
5.0593322
11
9.1532074
21
5.0730322
0
LINE
8
DEFAULT_255_2_778
10
9.1532074
20
5.0730322
11
7.1532074
21
5.0730322
0
LINE
8
DEFAULT_255_2_778
10
7.1532074
20
5.0730322
11
7.1532074
21
5.0593322
0
LINE
8
DEFAULT_255_2_778
10
7.1532074
20
5.0593322
11
9.1532074
21
5.0593322
0
LINE
8
DEFAULT_255_2_778
10
9.1532074
20
5.0593322
11
9.1532074
21
3.4818322
0
LINE
8
DEFAULT_255_2_778
10
9.1532074
20
3.4818322
11
10.1533074
21
3.4818322
0
LINE
8
DEFAULT_255_2_778
10
10.1533074
20
3.4818322
11
10.1533074
21
82.3573322
0
LINE
8
DEFAULT_255_2_778
10
10.1533074
20
82.3573322
11
9.1532074
21
82.3573322
0
LINE
8
DEFAULT_255_2_778
10
9.1532074
20
82.3573322
11
9.1532074
21
80.7661322
0
LINE
8
DEFAULT_255_2_778
10
9.1532074
20
80.7661322
11
7.1532074
21
80.7661322
0
LINE
8
DEFAULT_255_2_778
10
7.1532074
20
80.7661322
11
7.1532074
21
82.3573322
0
LINE
8
DEFAULT_255_2_778
10
7.1532074
20
82.3573322
11
6.1530074
21
82.3573322
0
LINE
8
DEFAULT_255_2_778
10
6.1530074
20
82.3573322
11
6.1530074
21
80.7661322
0
LINE
8
DEFAULT_255_2_778
10
6.1530074
20
80.7661322
11
4.1531074
21
80.7661322
0
LINE
8
DEFAULT_255_2_778
10
4.1531074
20
80.7661322
11
4.1531074
21
82.3573322
0
LINE
8
DEFAULT_255_2_778
10
4.1531074
20
82.3573322
11
1.9030074
21
82.3573322
0
LINE
8
DEFAULT_255_2_778
10
0.2031074
20
80.7799322
11
0.2031074
21
5.0593322
0
LINE
8
DEFAULT_255_2_778
10
1.9030074
20
3.4818322
11
4.1531074
21
3.4818322
0
LINE
8
DEFAULT_255_2_778
10
4.1531074
20
3.4818322
11
4.1531074
21
5.0730322
0
LINE
8
DEFAULT_255_2_778
10
4.1531074
20
5.0730322
11
6.1530074
21
5.0730322
0
LINE
8
DEFAULT_255_2_778
10
29.5030408
20
82.3573687
11
43.1531408
21
82.3573687
0
LINE
8
DEFAULT_255_2_778
10
43.1531408
20
82.3573687
11
43.1531408
21
3.4818687
0
LINE
8
DEFAULT_255_2_778
10
43.1531408
20
3.4818687
11
36.8031408
21
3.4818687
0
LINE
8
DEFAULT_255_2_778
10
36.8031408
20
3.4818687
11
36.8031408
21
3.2964687
0
LINE
8
DEFAULT_255_2_778
10
25.1529658
20
5.0577229
11
27.1529658
21
5.0593229
0
LINE
8
DEFAULT_255_2_778
10
27.1529658
20
5.0593229
11
27.1529658
21
3.4819229
0
LINE
8
DEFAULT_255_2_778
10
27.1529658
20
3.4819229
11
36.8028658
21
3.4819229
0
LINE
8
DEFAULT_255_2_778
10
43.1531448
20
82.3573194
11
45.1531448
21
82.3573194
0
LINE
8
DEFAULT_255_2_778
10
45.1531448
20
82.3573194
11
45.1531448
21
57.7667194
0
LINE
8
DEFAULT_255_2_778
10
45.1531448
20
57.7667194
11
46.1532448
21
57.7667194
0
LINE
8
DEFAULT_255_2_778
10
46.1532448
20
57.7667194
11
46.1532448
21
82.3573194
0
LINE
8
DEFAULT_255_2_778
10
46.1532448
20
82.3573194
11
45.1531448
21
82.3573194
0
LINE
8
DEFAULT_255_2_778
10
7.1531375
20
5.0593229
11
7.1531375
21
3.4819229
0
LINE
8
DEFAULT_255_2_778
10
7.1531375
20
3.4819229
11
6.1530375
21
3.4819229
0
LINE
8
DEFAULT_255_2_778
10
6.1530375
20
3.4819229
11
6.1530375
21
5.0593229
0
LINE
8
DEFAULT_255_2_778
10
22.1531522
20
5.0593021
11
22.1531522
21
5.0731021
0
LINE
8
DEFAULT_255_2_778
10
22.1531522
20
5.0731021
11
24.1531522
21
5.0731021
0
LINE
8
DEFAULT_255_2_778
10
24.1531522
20
5.0731021
11
24.1531522
21
3.4819021
0
LINE
8
DEFAULT_255_2_778
10
24.1531522
20
3.4819021
11
25.1532522
21
3.4819021
0
LINE
8
DEFAULT_255_2_778
10
25.1532522
20
3.4819021
11
25.1532522
21
5.0731021
0
LINE
8
DEFAULT_255_2_778
10
25.1532522
20
5.0731021
11
27.1532522
21
5.0731021
0
LINE
8
DEFAULT_255_2_778
10
27.1532522
20
5.0731021
11
27.1532522
21
5.0593021
0
LINE
8
DEFAULT_255_2_778
10
21.1532448
20
82.3573322
11
19.1532448
21
82.3573322
0
LINE
8
DEFAULT_255_2_778
10
19.1532448
20
82.3573322
11
19.1532448
21
3.4818322
0
LINE
8
DEFAULT_255_2_778
10
19.1532448
20
3.4818322
11
18.1531448
21
3.4818322
0
LINE
8
DEFAULT_255_2_778
10
18.1531448
20
3.4818322
11
18.1531448
21
82.3573322
0
LINE
8
DEFAULT_255_2_778
10
18.1531448
20
82.3573322
11
19.1532448
21
82.3573322
0
LINE
8
DEFAULT_255_2_778
10
13.1531448
20
3.4818322
11
15.1531448
21
3.4818322
0
LINE
8
DEFAULT_255_2_778
10
15.1531448
20
3.4818322
11
15.1531448
21
82.3573322
0
LINE
8
DEFAULT_255_2_778
10
15.1531448
20
82.3573322
11
16.1532448
21
82.3573322
0
LINE
8
DEFAULT_255_2_778
10
16.1532448
20
82.3573322
11
16.1532448
21
3.4818322
0
LINE
8
DEFAULT_255_2_778
10
16.1532448
20
3.4818322
11
15.1531448
21
3.4818322
0
LINE
8
DEFAULT_255_2_778
10
6.1530073
20
82.3573
11
4.1530073
21
82.3573
0
LINE
8
DEFAULT_255_2_778
10
10.1529448
20
3.4818322
11
12.1529448
21
3.4818322
0
LINE
8
DEFAULT_255_2_778
10
12.1529448
20
3.4818322
11
12.1529448
21
82.3573322
0
LINE
8
DEFAULT_255_2_778
10
12.1529448
20
82.3573322
11
13.1530448
21
82.3573322
0
LINE
8
DEFAULT_255_2_778
10
13.1530448
20
82.3573322
11
13.1530448
21
3.4818322
0
LINE
8
DEFAULT_255_2_778
10
13.1530448
20
3.4818322
11
12.1529448
21
3.4818322
0
LINE
8
DEFAULT_255_2_778
10
4.1530073
20
3.4816
11
6.1530073
21
3.4816
0
LINE
8
DEFAULT_255_2_778
10
22.1532073
20
3.4816
11
24.1532073
21
3.4816
0
LINE
8
DEFAULT_255_2_778
10
25.1530073
20
3.4816
11
27.1530073
21
3.4816
0
LINE
8
DEFAULT_255_2_778
10
64.1531073
20
3.4816
11
66.1531073
21
3.4816
0
LINE
8
DEFAULT_255_2_778
10
66.1531073
20
82.3573
11
64.1531073
21
82.3573
0
LINE
8
DEFAULT_255_2_778
10
9.1531073
20
82.3573
11
7.1531073
21
82.3573
0
LINE
8
DEFAULT_255_2_778
10
7.1531073
20
3.4816
11
9.1531073
21
3.4816
0
LINE
8
DEFAULT_255_2_778
10
47.2670948
20
57.5809968
11
45.7528948
21
57.5809968
0
LINE
8
DEFAULT_255_2_778
10
45.7528948
20
57.5809968
11
45.7528948
21
51.9667968
0
LINE
8
DEFAULT_255_2_778
10
45.7528948
20
51.9667968
11
47.2670948
21
51.9667968
0
LINE
8
DEFAULT_255_2_778
10
45.7528948
20
28.2576968
11
47.2670948
21
28.2576968
0
LINE
8
DEFAULT_255_2_778
10
47.2670948
20
28.2576968
11
47.2670948
21
33.8718968
0
LINE
8
DEFAULT_255_2_778
10
47.2670948
20
33.8718968
11
45.7528948
21
33.8718968
0
LINE
8
DEFAULT_255_2_778
10
45.7528948
20
33.8718968
11
45.7528948
21
28.2576968
0
LINE
8
DEFAULT_255_2_778
10
71.703
20
27.7939673
11
71.703
21
58.0450673
0
ARC
8
DEFAULT_255_2_778
10
71.9136512
20
26.401344
40
0.0893537
50
0.3625134
51
47.7729915
0
ARC
8
DEFAULT_255_2_778
10
71.9035351
20
26.3909894
40
0.1038212
50
47.4794895
51
90.2935904
0
LINE
8
DEFAULT_255_2_778
10
72.9230031
20
24.8245093
11
72.0030031
21
24.8245093
0
LINE
8
DEFAULT_255_2_778
10
72.0030031
20
24.8245093
11
72.0030031
21
26.4019093
0
LINE
8
DEFAULT_255_2_778
10
71.9030031
20
26.4948093
11
71.7030031
21
26.4948093
0
LINE
8
DEFAULT_255_2_778
10
71.7030031
20
26.4948093
11
71.7030031
21
27.7939093
0
ARC
8
DEFAULT_255_2_778
10
64.3520141
20
12.1816226
40
0.2089558
50
227.7826713
51
270.2997739
0
ARC
8
DEFAULT_255_2_778
10
64.3315459
20
12.1589905
40
0.178441
50
180.2956843
51
227.7670117
0
ARC
8
DEFAULT_255_2_778
10
64.3333809
20
24.7302318
40
0.180281
50
132.4902709
51
179.479467
0
ARC
8
DEFAULT_255_2_778
10
64.3512969
20
24.7102886
40
0.2070889
50
89.4991083
51
132.4183975
0
ARC
8
DEFAULT_255_2_778
10
65.9539442
20
24.7077473
40
0.209624
50
47.8537015
51
90.2287287
0
ARC
8
DEFAULT_255_2_778
10
65.9744535
20
24.7309535
40
0.1786562
50
0.2938036
51
47.7364276
0
ARC
8
DEFAULT_255_2_778
10
65.973218
20
12.1596373
40
0.1798961
50
312.4366212
51
359.5006808
0
ARC
8
DEFAULT_255_2_778
10
65.9548477
20
12.1799332
40
0.2072709
50
269.5189097
51
312.3986451
0
ARC
8
DEFAULT_255_2_778
10
65.9728341
20
18.0523072
40
0.1802806
50
312.4902399
51
359.4795536
0
ARC
8
DEFAULT_255_2_778
10
65.9548473
20
18.0724342
40
0.2072719
50
269.5190198
51
312.3985422
0
ARC
8
DEFAULT_255_2_778
10
64.3521988
20
18.0746049
40
0.2094373
50
227.8339016
51
270.2485345
0
ARC
8
DEFAULT_255_2_778
10
64.3317616
20
18.0515858
40
0.1786566
50
180.2938306
51
227.7363499
0
ARC
8
DEFAULT_255_2_778
10
64.3329965
20
16.7500019
40
0.179896
50
132.4365907
51
179.5006914
0
ARC
8
DEFAULT_255_2_778
10
64.3512971
20
16.7298879
40
0.2070895
50
89.4991467
51
132.4182894
0
ARC
8
DEFAULT_255_2_778
10
65.9541286
20
16.7278286
40
0.2091435
50
47.80269
51
90.2797864
0
ARC
8
DEFAULT_255_2_778
10
65.9746681
20
16.7506486
40
0.1784415
50
0.295729
51
47.7668835
0
LINE
8
DEFAULT_255_2_778
10
64.1531073
20
12.1580696
11
64.1531073
21
24.7318696
0
LINE
8
DEFAULT_255_2_778
10
64.3531073
20
24.9173696
11
65.9531073
21
24.9173696
0
LINE
8
DEFAULT_255_2_778
10
66.1531073
20
24.7318696
11
66.1531073
21
12.1580696
0
LINE
8
DEFAULT_255_2_778
10
65.9531073
20
11.9726696
11
64.3531073
21
11.9726696
0
LINE
8
DEFAULT_255_2_778
10
65.9531073
20
17.8651696
11
64.3531073
21
17.8651696
0
LINE
8
DEFAULT_255_2_778
10
64.3531073
20
16.9369696
11
65.9531073
21
16.9369696
0
ARC
8
DEFAULT_255_2_778
10
61.3328964
20
16.749708
40
0.179896
50
132.4365442
51
179.5006318
0
ARC
8
DEFAULT_255_2_778
10
61.3511592
20
16.7300746
40
0.2067094
50
89.4877344
51
132.5003858
0
ARC
8
DEFAULT_255_2_778
10
62.9538846
20
16.7275454
40
0.2092323
50
47.7715218
51
90.2402313
0
ARC
8
DEFAULT_255_2_778
10
62.9747315
20
16.7504276
40
0.1782779
50
0.2726176
51
47.7900516
0
ARC
8
DEFAULT_255_2_778
10
62.9731175
20
18.0519437
40
0.1798966
50
312.4367053
51
359.5006352
0
ARC
8
DEFAULT_255_2_778
10
62.9547855
20
18.0717591
40
0.2068909
50
269.5075542
51
312.4806149
0
ARC
8
DEFAULT_255_2_778
10
61.3520588
20
18.0739204
40
0.2090467
50
227.7517324
51
270.2599715
0
ARC
8
DEFAULT_255_2_778
10
61.3312832
20
18.0512241
40
0.1782779
50
180.2726176
51
227.7900516
0
ARC
8
DEFAULT_255_2_778
10
62.9731175
20
8.7724437
40
0.1798966
50
312.4367053
51
359.5006352
0
ARC
8
DEFAULT_255_2_778
10
62.9547477
20
8.7927395
40
0.2072709
50
269.5189097
51
312.3986451
0
ARC
8
DEFAULT_255_2_778
10
61.3519145
20
8.7944298
40
0.2089568
50
227.7827746
51
270.2996634
0
ARC
8
DEFAULT_255_2_778
10
61.3314468
20
8.771797
40
0.1784418
50
180.2957755
51
227.7668669
0
LINE
8
DEFAULT_255_2_778
10
61.1530073
20
3.4815758
11
63.1530073
21
3.4815758
0
LINE
8
DEFAULT_255_2_778
10
61.3530073
20
16.9367758
11
62.9530073
21
16.9367758
0
LINE
8
DEFAULT_255_2_778
10
62.9530073
20
17.8648758
11
61.3530073
21
17.8648758
0
LINE
8
DEFAULT_255_2_778
10
62.9530073
20
8.5854758
11
61.3530073
21
8.5854758
0
ARC
8
DEFAULT_255_2_778
10
4.3328969
20
16.7499457
40
0.1798964
50
132.4366284
51
179.5005862
0
ARC
8
DEFAULT_255_2_778
10
4.3511974
20
16.729832
40
0.2070897
50
89.4992319
51
132.418355
0
ARC
8
DEFAULT_255_2_778
10
5.9540285
20
16.7277734
40
0.2091428
50
47.8025367
51
90.2797665
0
ARC
8
DEFAULT_255_2_778
10
5.9745679
20
16.7505925
40
0.1784418
50
0.2957755
51
47.7668669
0
ARC
8
DEFAULT_255_2_778
10
4.3332803
20
18.0522509
40
0.1802804
50
180.5203394
51
227.5097367
0
ARC
8
DEFAULT_255_2_778
10
4.3511971
20
18.0721945
40
0.2070888
50
227.5815183
51
270.5008479
0
ARC
8
DEFAULT_255_2_778
10
5.9538442
20
18.0747359
40
0.2096239
50
269.7712639
51
312.1463194
0
ARC
8
DEFAULT_255_2_778
10
5.9743531
20
18.0515299
40
0.1786566
50
312.2636501
51
359.7061694
0
ARC
8
DEFAULT_255_2_778
10
5.973118
20
48.6744814
40
0.1798961
50
312.4366212
51
359.5006808
0
ARC
8
DEFAULT_255_2_778
10
5.9547474
20
48.6947778
40
0.2072715
50
269.5189935
51
312.3986162
0
ARC
8
DEFAULT_255_2_778
10
4.3519149
20
48.6964686
40
0.2089578
50
227.7828511
51
270.2995278
0
ARC
8
DEFAULT_255_2_778
10
4.3314466
20
48.6738348
40
0.1784416
50
180.2957474
51
227.7668769
0
ARC
8
DEFAULT_255_2_778
10
4.3332797
20
47.3721764
40
0.1802798
50
132.4901159
51
179.479636
0
ARC
8
DEFAULT_255_2_778
10
4.3511974
20
47.352232
40
0.2070897
50
89.4992319
51
132.418355
0
ARC
8
DEFAULT_255_2_778
10
5.9538442
20
47.3496913
40
0.209624
50
47.8537015
51
90.2287287
0
ARC
8
DEFAULT_255_2_778
10
5.974353
20
47.3728974
40
0.1786567
50
0.2938587
51
47.7363399
0
ARC
8
DEFAULT_255_2_778
10
5.9727341
20
38.4672513
40
0.1802806
50
312.4902399
51
359.4795536
0
ARC
8
DEFAULT_255_2_778
10
5.9547477
20
38.4873773
40
0.2072709
50
269.5189097
51
312.3986451
0
ARC
8
DEFAULT_255_2_778
10
4.3520988
20
38.489549
40
0.2094373
50
227.8339016
51
270.2485345
0
ARC
8
DEFAULT_255_2_778
10
4.3316617
20
38.46653
40
0.1786567
50
180.2938587
51
227.7363399
0
ARC
8
DEFAULT_255_2_778
10
4.3328964
20
37.1649458
40
0.179896
50
132.4365442
51
179.5006318
0
ARC
8
DEFAULT_255_2_778
10
4.3511969
20
37.1448327
40
0.2070889
50
89.4991083
51
132.4183975
0
ARC
8
DEFAULT_255_2_778
10
5.9540287
20
37.1427731
40
0.209143
50
47.8026157
51
90.2798126
0
ARC
8
DEFAULT_255_2_778
10
5.9745682
20
37.1655927
40
0.1784415
50
0.2957395
51
47.7669239
0
ARC
8
DEFAULT_255_2_778
10
4.332896
20
69.0891813
40
0.1798955
50
180.499265
51
227.5634927
0
ARC
8
DEFAULT_255_2_778
10
4.3511968
20
69.109294
40
0.2070882
50
227.5814894
51
270.5009318
0
ARC
8
DEFAULT_255_2_778
10
5.9538442
20
69.1118359
40
0.2096239
50
269.7712639
51
312.1463194
0
ARC
8
DEFAULT_255_2_778
10
5.9745682
20
69.0885347
40
0.1784415
50
312.2330761
51
359.7042605
0
ARC
8
DEFAULT_255_2_778
10
4.3329479
20
67.7870241
40
0.1799468
50
132.4439745
51
179.5256931
0
ARC
8
DEFAULT_255_2_778
10
4.3511968
20
67.7669331
40
0.2070885
50
89.4990845
51
132.4184646
0
ARC
8
DEFAULT_255_2_778
10
5.9538442
20
67.7643913
40
0.209624
50
47.8537015
51
90.2287287
0
ARC
8
DEFAULT_255_2_778
10
5.9745163
20
67.7876702
40
0.178493
50
0.2707636
51
47.7594408
0
ARC
8
DEFAULT_255_2_778
10
4.3332797
20
75.3494764
40
0.1802798
50
132.4901159
51
179.479636
0
ARC
8
DEFAULT_255_2_778
10
4.3511974
20
75.329532
40
0.2070897
50
89.4992319
51
132.418355
0
ARC
8
DEFAULT_255_2_778
10
5.9538442
20
75.3269913
40
0.209624
50
47.8537015
51
90.2287287
0
ARC
8
DEFAULT_255_2_778
10
5.974353
20
75.3501974
40
0.1786567
50
0.2938587
51
47.7363399
0
ARC
8
DEFAULT_255_2_778
10
5.9731171
20
12.1595817
40
0.179897
50
312.436766
51
359.5005893
0
ARC
8
DEFAULT_255_2_778
10
5.9547469
20
12.1798785
40
0.2072723
50
269.5191172
51
312.3985736
0
ARC
8
DEFAULT_255_2_778
10
4.3520988
20
12.182049
40
0.2094373
50
227.8339016
51
270.2485345
0
ARC
8
DEFAULT_255_2_778
10
4.3314468
20
12.1589349
40
0.1784418
50
180.2957755
51
227.7668669
0
ARC
8
DEFAULT_255_2_778
10
5.9731175
20
61.1085818
40
0.1798966
50
312.4366588
51
359.5005756
0
ARC
8
DEFAULT_255_2_778
10
5.9546045
20
61.1288682
40
0.2073607
50
269.5586844
51
312.4295637
0
ARC
8
DEFAULT_255_2_778
10
4.3520589
20
61.1305587
40
0.2090472
50
227.7518066
51
270.2599452
0
ARC
8
DEFAULT_255_2_778
10
4.3312832
20
61.107862
40
0.1782779
50
180.2726176
51
227.7900516
0
ARC
8
DEFAULT_255_2_778
10
4.3332797
20
57.5792764
40
0.1802798
50
132.4901159
51
179.479636
0
ARC
8
DEFAULT_255_2_778
10
4.3511972
20
57.5593322
40
0.2070894
50
89.4991921
51
132.4183687
0
ARC
8
DEFAULT_255_2_778
10
5.9538442
20
57.5567913
40
0.209624
50
47.8537015
51
90.2287287
0
ARC
8
DEFAULT_255_2_778
10
5.9743526
20
57.5799973
40
0.178657
50
0.2938946
51
47.7362829
0
ARC
8
DEFAULT_255_2_778
10
5.9727341
20
28.2593513
40
0.1802806
50
312.4902399
51
359.4795536
0
ARC
8
DEFAULT_255_2_778
10
5.9547474
20
28.2794785
40
0.207272
50
269.5189742
51
312.3984629
0
ARC
8
DEFAULT_255_2_778
10
4.3520988
20
28.281649
40
0.2094373
50
227.8339016
51
270.2485345
0
ARC
8
DEFAULT_255_2_778
10
4.3316617
20
28.25863
40
0.1786567
50
180.2938587
51
227.7363399
0
ARC
8
DEFAULT_255_2_778
10
5.9731184
20
24.7300462
40
0.1798957
50
0.4992612
51
47.5634324
0
ARC
8
DEFAULT_255_2_778
10
5.9547472
20
24.7097489
40
0.2072721
50
47.6014919
51
90.4809681
0
ARC
8
DEFAULT_255_2_778
10
4.3519141
20
24.7080607
40
0.2089558
50
89.7002261
51
132.2173287
0
ARC
8
DEFAULT_255_2_778
10
4.3314468
20
24.7306925
40
0.1784418
50
132.2331331
51
179.7042245
0
LINE
8
DEFAULT_255_2_778
10
4.3530073
20
16.9369137
11
5.9530073
21
16.9369137
0
LINE
8
DEFAULT_255_2_778
10
4.3530073
20
17.8651137
11
5.9530073
21
17.8651137
0
LINE
8
DEFAULT_255_2_778
10
5.9530073
20
48.4875137
11
4.3530073
21
48.4875137
0
LINE
8
DEFAULT_255_2_778
10
4.3530073
20
47.5593137
11
5.9530073
21
47.5593137
0
LINE
8
DEFAULT_255_2_778
10
5.9530073
20
38.2801137
11
4.3530073
21
38.2801137
0
LINE
8
DEFAULT_255_2_778
10
4.3530073
20
37.3519137
11
5.9530073
21
37.3519137
0
LINE
8
DEFAULT_255_2_778
10
4.3530073
20
68.9022137
11
5.9530073
21
68.9022137
0
LINE
8
DEFAULT_255_2_778
10
4.3530073
20
67.9740137
11
5.9530073
21
67.9740137
0
LINE
8
DEFAULT_255_2_778
10
6.1530073
20
45.1466137
11
4.1530073
21
45.1466137
0
LINE
8
DEFAULT_255_2_778
10
4.3530073
20
75.5366137
11
5.9530073
21
75.5366137
0
LINE
8
DEFAULT_255_2_778
10
6.1530073
20
75.3511137
11
6.1530073
21
12.1580137
0
LINE
8
DEFAULT_255_2_778
10
5.9530073
20
11.9726137
11
4.3530073
21
11.9726137
0
LINE
8
DEFAULT_255_2_778
10
4.1530073
20
12.1580137
11
4.1530073
21
75.3511137
0
LINE
8
DEFAULT_255_2_778
10
5.9530073
20
60.9215137
11
4.3530073
21
60.9215137
0
LINE
8
DEFAULT_255_2_778
10
4.3530073
20
57.7664137
11
5.9530073
21
57.7664137
0
LINE
8
DEFAULT_255_2_778
10
5.9530073
20
28.0722137
11
4.3530073
21
28.0722137
0
LINE
8
DEFAULT_255_2_778
10
5.9530073
20
24.9170137
11
4.3530073
21
24.9170137
0
ARC
8
DEFAULT_255_2_778
10
7.3333799
20
69.0893511
40
0.18028
50
180.5204089
51
227.509868
0
ARC
8
DEFAULT_255_2_778
10
7.3512972
20
69.1092947
40
0.207089
50
227.581532
51
270.5008082
0
ARC
8
DEFAULT_255_2_778
10
8.9539442
20
69.1118359
40
0.2096239
50
269.7712639
51
312.1463194
0
ARC
8
DEFAULT_255_2_778
10
8.9744531
20
69.0886299
40
0.1786566
50
312.2636501
51
359.7061694
0
ARC
8
DEFAULT_255_2_778
10
7.332997
20
67.7870457
40
0.1798965
50
132.4366522
51
179.5005942
0
ARC
8
DEFAULT_255_2_778
10
7.35144
20
67.7669414
40
0.207179
50
89.5388966
51
132.4492329
0
ARC
8
DEFAULT_255_2_778
10
8.9539845
20
67.7648825
40
0.209233
50
47.7716299
51
90.2401932
0
ARC
8
DEFAULT_255_2_778
10
8.9748315
20
67.7877654
40
0.1782779
50
0.2726176
51
47.7900516
0
ARC
8
DEFAULT_255_2_778
10
7.3329964
20
16.749946
40
0.1798959
50
132.4365836
51
179.5006939
0
ARC
8
DEFAULT_255_2_778
10
7.3512591
20
16.7303129
40
0.206709
50
89.4877106
51
132.500453
0
ARC
8
DEFAULT_255_2_778
10
8.9539843
20
16.7277828
40
0.2092328
50
47.7715509
51
90.240147
0
ARC
8
DEFAULT_255_2_778
10
8.9748315
20
16.7506654
40
0.1782779
50
0.2726176
51
47.7900516
0
ARC
8
DEFAULT_255_2_778
10
7.3329959
20
18.052181
40
0.1798954
50
180.499196
51
227.5634732
0
ARC
8
DEFAULT_255_2_778
10
7.3514391
20
18.0722841
40
0.2071769
50
227.5505826
51
270.4613509
0
ARC
8
DEFAULT_255_2_778
10
8.9539848
20
18.0743445
40
0.2092327
50
269.759702
51
312.2283595
0
ARC
8
DEFAULT_255_2_778
10
8.9748315
20
18.051462
40
0.1782779
50
312.2099484
51
359.7273824
0
ARC
8
DEFAULT_255_2_778
10
8.973218
20
38.4668814
40
0.1798961
50
312.4366212
51
359.5006808
0
ARC
8
DEFAULT_255_2_778
10
8.9548474
20
38.4871785
40
0.207272
50
269.5189742
51
312.3984629
0
ARC
8
DEFAULT_255_2_778
10
7.352015
20
38.4888691
40
0.2089583
50
227.7829254
51
270.2995015
0
ARC
8
DEFAULT_255_2_778
10
7.3315466
20
38.4662347
40
0.1784415
50
180.295729
51
227.7668835
0
ARC
8
DEFAULT_255_2_778
10
7.3333797
20
37.1645764
40
0.1802798
50
132.4901159
51
179.479636
0
ARC
8
DEFAULT_255_2_778
10
7.3512969
20
37.1446327
40
0.2070889
50
89.4991083
51
132.4183975
0
ARC
8
DEFAULT_255_2_778
10
8.9539442
20
37.1420913
40
0.209624
50
47.8537015
51
90.2287287
0
ARC
8
DEFAULT_255_2_778
10
8.9744534
20
37.1652975
40
0.1786564
50
0.2938316
51
47.7364175
0
ARC
8
DEFAULT_255_2_778
10
8.9732175
20
48.6742818
40
0.1798966
50
312.4366588
51
359.5005756
0
ARC
8
DEFAULT_255_2_778
10
8.9548855
20
48.6940969
40
0.2068909
50
269.5075542
51
312.4806149
0
ARC
8
DEFAULT_255_2_778
10
7.3521589
20
48.696259
40
0.2090474
50
227.7518404
51
270.2599333
0
ARC
8
DEFAULT_255_2_778
10
7.3313832
20
48.673562
40
0.1782779
50
180.2726176
51
227.7900516
0
ARC
8
DEFAULT_255_2_778
10
7.3329965
20
47.3720458
40
0.179896
50
132.4365509
51
179.5006131
0
ARC
8
DEFAULT_255_2_778
10
7.3512591
20
47.3524129
40
0.206709
50
89.4877106
51
132.500453
0
ARC
8
DEFAULT_255_2_778
10
8.9539842
20
47.3498823
40
0.2092333
50
47.7716251
51
90.2401208
0
ARC
8
DEFAULT_255_2_778
10
8.9748315
20
47.3727654
40
0.1782779
50
0.2726176
51
47.7900516
0
ARC
8
DEFAULT_255_2_778
10
8.9728341
20
28.2596513
40
0.1802806
50
312.4902399
51
359.4795536
0
ARC
8
DEFAULT_255_2_778
10
8.9548474
20
28.2797785
40
0.207272
50
269.5189742
51
312.3984629
0
ARC
8
DEFAULT_255_2_778
10
7.3521988
20
28.281949
40
0.2094373
50
227.8339016
51
270.2485345
0
ARC
8
DEFAULT_255_2_778
10
7.3317617
20
28.25893
40
0.1786567
50
180.2938587
51
227.7363399
0
ARC
8
DEFAULT_255_2_778
10
8.9732184
20
24.7303462
40
0.1798957
50
0.4992612
51
47.5634324
0
ARC
8
DEFAULT_255_2_778
10
8.9548472
20
24.7100489
40
0.2072721
50
47.6014919
51
90.4809681
0
ARC
8
DEFAULT_255_2_778
10
7.3520141
20
24.7083607
40
0.2089558
50
89.7002261
51
132.2173287
0
ARC
8
DEFAULT_255_2_778
10
7.3315468
20
24.7309925
40
0.1784418
50
132.2331331
51
179.7042245
0
ARC
8
DEFAULT_255_2_778
10
8.9732175
20
61.1088818
40
0.1798966
50
312.4366588
51
359.5005756
0
ARC
8
DEFAULT_255_2_778
10
8.9547045
20
61.1291682
40
0.2073607
50
269.5586844
51
312.4295637
0
ARC
8
DEFAULT_255_2_778
10
7.3521589
20
61.1308587
40
0.2090472
50
227.7518066
51
270.2599452
0
ARC
8
DEFAULT_255_2_778
10
7.3313832
20
61.108162
40
0.1782779
50
180.2726176
51
227.7900516
0
ARC
8
DEFAULT_255_2_778
10
7.3333797
20
57.5795764
40
0.1802798
50
132.4901159
51
179.479636
0
ARC
8
DEFAULT_255_2_778
10
7.3512972
20
57.5596322
40
0.2070894
50
89.4991921
51
132.4183687
0
ARC
8
DEFAULT_255_2_778
10
8.9539442
20
57.5570913
40
0.209624
50
47.8537015
51
90.2287287
0
ARC
8
DEFAULT_255_2_778
10
8.9744526
20
57.5802973
40
0.178657
50
0.2938946
51
47.7362829
0
ARC
8
DEFAULT_255_2_778
10
8.9539442
20
75.3272913
40
0.209624
50
47.8537015
51
90.2287287
0
ARC
8
DEFAULT_255_2_778
10
8.974453
20
75.3504974
40
0.1786567
50
0.2938587
51
47.7363399
0
ARC
8
DEFAULT_255_2_778
10
8.9732171
20
12.1598817
40
0.179897
50
312.436766
51
359.5005893
0
ARC
8
DEFAULT_255_2_778
10
8.9548469
20
12.1801785
40
0.2072723
50
269.5191172
51
312.3985736
0
ARC
8
DEFAULT_255_2_778
10
7.3521988
20
12.182349
40
0.2094373
50
227.8339016
51
270.2485345
0
ARC
8
DEFAULT_255_2_778
10
7.3315468
20
12.1592349
40
0.1784418
50
180.2957755
51
227.7668669
0
LINE
8
DEFAULT_255_2_778
10
7.3531073
20
68.9022137
11
8.9531073
21
68.9022137
0
LINE
8
DEFAULT_255_2_778
10
7.3531073
20
67.9741137
11
8.9531073
21
67.9741137
0
LINE
8
DEFAULT_255_2_778
10
7.3531073
20
16.9370137
11
8.9531073
21
16.9370137
0
LINE
8
DEFAULT_255_2_778
10
7.3531073
20
17.8651137
11
8.9531073
21
17.8651137
0
LINE
8
DEFAULT_255_2_778
10
8.9531073
20
38.2799137
11
7.3531073
21
38.2799137
0
LINE
8
DEFAULT_255_2_778
10
7.3531073
20
37.3517137
11
8.9531073
21
37.3517137
0
LINE
8
DEFAULT_255_2_778
10
8.9531073
20
48.4872137
11
7.3531073
21
48.4872137
0
LINE
8
DEFAULT_255_2_778
10
7.3531073
20
47.5591137
11
8.9531073
21
47.5591137
0
LINE
8
DEFAULT_255_2_778
10
8.9531073
20
28.0725137
11
7.3531073
21
28.0725137
0
LINE
8
DEFAULT_255_2_778
10
8.9531073
20
24.9173137
11
7.3531073
21
24.9173137
0
LINE
8
DEFAULT_255_2_778
10
8.9531073
20
60.9218137
11
7.3531073
21
60.9218137
0
LINE
8
DEFAULT_255_2_778
10
7.3531073
20
57.7667137
11
8.9531073
21
57.7667137
0
LINE
8
DEFAULT_255_2_778
10
9.1531073
20
75.3514137
11
9.1531073
21
12.1583137
0
LINE
8
DEFAULT_255_2_778
10
8.9531073
20
11.9729137
11
7.3531073
21
11.9729137
0
LINE
8
DEFAULT_255_2_778
10
7.1531073
20
12.1583137
11
7.1531073
21
75.5369137
0
LINE
8
DEFAULT_255_2_778
10
7.1531073
20
75.5369137
11
8.9531073
21
75.5369137
0
LINE
8
DEFAULT_255_2_778
10
9.0031073
20
28.0783137
11
9.0031073
21
37.3459137
0
LINE
8
DEFAULT_255_2_778
10
9.0031073
20
17.8707137
11
9.0031073
21
24.9113137
0
LINE
8
DEFAULT_255_2_778
10
9.0031073
20
11.9782137
11
9.0031073
21
16.9309137
0
LINE
8
DEFAULT_255_2_778
10
9.0031073
20
38.2854137
11
9.0031073
21
45.1463137
0
LINE
8
DEFAULT_255_2_778
10
9.0031073
20
45.1463137
11
7.1531073
21
45.1463137
0
ARC
8
DEFAULT_255_2_778
10
11.9730665
20
69.0892478
40
0.179947
50
312.4440515
51
359.525742
0
ARC
8
DEFAULT_255_2_778
10
11.9547468
20
69.1095239
40
0.2072729
50
269.5191555
51
312.3984655
0
ARC
8
DEFAULT_255_2_778
10
10.3520988
20
69.1116937
40
0.2094373
50
227.8339016
51
270.2485345
0
ARC
8
DEFAULT_255_2_778
10
10.3314983
20
69.0886019
40
0.178493
50
180.2707636
51
227.7594408
0
ARC
8
DEFAULT_255_2_778
10
11.9730669
20
67.7870691
40
0.1799466
50
0.4742
51
47.5560021
0
ARC
8
DEFAULT_255_2_778
10
11.9547468
20
67.7667928
40
0.2072729
50
47.6015345
51
90.4808445
0
ARC
8
DEFAULT_255_2_778
10
10.3520988
20
67.764623
40
0.2094373
50
89.7514655
51
132.1660984
0
ARC
8
DEFAULT_255_2_778
10
10.3314983
20
67.7877148
40
0.178493
50
132.2405592
51
179.7292364
0
ARC
8
DEFAULT_255_2_778
10
10.3328958
20
38.4669256
40
0.1798954
50
180.4991746
51
227.5634634
0
ARC
8
DEFAULT_255_2_778
10
10.3511591
20
38.4865588
40
0.2067088
50
227.4995011
51
270.5123057
0
ARC
8
DEFAULT_255_2_778
10
11.9538841
20
38.4890904
40
0.2092339
50
269.7599099
51
312.2282877
0
ARC
8
DEFAULT_255_2_778
10
11.9747315
20
38.4662066
40
0.1782779
50
312.2099484
51
359.7273824
0
ARC
8
DEFAULT_255_2_778
10
11.9731184
20
37.1646908
40
0.1798957
50
0.4992612
51
47.5634324
0
ARC
8
DEFAULT_255_2_778
10
11.9547855
20
37.1448751
40
0.2068909
50
47.5193851
51
90.4924458
0
ARC
8
DEFAULT_255_2_778
10
10.3520581
20
37.1427151
40
0.2090455
50
89.7398207
51
132.2483393
0
ARC
8
DEFAULT_255_2_778
10
10.3312832
20
37.1654101
40
0.1782779
50
132.2099484
51
179.7273824
0
ARC
8
DEFAULT_255_2_778
10
10.3332803
20
48.6743956
40
0.1802804
50
180.5203394
51
227.5097367
0
ARC
8
DEFAULT_255_2_778
10
10.3511971
20
48.6943391
40
0.2070888
50
227.5815183
51
270.5008479
0
ARC
8
DEFAULT_255_2_778
10
11.9538442
20
48.6968806
40
0.2096239
50
269.7712639
51
312.1463194
0
ARC
8
DEFAULT_255_2_778
10
11.9743526
20
48.6736748
40
0.178657
50
312.2637171
51
359.7061054
0
ARC
8
DEFAULT_255_2_778
10
11.9731183
20
47.3720907
40
0.1798959
50
0.4992895
51
47.5634223
0
ARC
8
DEFAULT_255_2_778
10
11.9547468
20
47.351793
40
0.2072727
50
47.6015004
51
90.4808566
0
ARC
8
DEFAULT_255_2_778
10
10.3519149
20
47.3501036
40
0.2089576
50
89.7004602
51
132.2171828
0
ARC
8
DEFAULT_255_2_778
10
10.3314462
20
47.3727374
40
0.1784412
50
132.2330388
51
179.7042981
0
ARC
8
DEFAULT_255_2_778
10
11.9727345
20
16.749621
40
0.1802802
50
0.5203885
51
47.5098137
0
ARC
8
DEFAULT_255_2_778
10
11.9547474
20
16.7294943
40
0.2072715
50
47.6013838
51
90.4810065
0
ARC
8
DEFAULT_255_2_778
10
10.3520988
20
16.727323
40
0.2094373
50
89.7514655
51
132.1660984
0
ARC
8
DEFAULT_255_2_778
10
10.3316614
20
16.7503421
40
0.1786565
50
132.263589
51
179.70615
0
ARC
8
DEFAULT_255_2_778
10
11.9731179
20
18.0519261
40
0.1798962
50
312.4366278
51
359.5006622
0
ARC
8
DEFAULT_255_2_778
10
11.9546046
20
18.0722123
40
0.2073603
50
269.5586582
51
312.4296377
0
ARC
8
DEFAULT_255_2_778
10
10.3520588
20
18.0739029
40
0.2090467
50
227.7517324
51
270.2599715
0
ARC
8
DEFAULT_255_2_778
10
10.3312832
20
18.0512066
40
0.1782779
50
180.2726176
51
227.7900516
0
ARC
8
DEFAULT_255_2_778
10
10.3328964
20
77.0662907
40
0.1798959
50
132.4365848
51
179.500708
0
ARC
8
DEFAULT_255_2_778
10
10.3511978
20
77.0461754
40
0.2070909
50
89.4993541
51
132.418218
0
ARC
8
DEFAULT_255_2_778
10
11.9538442
20
77.043636
40
0.209624
50
47.8537015
51
90.2287287
0
ARC
8
DEFAULT_255_2_778
10
11.9745682
20
77.0669373
40
0.1784415
50
0.2957395
51
47.7669239
0
ARC
8
DEFAULT_255_2_778
10
10.3332799
20
28.2593958
40
0.18028
50
180.5204089
51
227.509868
0
ARC
8
DEFAULT_255_2_778
10
10.3511968
20
28.2793386
40
0.2070882
50
227.5814894
51
270.5009318
0
ARC
8
DEFAULT_255_2_778
10
11.9538442
20
28.2818806
40
0.2096239
50
269.7712639
51
312.1463194
0
ARC
8
DEFAULT_255_2_778
10
11.9743533
20
28.2586746
40
0.1786565
50
312.263589
51
359.70615
0
ARC
8
DEFAULT_255_2_778
10
10.3328964
20
24.7300905
40
0.179896
50
132.4365442
51
179.5006318
0
ARC
8
DEFAULT_255_2_778
10
10.3513398
20
24.7099872
40
0.2071779
50
89.538832
51
132.4494149
0
ARC
8
DEFAULT_255_2_778
10
11.9538843
20
24.7079274
40
0.2092328
50
47.7715509
51
90.240147
0
ARC
8
DEFAULT_255_2_778
10
11.9747315
20
24.7308101
40
0.1782779
50
0.2726176
51
47.7900516
0
ARC
8
DEFAULT_255_2_778
10
11.9730665
20
8.7724478
40
0.179947
50
312.4440515
51
359.525742
0
ARC
8
DEFAULT_255_2_778
10
11.9547469
20
8.7927232
40
0.2072723
50
269.5191172
51
312.3985736
0
ARC
8
DEFAULT_255_2_778
10
10.3520988
20
8.7948937
40
0.2094373
50
227.8339016
51
270.2485345
0
ARC
8
DEFAULT_255_2_778
10
10.3314983
20
8.7718019
40
0.178493
50
180.2707636
51
227.7594408
0
ARC
8
DEFAULT_255_2_778
10
10.3328962
20
61.108626
40
0.1798958
50
180.4992826
51
227.5634422
0
ARC
8
DEFAULT_255_2_778
10
10.3511974
20
61.1287405
40
0.20709
50
227.5817072
51
270.500746
0
ARC
8
DEFAULT_255_2_778
10
11.9540287
20
61.1307988
40
0.2091429
50
269.72018
51
312.1974052
0
ARC
8
DEFAULT_255_2_778
10
11.9745681
20
61.1079794
40
0.1784415
50
312.2331165
51
359.704271
0
ARC
8
DEFAULT_255_2_778
10
10.3332797
20
57.5793211
40
0.1802798
50
132.4901159
51
179.479636
0
ARC
8
DEFAULT_255_2_778
10
10.3511969
20
57.5593773
40
0.2070889
50
89.4991083
51
132.4183975
0
ARC
8
DEFAULT_255_2_778
10
11.9538442
20
57.556836
40
0.209624
50
47.8537015
51
90.2287287
0
ARC
8
DEFAULT_255_2_778
10
11.974353
20
57.5800421
40
0.1786567
50
0.2938587
51
47.7363399
0
LINE
8
DEFAULT_255_2_778
10
12.1530073
20
82.3573583
11
10.1530073
21
82.3573583
0
LINE
8
DEFAULT_255_2_778
10
11.9530073
20
68.9022583
11
10.3530073
21
68.9022583
0
LINE
8
DEFAULT_255_2_778
10
11.9530073
20
67.9740583
11
10.3530073
21
67.9740583
0
LINE
8
DEFAULT_255_2_778
10
10.3530073
20
38.2798583
11
11.9530073
21
38.2798583
0
LINE
8
DEFAULT_255_2_778
10
11.9530073
20
37.3517583
11
10.3530073
21
37.3517583
0
LINE
8
DEFAULT_255_2_778
10
10.3530073
20
48.4872583
11
11.9530073
21
48.4872583
0
LINE
8
DEFAULT_255_2_778
10
11.9530073
20
47.5590583
11
10.3530073
21
47.5590583
0
LINE
8
DEFAULT_255_2_778
10
11.9530073
20
16.9367583
11
10.3530073
21
16.9367583
0
LINE
8
DEFAULT_255_2_778
10
11.9530073
20
17.8648583
11
10.3530073
21
17.8648583
0
LINE
8
DEFAULT_255_2_778
10
10.3530073
20
77.2532583
11
11.9530073
21
77.2532583
0
LINE
8
DEFAULT_255_2_778
10
10.3530073
20
28.0722583
11
11.9530073
21
28.0722583
0
LINE
8
DEFAULT_255_2_778
10
10.3530073
20
24.9171583
11
11.9530073
21
24.9171583
0
LINE
8
DEFAULT_255_2_778
10
11.9530073
20
8.5854583
11
10.3530073
21
8.5854583
0
LINE
8
DEFAULT_255_2_778
10
10.3530073
20
60.9216583
11
11.9530073
21
60.9216583
0
LINE
8
DEFAULT_255_2_778
10
10.3530073
20
57.7664583
11
11.9530073
21
57.7664583
0
ARC
8
DEFAULT_255_2_778
10
14.9732177
20
16.7499261
40
0.1798964
50
0.4993058
51
47.5633044
0
ARC
8
DEFAULT_255_2_778
10
14.9547043
20
16.7296386
40
0.2073614
50
47.5705443
51
90.4412773
0
ARC
8
DEFAULT_255_2_778
10
13.3521586
20
16.7279492
40
0.2090467
50
89.7399705
51
132.2482225
0
ARC
8
DEFAULT_255_2_778
10
13.3313832
20
16.7506455
40
0.1782779
50
132.2099484
51
179.7273824
0
ARC
8
DEFAULT_255_2_778
10
14.9732179
20
18.0521616
40
0.1798962
50
312.4366278
51
359.5006622
0
ARC
8
DEFAULT_255_2_778
10
14.9548855
20
18.071977
40
0.2068909
50
269.5075542
51
312.4806149
0
ARC
8
DEFAULT_255_2_778
10
13.3521585
20
18.0741383
40
0.2090467
50
227.7517978
51
270.2600569
0
ARC
8
DEFAULT_255_2_778
10
13.3313832
20
18.051442
40
0.1782779
50
180.2726176
51
227.7900516
0
ARC
8
DEFAULT_255_2_778
10
13.3329962
20
48.6744613
40
0.1798957
50
180.4992612
51
227.5634324
0
ARC
8
DEFAULT_255_2_778
10
13.3512974
20
48.6945759
40
0.20709
50
227.5817072
51
270.500746
0
ARC
8
DEFAULT_255_2_778
10
14.9541283
20
48.6966352
40
0.2091439
50
269.7202906
51
312.1973018
0
ARC
8
DEFAULT_255_2_778
10
14.9746681
20
48.6738148
40
0.1784415
50
312.2331165
51
359.704271
0
ARC
8
DEFAULT_255_2_778
10
14.9728345
20
47.3721564
40
0.1802802
50
0.5203885
51
47.5098137
0
ARC
8
DEFAULT_255_2_778
10
14.9548472
20
47.3520294
40
0.2072717
50
47.6013975
51
90.4809667
0
ARC
8
DEFAULT_255_2_778
10
13.3521988
20
47.3498584
40
0.2094373
50
89.7514655
51
132.1660984
0
ARC
8
DEFAULT_255_2_778
10
13.3317617
20
47.3728775
40
0.1786567
50
132.2636601
51
179.7061413
0
ARC
8
DEFAULT_255_2_778
10
13.3333805
20
38.4672313
40
0.1802806
50
180.5204464
51
227.5097601
0
ARC
8
DEFAULT_255_2_778
10
13.351297
20
38.4871753
40
0.2070893
50
227.5816716
51
270.5008672
0
ARC
8
DEFAULT_255_2_778
10
14.9539442
20
38.489716
40
0.2096239
50
269.7712639
51
312.1463194
0
ARC
8
DEFAULT_255_2_778
10
14.9744531
20
38.46651
40
0.1786565
50
312.2636294
51
359.7061605
0
ARC
8
DEFAULT_255_2_778
10
14.9732184
20
37.1649262
40
0.1798957
50
0.4992612
51
47.5634324
0
ARC
8
DEFAULT_255_2_778
10
14.9548477
20
37.1446302
40
0.2072709
50
47.6013549
51
90.4810903
0
ARC
8
DEFAULT_255_2_778
10
13.352015
20
37.1429383
40
0.2089583
50
89.7004985
51
132.2170746
0
ARC
8
DEFAULT_255_2_778
10
13.3315459
20
37.1655729
40
0.178441
50
132.2329883
51
179.7043157
0
ARC
8
DEFAULT_255_2_778
10
14.973218
20
69.0894615
40
0.1798961
50
312.4366212
51
359.5006808
0
ARC
8
DEFAULT_255_2_778
10
14.954705
20
69.109747
40
0.2073595
50
269.5585346
51
312.4296803
0
ARC
8
DEFAULT_255_2_778
10
13.3521589
20
69.111439
40
0.2090474
50
227.7518404
51
270.2599333
0
ARC
8
DEFAULT_255_2_778
10
13.3313832
20
69.088742
40
0.1782779
50
180.2726176
51
227.7900516
0
ARC
8
DEFAULT_255_2_778
10
14.9732183
20
67.7872261
40
0.1798959
50
0.4992895
51
47.5634223
0
ARC
8
DEFAULT_255_2_778
10
14.9548855
20
67.7674105
40
0.2068909
50
47.5193851
51
90.4924458
0
ARC
8
DEFAULT_255_2_778
10
13.3521589
20
67.7652485
40
0.2090474
50
89.7400667
51
132.2481596
0
ARC
8
DEFAULT_255_2_778
10
13.3313832
20
67.7879455
40
0.1782779
50
132.2099484
51
179.7273824
0
ARC
8
DEFAULT_255_2_778
10
13.3329971
20
8.7729613
40
0.1798966
50
180.4992568
51
227.5632274
0
ARC
8
DEFAULT_255_2_778
10
13.3512591
20
8.7925942
40
0.2067088
50
227.4995011
51
270.5123057
0
ARC
8
DEFAULT_255_2_778
10
14.9539848
20
8.7951246
40
0.2092327
50
269.759702
51
312.2283595
0
ARC
8
DEFAULT_255_2_778
10
14.9748315
20
8.772242
40
0.1782779
50
312.2099484
51
359.7273824
0
ARC
8
DEFAULT_255_2_778
10
13.3329964
20
24.7305259
40
0.179896
50
132.4365442
51
179.5006318
0
ARC
8
DEFAULT_255_2_778
10
13.3512591
20
24.710893
40
0.206709
50
89.4877106
51
132.500453
0
ARC
8
DEFAULT_255_2_778
10
14.953985
20
24.7083641
40
0.2092316
50
47.7714792
51
90.240355
0
ARC
8
DEFAULT_255_2_778
10
14.9748315
20
24.7312455
40
0.1782779
50
0.2726176
51
47.7900516
0
ARC
8
DEFAULT_255_2_778
10
13.3329958
20
28.259761
40
0.1798954
50
180.4991746
51
227.5634634
0
ARC
8
DEFAULT_255_2_778
10
13.3514394
20
28.2798646
40
0.2071775
50
227.5506046
51
270.4612695
0
ARC
8
DEFAULT_255_2_778
10
14.9539851
20
28.2819233
40
0.2092314
50
269.7596376
51
312.2285417
0
ARC
8
DEFAULT_255_2_778
10
14.9748315
20
28.259042
40
0.1782779
50
312.2099484
51
359.7273824
0
ARC
8
DEFAULT_255_2_778
10
13.3329964
20
61.1088614
40
0.1798959
50
180.4992895
51
227.5634223
0
ARC
8
DEFAULT_255_2_778
10
13.3512591
20
61.1284942
40
0.2067088
50
227.4995011
51
270.5123057
0
ARC
8
DEFAULT_255_2_778
10
14.9539842
20
61.1310253
40
0.2092334
50
269.7598837
51
312.2283619
0
ARC
8
DEFAULT_255_2_778
10
14.9748315
20
61.108142
40
0.1782779
50
312.2099484
51
359.7273824
0
ARC
8
DEFAULT_255_2_778
10
14.9732183
20
57.5796261
40
0.1798959
50
0.4992895
51
47.5634223
0
ARC
8
DEFAULT_255_2_778
10
14.954705
20
57.5593405
40
0.2073595
50
47.5703197
51
90.4414654
0
ARC
8
DEFAULT_255_2_778
10
13.3521589
20
57.5576485
40
0.2090474
50
89.7400667
51
132.2481596
0
ARC
8
DEFAULT_255_2_778
10
13.3313832
20
57.5803455
40
0.1782779
50
132.2099484
51
179.7273824
0
ARC
8
DEFAULT_255_2_778
10
13.332996
20
77.0664262
40
0.1798955
50
132.4365073
51
179.500735
0
ARC
8
DEFAULT_255_2_778
10
13.3512592
20
77.0467925
40
0.2067094
50
89.4877344
51
132.5003858
0
ARC
8
DEFAULT_255_2_778
10
14.9539843
20
77.0442628
40
0.2092328
50
47.7715509
51
90.240147
0
ARC
8
DEFAULT_255_2_778
10
14.9748315
20
77.0671455
40
0.1782779
50
0.2726176
51
47.7900516
0
LINE
8
DEFAULT_255_2_778
10
15.1531073
20
82.3572938
11
13.1531073
21
82.3572938
0
LINE
8
DEFAULT_255_2_778
10
14.9531073
20
16.9369938
11
13.3531073
21
16.9369938
0
LINE
8
DEFAULT_255_2_778
10
14.9531073
20
17.8650938
11
13.3531073
21
17.8650938
0
LINE
8
DEFAULT_255_2_778
10
13.3531073
20
48.4874938
11
14.9531073
21
48.4874938
0
LINE
8
DEFAULT_255_2_778
10
14.9531073
20
47.5592938
11
13.3531073
21
47.5592938
0
LINE
8
DEFAULT_255_2_778
10
13.3531073
20
38.2800938
11
14.9531073
21
38.2800938
0
LINE
8
DEFAULT_255_2_778
10
14.9531073
20
37.3518938
11
13.3531073
21
37.3518938
0
LINE
8
DEFAULT_255_2_778
10
14.9531073
20
68.9023938
11
13.3531073
21
68.9023938
0
LINE
8
DEFAULT_255_2_778
10
14.9531073
20
67.9742938
11
13.3531073
21
67.9742938
0
LINE
8
DEFAULT_255_2_778
10
13.3531073
20
8.5858938
11
14.9531073
21
8.5858938
0
LINE
8
DEFAULT_255_2_778
10
13.3531073
20
24.9175938
11
14.9531073
21
24.9175938
0
LINE
8
DEFAULT_255_2_778
10
13.3531073
20
28.0726938
11
14.9531073
21
28.0726938
0
LINE
8
DEFAULT_255_2_778
10
13.3531073
20
60.9217938
11
14.9531073
21
60.9217938
0
LINE
8
DEFAULT_255_2_778
10
14.9531073
20
57.7666938
11
13.3531073
21
57.7666938
0
LINE
8
DEFAULT_255_2_778
10
13.3531073
20
77.2534938
11
14.9531073
21
77.2534938
0
ARC
8
DEFAULT_255_2_778
10
17.9729665
20
69.0892217
40
0.179947
50
312.4440515
51
359.525742
0
ARC
8
DEFAULT_255_2_778
10
17.9546474
20
69.1094963
40
0.2072715
50
269.5189935
51
312.3986162
0
ARC
8
DEFAULT_255_2_778
10
16.3519988
20
69.1116676
40
0.2094373
50
227.8339016
51
270.2485345
0
ARC
8
DEFAULT_255_2_778
10
16.3313983
20
69.0885757
40
0.178493
50
180.2707636
51
227.7594408
0
ARC
8
DEFAULT_255_2_778
10
17.9729669
20
67.787043
40
0.1799466
50
0.4742
51
47.5560021
0
ARC
8
DEFAULT_255_2_778
10
17.9546469
20
67.7667674
40
0.2072723
50
47.6014264
51
90.4808828
0
ARC
8
DEFAULT_255_2_778
10
16.3519988
20
67.7645969
40
0.2094373
50
89.7514655
51
132.1660984
0
ARC
8
DEFAULT_255_2_778
10
16.3313983
20
67.7876887
40
0.178493
50
132.2405592
51
179.7292364
0
ARC
8
DEFAULT_255_2_778
10
16.3327959
20
38.4668996
40
0.1798954
50
180.4991933
51
227.5634568
0
ARC
8
DEFAULT_255_2_778
10
16.3510591
20
38.4865327
40
0.2067088
50
227.4995011
51
270.5123057
0
ARC
8
DEFAULT_255_2_778
10
17.9537841
20
38.4890643
40
0.2092339
50
269.7599099
51
312.2282877
0
ARC
8
DEFAULT_255_2_778
10
17.9746315
20
38.4661805
40
0.1782779
50
312.2099484
51
359.7273824
0
ARC
8
DEFAULT_255_2_778
10
17.9730183
20
37.1646646
40
0.1798958
50
0.4992798
51
47.5634258
0
ARC
8
DEFAULT_255_2_778
10
17.9546855
20
37.144849
40
0.2068909
50
47.5193851
51
90.4924458
0
ARC
8
DEFAULT_255_2_778
10
16.3519584
20
37.1426879
40
0.2090465
50
89.7399311
51
132.2482361
0
ARC
8
DEFAULT_255_2_778
10
16.3311832
20
37.165384
40
0.1782779
50
132.2099484
51
179.7273824
0
ARC
8
DEFAULT_255_2_778
10
17.9730177
20
16.7499645
40
0.1798964
50
0.4993058
51
47.5633044
0
ARC
8
DEFAULT_255_2_778
10
17.9545043
20
16.729677
40
0.2073614
50
47.5705443
51
90.4412773
0
ARC
8
DEFAULT_255_2_778
10
16.3519586
20
16.7279877
40
0.2090467
50
89.7399705
51
132.2482225
0
ARC
8
DEFAULT_255_2_778
10
16.3311832
20
16.750684
40
0.1782779
50
132.2099484
51
179.7273824
0
ARC
8
DEFAULT_255_2_778
10
17.9730179
20
18.0522
40
0.1798962
50
312.4366278
51
359.5006622
0
ARC
8
DEFAULT_255_2_778
10
17.9546855
20
18.0720155
40
0.2068909
50
269.5075542
51
312.4806149
0
ARC
8
DEFAULT_255_2_778
10
16.3519585
20
18.0741768
40
0.2090467
50
227.7517978
51
270.2600569
0
ARC
8
DEFAULT_255_2_778
10
16.3311832
20
18.0514805
40
0.1782779
50
180.2726176
51
227.7900516
0
ARC
8
DEFAULT_255_2_778
10
16.3327962
20
48.6744999
40
0.1798958
50
180.4992826
51
227.5634422
0
ARC
8
DEFAULT_255_2_778
10
16.3510978
20
48.6946154
40
0.207091
50
227.5818102
51
270.5006359
0
ARC
8
DEFAULT_255_2_778
10
17.9539283
20
48.6966736
40
0.2091439
50
269.7202906
51
312.1973018
0
ARC
8
DEFAULT_255_2_778
10
17.9744681
20
48.6738532
40
0.1784415
50
312.2331165
51
359.704271
0
ARC
8
DEFAULT_255_2_778
10
17.9726345
20
47.3721949
40
0.1802802
50
0.5203885
51
47.5098137
0
ARC
8
DEFAULT_255_2_778
10
17.9546468
20
47.3520669
40
0.2072727
50
47.6015004
51
90.4808566
0
ARC
8
DEFAULT_255_2_778
10
16.3519988
20
47.3498969
40
0.2094373
50
89.7514655
51
132.1660984
0
ARC
8
DEFAULT_255_2_778
10
16.3315617
20
47.3729159
40
0.1786567
50
132.2636601
51
179.7061413
0
ARC
8
DEFAULT_255_2_778
10
17.9730183
20
57.5796646
40
0.1798959
50
0.4992895
51
47.5634223
0
ARC
8
DEFAULT_255_2_778
10
17.9545044
20
57.5593775
40
0.2073609
50
47.5704704
51
90.4413035
0
ARC
8
DEFAULT_255_2_778
10
16.3519584
20
57.5576884
40
0.2090459
50
89.7399049
51
132.2483103
0
ARC
8
DEFAULT_255_2_778
10
16.3311832
20
57.580384
40
0.1782779
50
132.2099484
51
179.7273824
0
ARC
8
DEFAULT_255_2_778
10
16.3327964
20
61.1088999
40
0.1798959
50
180.4992895
51
227.5634223
0
ARC
8
DEFAULT_255_2_778
10
16.3510591
20
61.1285327
40
0.2067088
50
227.4995011
51
270.5123057
0
ARC
8
DEFAULT_255_2_778
10
17.9537848
20
61.1310623
40
0.2092319
50
269.7597219
51
312.2285126
0
ARC
8
DEFAULT_255_2_778
10
17.9746315
20
61.1081805
40
0.1782779
50
312.2099484
51
359.7273824
0
ARC
8
DEFAULT_255_2_778
10
16.3327961
20
8.7726999
40
0.1798956
50
180.4992836
51
227.5634861
0
ARC
8
DEFAULT_255_2_778
10
16.3512389
20
8.7928014
40
0.2071759
50
227.5504006
51
270.4614155
0
ARC
8
DEFAULT_255_2_778
10
17.9537848
20
8.7948631
40
0.2092327
50
269.759702
51
312.2283595
0
ARC
8
DEFAULT_255_2_778
10
17.9746315
20
8.7719805
40
0.1782779
50
312.2099484
51
359.7273824
0
ARC
8
DEFAULT_255_2_778
10
16.3328479
20
24.7303426
40
0.1799468
50
132.4439745
51
179.5256931
0
ARC
8
DEFAULT_255_2_778
10
16.3510969
20
24.7102512
40
0.2070889
50
89.4991083
51
132.4183975
0
ARC
8
DEFAULT_255_2_778
10
17.9537442
20
24.7077099
40
0.209624
50
47.8537015
51
90.2287287
0
ARC
8
DEFAULT_255_2_778
10
17.9744163
20
24.7309887
40
0.178493
50
0.2707636
51
47.7594408
0
ARC
8
DEFAULT_255_2_778
10
16.3327958
20
28.2594995
40
0.1798954
50
180.4991746
51
227.5634634
0
ARC
8
DEFAULT_255_2_778
10
16.3510969
20
28.2796132
40
0.2070888
50
227.5815976
51
270.5008934
0
ARC
8
DEFAULT_255_2_778
10
17.9537442
20
28.2821544
40
0.2096239
50
269.7712639
51
312.1463194
0
ARC
8
DEFAULT_255_2_778
10
17.9744684
20
28.2588532
40
0.1784413
50
312.2330454
51
359.7042797
0
ARC
8
DEFAULT_255_2_778
10
16.3327964
20
77.0664644
40
0.179896
50
132.4365442
51
179.5006318
0
ARC
8
DEFAULT_255_2_778
10
16.3510592
20
77.046831
40
0.2067094
50
89.4877344
51
132.5003858
0
ARC
8
DEFAULT_255_2_778
10
17.9537841
20
77.0443001
40
0.209234
50
47.7717332
51
90.2400827
0
ARC
8
DEFAULT_255_2_778
10
17.9746315
20
77.067184
40
0.1782779
50
0.2726176
51
47.7900516
0
LINE
8
DEFAULT_255_2_778
10
18.1529073
20
82.3573322
11
16.1529073
21
82.3573322
0
LINE
8
DEFAULT_255_2_778
10
16.1529073
20
3.4818322
11
18.1529073
21
3.4818322
0
LINE
8
DEFAULT_255_2_778
10
17.9529073
20
68.9022322
11
16.3529073
21
68.9022322
0
LINE
8
DEFAULT_255_2_778
10
17.9529073
20
67.9740322
11
16.3529073
21
67.9740322
0
LINE
8
DEFAULT_255_2_778
10
16.3529073
20
38.2798322
11
17.9529073
21
38.2798322
0
LINE
8
DEFAULT_255_2_778
10
17.9529073
20
37.3517322
11
16.3529073
21
37.3517322
0
LINE
8
DEFAULT_255_2_778
10
17.9529073
20
16.9370322
11
16.3529073
21
16.9370322
0
LINE
8
DEFAULT_255_2_778
10
17.9529073
20
17.8651322
11
16.3529073
21
17.8651322
0
LINE
8
DEFAULT_255_2_778
10
16.3529073
20
48.4875322
11
17.9529073
21
48.4875322
0
LINE
8
DEFAULT_255_2_778
10
17.9529073
20
47.5593322
11
16.3529073
21
47.5593322
0
LINE
8
DEFAULT_255_2_778
10
17.9529073
20
57.7667322
11
16.3529073
21
57.7667322
0
LINE
8
DEFAULT_255_2_778
10
16.3529073
20
60.9218322
11
17.9529073
21
60.9218322
0
LINE
8
DEFAULT_255_2_778
10
16.3529073
20
8.5856322
11
17.9529073
21
8.5856322
0
LINE
8
DEFAULT_255_2_778
10
16.3529073
20
24.9173322
11
17.9529073
21
24.9173322
0
LINE
8
DEFAULT_255_2_778
10
16.3529073
20
28.0725322
11
17.9529073
21
28.0725322
0
LINE
8
DEFAULT_255_2_778
10
16.3529073
20
77.2535322
11
17.9529073
21
77.2535322
0
ARC
8
DEFAULT_255_2_778
10
20.9727341
20
69.0890636
40
0.1802806
50
312.4902399
51
359.4795536
0
ARC
8
DEFAULT_255_2_778
10
20.9547469
20
69.1091909
40
0.2072723
50
269.5191172
51
312.3985736
0
ARC
8
DEFAULT_255_2_778
10
19.3520988
20
69.1113614
40
0.2094373
50
227.8339016
51
270.2485345
0
ARC
8
DEFAULT_255_2_778
10
19.3316614
20
69.0883422
40
0.1786564
50
180.2938212
51
227.7363771
0
ARC
8
DEFAULT_255_2_778
10
20.9731184
20
67.7867585
40
0.1798957
50
0.4992612
51
47.5634324
0
ARC
8
DEFAULT_255_2_778
10
20.9547468
20
67.7664605
40
0.2072729
50
47.6015345
51
90.4808445
0
ARC
8
DEFAULT_255_2_778
10
19.3519147
20
67.7647711
40
0.2089578
50
89.7004142
51
132.2171037
0
ARC
8
DEFAULT_255_2_778
10
19.3314464
20
67.787405
40
0.1784415
50
132.2330761
51
179.7042605
0
ARC
8
DEFAULT_255_2_778
10
20.9731183
20
37.1643584
40
0.1798959
50
0.4992895
51
47.5634223
0
ARC
8
DEFAULT_255_2_778
10
20.9547855
20
37.1445428
40
0.2068909
50
47.5193851
51
90.4924458
0
ARC
8
DEFAULT_255_2_778
10
19.3520586
20
37.1423813
40
0.2090469
50
89.7399825
51
132.2481886
0
ARC
8
DEFAULT_255_2_778
10
19.3312832
20
37.1650778
40
0.1782779
50
132.2099484
51
179.7273824
0
ARC
8
DEFAULT_255_2_778
10
19.3328964
20
38.4665937
40
0.1798959
50
180.4992895
51
227.5634223
0
ARC
8
DEFAULT_255_2_778
10
19.3513396
20
38.4866971
40
0.2071777
50
227.5506183
51
270.4612298
0
ARC
8
DEFAULT_255_2_778
10
20.9538841
20
38.4887581
40
0.2092339
50
269.7599099
51
312.2282877
0
ARC
8
DEFAULT_255_2_778
10
20.9747315
20
38.4658743
40
0.1782779
50
312.2099484
51
359.7273824
0
ARC
8
DEFAULT_255_2_778
10
20.9731184
20
47.3717585
40
0.1798957
50
0.4992612
51
47.5634324
0
ARC
8
DEFAULT_255_2_778
10
20.9547471
20
47.351461
40
0.2072724
50
47.6015056
51
90.4809284
0
ARC
8
DEFAULT_255_2_778
10
19.3519146
20
47.3497716
40
0.2089573
50
89.700388
51
132.2171779
0
ARC
8
DEFAULT_255_2_778
10
19.3314466
20
47.372405
40
0.1784416
50
132.2331231
51
179.7042526
0
ARC
8
DEFAULT_255_2_778
10
19.3332799
20
48.6740635
40
0.18028
50
180.5204089
51
227.509868
0
ARC
8
DEFAULT_255_2_778
10
19.3511972
20
48.694007
40
0.207089
50
227.581532
51
270.5008082
0
ARC
8
DEFAULT_255_2_778
10
20.9538442
20
48.6965483
40
0.2096239
50
269.7712639
51
312.1463194
0
ARC
8
DEFAULT_255_2_778
10
20.9743531
20
48.6733423
40
0.1786566
50
312.2636501
51
359.7061694
0
ARC
8
DEFAULT_255_2_778
10
20.9727345
20
16.7492887
40
0.1802802
50
0.5203885
51
47.5098137
0
ARC
8
DEFAULT_255_2_778
10
20.9547477
20
16.7291624
40
0.2072709
50
47.6013549
51
90.4810903
0
ARC
8
DEFAULT_255_2_778
10
19.3520988
20
16.7269907
40
0.2094373
50
89.7514655
51
132.1660984
0
ARC
8
DEFAULT_255_2_778
10
19.3316614
20
16.7500098
40
0.1786565
50
132.263589
51
179.70615
0
ARC
8
DEFAULT_255_2_778
10
20.9731175
20
18.0515939
40
0.1798966
50
312.4367053
51
359.5006352
0
ARC
8
DEFAULT_255_2_778
10
20.9547474
20
18.0718909
40
0.207272
50
269.5189742
51
312.3984629
0
ARC
8
DEFAULT_255_2_778
10
19.3519143
20
18.0735803
40
0.2089571
50
227.7828537
51
270.2997095
0
ARC
8
DEFAULT_255_2_778
10
19.3314468
20
18.0509472
40
0.1784418
50
180.2957755
51
227.7668669
0
ARC
8
DEFAULT_255_2_778
10
19.3328968
20
77.0659581
40
0.1798963
50
132.4366014
51
179.5005956
0
ARC
8
DEFAULT_255_2_778
10
19.3511975
20
77.0458438
40
0.2070901
50
89.4992582
51
132.4182809
0
ARC
8
DEFAULT_255_2_778
10
20.9540286
20
77.043785
40
0.2091435
50
47.80269
51
90.2797864
0
ARC
8
DEFAULT_255_2_778
10
20.9745687
20
77.0666052
40
0.178441
50
0.2956843
51
47.7670117
0
ARC
8
DEFAULT_255_2_778
10
19.332896
20
61.1082936
40
0.1798955
50
180.499265
51
227.5634927
0
ARC
8
DEFAULT_255_2_778
10
19.3511972
20
61.128407
40
0.207089
50
227.581532
51
270.5008082
0
ARC
8
DEFAULT_255_2_778
10
20.9540284
20
61.130467
40
0.2091434
50
269.7202643
51
312.1973761
0
ARC
8
DEFAULT_255_2_778
10
20.9745682
20
61.1076471
40
0.1784415
50
312.2330761
51
359.7042605
0
ARC
8
DEFAULT_255_2_778
10
20.9727345
20
57.5789887
40
0.1802802
50
0.5203885
51
47.5098137
0
ARC
8
DEFAULT_255_2_778
10
20.9547468
20
57.5588608
40
0.2072727
50
47.6015004
51
90.4808566
0
ARC
8
DEFAULT_255_2_778
10
19.3520988
20
57.5566907
40
0.2094373
50
89.7514655
51
132.1660984
0
ARC
8
DEFAULT_255_2_778
10
19.3316619
20
57.5797097
40
0.1786569
50
132.2637071
51
179.7061334
0
ARC
8
DEFAULT_255_2_778
10
19.3328958
20
28.2589933
40
0.1798954
50
180.4991746
51
227.5634634
0
ARC
8
DEFAULT_255_2_778
10
19.3511591
20
28.2786265
40
0.2067088
50
227.4995011
51
270.5123057
0
ARC
8
DEFAULT_255_2_778
10
20.9538851
20
28.2811556
40
0.2092314
50
269.7596376
51
312.2285417
0
ARC
8
DEFAULT_255_2_778
10
20.9747315
20
28.2582743
40
0.1782779
50
312.2099484
51
359.7273824
0
ARC
8
DEFAULT_255_2_778
10
19.332897
20
24.729758
40
0.1798965
50
132.4366318
51
179.5005765
0
ARC
8
DEFAULT_255_2_778
10
19.3511592
20
24.7101248
40
0.2067094
50
89.4877344
51
132.5003858
0
ARC
8
DEFAULT_255_2_778
10
20.9538843
20
24.7075951
40
0.2092328
50
47.7715509
51
90.240147
0
ARC
8
DEFAULT_255_2_778
10
20.9747315
20
24.7304778
40
0.1782779
50
0.2726176
51
47.7900516
0
ARC
8
DEFAULT_255_2_778
10
19.3332803
20
8.7722633
40
0.1802804
50
180.5203394
51
227.5097367
0
ARC
8
DEFAULT_255_2_778
10
19.351197
20
8.7922075
40
0.2070893
50
227.5816716
51
270.5008672
0
ARC
8
DEFAULT_255_2_778
10
20.9538442
20
8.7947483
40
0.2096239
50
269.7712639
51
312.1463194
0
ARC
8
DEFAULT_255_2_778
10
20.9743533
20
8.7715423
40
0.1786565
50
312.263589
51
359.70615
0
ARC
8
DEFAULT_255_2_778
10
20.7925832
20
76.8933389
40
0.2898968
50
182.2364705
51
272.0409086
0
LINE
8
DEFAULT_255_2_778
10
19.1530073
20
3.4815261
11
21.1530073
21
3.4815261
0
LINE
8
DEFAULT_255_2_778
10
20.9530073
20
68.9019261
11
19.3530073
21
68.9019261
0
LINE
8
DEFAULT_255_2_778
10
20.9530073
20
67.9737261
11
19.3530073
21
67.9737261
0
LINE
8
DEFAULT_255_2_778
10
20.9530073
20
37.3514261
11
19.3530073
21
37.3514261
0
LINE
8
DEFAULT_255_2_778
10
19.3530073
20
38.2795261
11
20.9530073
21
38.2795261
0
LINE
8
DEFAULT_255_2_778
10
20.9530073
20
47.5587261
11
19.3530073
21
47.5587261
0
LINE
8
DEFAULT_255_2_778
10
19.3530073
20
48.4869261
11
20.9530073
21
48.4869261
0
LINE
8
DEFAULT_255_2_778
10
20.9530073
20
16.9364261
11
19.3530073
21
16.9364261
0
LINE
8
DEFAULT_255_2_778
10
20.9530073
20
17.8646261
11
19.3530073
21
17.8646261
0
LINE
8
DEFAULT_255_2_778
10
19.3530073
20
77.2529261
11
20.9530073
21
77.2529261
0
LINE
8
DEFAULT_255_2_778
10
19.3530073
20
60.9213261
11
20.9530073
21
60.9213261
0
LINE
8
DEFAULT_255_2_778
10
20.9530073
20
57.7661261
11
19.3530073
21
57.7661261
0
LINE
8
DEFAULT_255_2_778
10
19.3530073
20
28.0719261
11
20.9530073
21
28.0719261
0
LINE
8
DEFAULT_255_2_778
10
19.3530073
20
24.9168261
11
20.9530073
21
24.9168261
0
LINE
8
DEFAULT_255_2_778
10
19.3530073
20
8.5851261
11
20.9530073
21
8.5851261
0
LINE
8
DEFAULT_255_2_778
10
21.1530073
20
76.6036261
11
20.8029073
21
76.6036261
0
LINE
8
DEFAULT_255_2_778
10
20.5029073
20
76.8820261
11
20.5029073
21
77.2532261
0
ARC
8
DEFAULT_255_2_778
10
22.3331479
20
47.3720242
40
0.1799468
50
132.4439745
51
179.5256931
0
ARC
8
DEFAULT_255_2_778
10
22.3513969
20
47.3519328
40
0.2070889
50
89.4991083
51
132.4183975
0
ARC
8
DEFAULT_255_2_778
10
23.9540442
20
47.3493914
40
0.209624
50
47.8537015
51
90.2287287
0
ARC
8
DEFAULT_255_2_778
10
23.9747163
20
47.3726703
40
0.178493
50
0.2707636
51
47.7594408
0
ARC
8
DEFAULT_255_2_778
10
23.9732665
20
48.6742033
40
0.179947
50
312.4440515
51
359.525742
0
ARC
8
DEFAULT_255_2_778
10
23.9549474
20
48.6944779
40
0.2072715
50
269.5189935
51
312.3986162
0
ARC
8
DEFAULT_255_2_778
10
22.3522988
20
48.6966491
40
0.2094373
50
227.8339016
51
270.2485345
0
ARC
8
DEFAULT_255_2_778
10
22.3316983
20
48.6735573
40
0.178493
50
180.2707636
51
227.7594408
0
ARC
8
DEFAULT_255_2_778
10
22.3330964
20
67.7867459
40
0.179896
50
132.4365442
51
179.5006318
0
ARC
8
DEFAULT_255_2_778
10
22.3513972
20
67.7666323
40
0.2070894
50
89.4991921
51
132.4183687
0
ARC
8
DEFAULT_255_2_778
10
23.9542284
20
67.7645728
40
0.2091435
50
47.8026448
51
90.2797283
0
ARC
8
DEFAULT_255_2_778
10
23.974768
20
67.7873927
40
0.1784416
50
0.2957474
51
47.7668769
0
ARC
8
DEFAULT_255_2_778
10
22.3334803
20
69.0890513
40
0.1802804
50
180.5204333
51
227.5097976
0
ARC
8
DEFAULT_255_2_778
10
22.3513971
20
69.1089945
40
0.2070888
50
227.5815183
51
270.5008479
0
ARC
8
DEFAULT_255_2_778
10
23.9540442
20
69.111536
40
0.2096239
50
269.7712639
51
312.1463194
0
ARC
8
DEFAULT_255_2_778
10
23.9745531
20
69.08833
40
0.1786565
50
312.2636294
51
359.7061605
0
ARC
8
DEFAULT_255_2_778
10
22.3330973
20
16.7496456
40
0.1798968
50
132.436689
51
179.5005403
0
ARC
8
DEFAULT_255_2_778
10
22.3513592
20
16.7300126
40
0.2067094
50
89.4877344
51
132.5003858
0
ARC
8
DEFAULT_255_2_778
10
23.9540843
20
16.7274829
40
0.2092328
50
47.7715509
51
90.240147
0
ARC
8
DEFAULT_255_2_778
10
23.9749315
20
16.7503655
40
0.1782779
50
0.2726176
51
47.7900516
0
ARC
8
DEFAULT_255_2_778
10
22.3330967
20
18.0518814
40
0.1798962
50
180.4992661
51
227.5633186
0
ARC
8
DEFAULT_255_2_778
10
22.3513591
20
18.0715143
40
0.2067088
50
227.4995011
51
270.5123057
0
ARC
8
DEFAULT_255_2_778
10
23.9540848
20
18.0740446
40
0.2092327
50
269.759702
51
312.2283595
0
ARC
8
DEFAULT_255_2_778
10
23.9749315
20
18.0511621
40
0.1782779
50
312.2099484
51
359.7273824
0
ARC
8
DEFAULT_255_2_778
10
23.973318
20
38.4665815
40
0.1798961
50
312.4366212
51
359.5006808
0
ARC
8
DEFAULT_255_2_778
10
23.9549476
20
38.4868779
40
0.2072713
50
269.5189359
51
312.3985711
0
ARC
8
DEFAULT_255_2_778
10
22.3521143
20
38.488568
40
0.2089571
50
227.7828537
51
270.2997095
0
ARC
8
DEFAULT_255_2_778
10
22.3316464
20
38.4659348
40
0.1784415
50
180.2957395
51
227.7669239
0
ARC
8
DEFAULT_255_2_778
10
23.9540442
20
37.1417914
40
0.209624
50
47.8537015
51
90.2287287
0
ARC
8
DEFAULT_255_2_778
10
23.9745533
20
37.1649975
40
0.1786565
50
0.29385
51
47.736411
0
ARC
8
DEFAULT_255_2_778
10
23.9733179
20
61.1085816
40
0.1798963
50
312.4366313
51
359.5006525
0
ARC
8
DEFAULT_255_2_778
10
23.9548053
20
61.1288666
40
0.2073589
50
269.5584507
51
312.4297092
0
ARC
8
DEFAULT_255_2_778
10
22.3522586
20
61.1305586
40
0.2090469
50
227.7518114
51
270.2600175
0
ARC
8
DEFAULT_255_2_778
10
22.3314832
20
61.1078621
40
0.1782779
50
180.2726176
51
227.7900516
0
ARC
8
DEFAULT_255_2_778
10
22.3330966
20
57.5793458
40
0.1798961
50
132.4365543
51
179.5006035
0
ARC
8
DEFAULT_255_2_778
10
22.3513592
20
57.5597126
40
0.2067094
50
89.4877344
51
132.5003858
0
ARC
8
DEFAULT_255_2_778
10
23.9540845
20
57.5571826
40
0.209233
50
47.7716299
51
90.2401932
0
ARC
8
DEFAULT_255_2_778
10
23.9749315
20
57.5800655
40
0.1782779
50
0.2726176
51
47.7900516
0
ARC
8
DEFAULT_255_2_778
10
23.9729338
20
28.2593516
40
0.180281
50
312.4902709
51
359.479467
0
ARC
8
DEFAULT_255_2_778
10
23.9549474
20
28.2794786
40
0.207272
50
269.5189742
51
312.3984629
0
ARC
8
DEFAULT_255_2_778
10
22.3522988
20
28.2816491
40
0.2094373
50
227.8339016
51
270.2485345
0
ARC
8
DEFAULT_255_2_778
10
22.3318618
20
28.2586301
40
0.1786568
50
180.2938482
51
227.7362995
0
ARC
8
DEFAULT_255_2_778
10
23.973318
20
24.7300461
40
0.1798961
50
0.4993071
51
47.5633718
0
ARC
8
DEFAULT_255_2_778
10
23.9549477
20
24.7097502
40
0.2072709
50
47.6013549
51
90.4810903
0
ARC
8
DEFAULT_255_2_778
10
22.3521145
20
24.7080596
40
0.2089571
50
89.7003486
51
132.2171915
0
ARC
8
DEFAULT_255_2_778
10
22.3316468
20
24.7306926
40
0.1784418
50
132.2331331
51
179.7042245
0
ARC
8
DEFAULT_255_2_778
10
22.3334797
20
71.0343765
40
0.1802798
50
132.4901159
51
179.479636
0
ARC
8
DEFAULT_255_2_778
10
22.3513972
20
71.0144323
40
0.2070894
50
89.4991921
51
132.4183687
0
ARC
8
DEFAULT_255_2_778
10
23.9540442
20
71.0118914
40
0.209624
50
47.8537015
51
90.2287287
0
ARC
8
DEFAULT_255_2_778
10
23.9745532
20
71.0350976
40
0.1786564
50
0.2938212
51
47.7363771
0
ARC
8
DEFAULT_255_2_778
10
23.973318
20
14.8040815
40
0.1798961
50
312.4366212
51
359.5006808
0
ARC
8
DEFAULT_255_2_778
10
23.9549469
20
14.8243786
40
0.2072723
50
269.5191172
51
312.3985736
0
ARC
8
DEFAULT_255_2_778
10
22.3522988
20
14.8265491
40
0.2094373
50
227.8339016
51
270.2485345
0
ARC
8
DEFAULT_255_2_778
10
22.3316459
20
14.8034347
40
0.178441
50
180.2956843
51
227.7670117
0
LINE
8
DEFAULT_255_2_778
10
22.3532073
20
47.5590138
11
23.9532073
21
47.5590138
0
LINE
8
DEFAULT_255_2_778
10
23.9532073
20
48.4872138
11
22.3532073
21
48.4872138
0
LINE
8
DEFAULT_255_2_778
10
22.3532073
20
67.9737138
11
23.9532073
21
67.9737138
0
LINE
8
DEFAULT_255_2_778
10
22.3532073
20
68.9019138
11
23.9532073
21
68.9019138
0
LINE
8
DEFAULT_255_2_778
10
22.3532073
20
16.9367138
11
23.9532073
21
16.9367138
0
LINE
8
DEFAULT_255_2_778
10
22.3532073
20
17.8648138
11
23.9532073
21
17.8648138
0
LINE
8
DEFAULT_255_2_778
10
23.9532073
20
38.2796138
11
22.3532073
21
38.2796138
0
LINE
8
DEFAULT_255_2_778
10
22.1532073
20
37.3514138
11
23.9532073
21
37.3514138
0
LINE
8
DEFAULT_255_2_778
10
23.9532073
20
60.9215138
11
22.3532073
21
60.9215138
0
LINE
8
DEFAULT_255_2_778
10
22.3532073
20
57.7664138
11
23.9532073
21
57.7664138
0
LINE
8
DEFAULT_255_2_778
10
23.9532073
20
28.0722138
11
22.3532073
21
28.0722138
0
LINE
8
DEFAULT_255_2_778
10
23.9532073
20
24.9170138
11
22.3532073
21
24.9170138
0
LINE
8
DEFAULT_255_2_778
10
22.3532073
20
71.2215138
11
23.9532073
21
71.2215138
0
LINE
8
DEFAULT_255_2_778
10
24.1532073
20
71.0360138
11
24.1532073
21
14.8025138
0
LINE
8
DEFAULT_255_2_778
10
23.9532073
20
14.6171138
11
22.3532073
21
14.6171138
0
LINE
8
DEFAULT_255_2_778
10
22.1532073
20
14.8025138
11
22.1532073
21
71.0360138
0
ARC
8
DEFAULT_255_2_778
10
25.3328958
20
38.4668811
40
0.1798954
50
180.4991746
51
227.5634634
0
ARC
8
DEFAULT_255_2_778
10
25.3511969
20
38.4869948
40
0.2070888
50
227.5815976
51
270.5008934
0
ARC
8
DEFAULT_255_2_778
10
26.9540291
20
38.489054
40
0.2091427
50
269.7200826
51
312.1973736
0
ARC
8
DEFAULT_255_2_778
10
26.9745684
20
38.4662348
40
0.1784413
50
312.2330454
51
359.7042797
0
ARC
8
DEFAULT_255_2_778
10
26.9727345
20
37.1645764
40
0.1802802
50
0.5203885
51
47.5098137
0
ARC
8
DEFAULT_255_2_778
10
26.9547477
20
37.1444502
40
0.2072709
50
47.6013549
51
90.4810903
0
ARC
8
DEFAULT_255_2_778
10
25.3520988
20
37.1422785
40
0.2094373
50
89.7514655
51
132.1660984
0
ARC
8
DEFAULT_255_2_778
10
25.3316614
20
37.1652975
40
0.1786565
50
132.263589
51
179.70615
0
ARC
8
DEFAULT_255_2_778
10
26.9731183
20
47.3720462
40
0.1798958
50
0.4992798
51
47.5634258
0
ARC
8
DEFAULT_255_2_778
10
26.9546053
20
47.351761
40
0.2073589
50
47.5702908
51
90.4415493
0
ARC
8
DEFAULT_255_2_778
10
25.3520584
20
47.3500695
40
0.2090465
50
89.7399311
51
132.2482361
0
ARC
8
DEFAULT_255_2_778
10
25.3312832
20
47.3727655
40
0.1782779
50
132.2099484
51
179.7273824
0
ARC
8
DEFAULT_255_2_778
10
26.9731171
20
48.674282
40
0.179897
50
312.4367363
51
359.5005486
0
ARC
8
DEFAULT_255_2_778
10
26.9547855
20
48.694097
40
0.2068909
50
269.5075542
51
312.4806149
0
ARC
8
DEFAULT_255_2_778
10
25.3520586
20
48.6962586
40
0.2090469
50
227.7518114
51
270.2600175
0
ARC
8
DEFAULT_255_2_778
10
25.3312832
20
48.6735621
40
0.1782779
50
180.2726176
51
227.7900516
0
ARC
8
DEFAULT_255_2_778
10
25.3332809
20
16.749576
40
0.180281
50
132.4902709
51
179.479467
0
ARC
8
DEFAULT_255_2_778
10
25.3511976
20
16.7296319
40
0.20709
50
89.4992995
51
132.418372
0
ARC
8
DEFAULT_255_2_778
10
26.9538442
20
16.7270914
40
0.209624
50
47.8537015
51
90.2287287
0
ARC
8
DEFAULT_255_2_778
10
26.9743533
20
16.7502975
40
0.1786565
50
0.29385
51
47.736411
0
ARC
8
DEFAULT_255_2_778
10
25.3328967
20
18.0518814
40
0.1798962
50
180.4992661
51
227.5633186
0
ARC
8
DEFAULT_255_2_778
10
25.3511975
20
18.0719953
40
0.2070896
50
227.5815609
51
270.5007243
0
ARC
8
DEFAULT_255_2_778
10
26.9540286
20
18.074054
40
0.2091427
50
269.7202261
51
312.1974842
0
ARC
8
DEFAULT_255_2_778
10
26.9745679
20
18.051235
40
0.1784418
50
312.2331331
51
359.7042245
0
ARC
8
DEFAULT_255_2_778
10
26.9731183
20
67.7867462
40
0.1798959
50
0.4992895
51
47.5634223
0
ARC
8
DEFAULT_255_2_778
10
26.9547855
20
67.7669306
40
0.2068909
50
47.5193851
51
90.4924458
0
ARC
8
DEFAULT_255_2_778
10
25.352059
20
67.764768
40
0.2090479
50
89.7400929
51
132.2480854
0
ARC
8
DEFAULT_255_2_778
10
25.3312832
20
67.7874655
40
0.1782779
50
132.2099484
51
179.7273824
0
ARC
8
DEFAULT_255_2_778
10
25.3328962
20
69.0889813
40
0.1798957
50
180.4992612
51
227.5634324
0
ARC
8
DEFAULT_255_2_778
10
25.3511591
20
69.1086143
40
0.2067088
50
227.4995011
51
270.5123057
0
ARC
8
DEFAULT_255_2_778
10
26.9538842
20
69.1111453
40
0.2092334
50
269.7598837
51
312.2283619
0
ARC
8
DEFAULT_255_2_778
10
26.9747315
20
69.0882621
40
0.1782779
50
312.2099484
51
359.7273824
0
ARC
8
DEFAULT_255_2_778
10
26.9731175
20
61.1085819
40
0.1798966
50
312.4366588
51
359.5005756
0
ARC
8
DEFAULT_255_2_778
10
26.9547468
20
61.1288793
40
0.2072729
50
269.5191555
51
312.3984655
0
ARC
8
DEFAULT_255_2_778
10
25.3520988
20
61.1310491
40
0.2094373
50
227.8339016
51
270.2485345
0
ARC
8
DEFAULT_255_2_778
10
25.3314463
20
61.1079348
40
0.1784413
50
180.2957114
51
227.766934
0
ARC
8
DEFAULT_255_2_778
10
25.3329479
20
57.5794242
40
0.1799468
50
132.4439745
51
179.5256931
0
ARC
8
DEFAULT_255_2_778
10
25.3511972
20
57.5593323
40
0.2070894
50
89.4991921
51
132.4183687
0
ARC
8
DEFAULT_255_2_778
10
26.9538442
20
57.5567914
40
0.209624
50
47.8537015
51
90.2287287
0
ARC
8
DEFAULT_255_2_778
10
26.9745163
20
57.5800703
40
0.178493
50
0.2707636
51
47.7594408
0
ARC
8
DEFAULT_255_2_778
10
25.3328958
20
28.2592811
40
0.1798954
50
180.4991746
51
227.5634634
0
ARC
8
DEFAULT_255_2_778
10
25.3511591
20
28.2789143
40
0.2067088
50
227.4995011
51
270.5123057
0
ARC
8
DEFAULT_255_2_778
10
26.9538841
20
28.2814458
40
0.2092339
50
269.7599099
51
312.2282877
0
ARC
8
DEFAULT_255_2_778
10
26.9747315
20
28.2585621
40
0.1782779
50
312.2099484
51
359.7273824
0
ARC
8
DEFAULT_255_2_778
10
26.9731184
20
24.7300462
40
0.1798957
50
0.4992612
51
47.5634324
0
ARC
8
DEFAULT_255_2_778
10
26.9547855
20
24.7102306
40
0.2068909
50
47.5193851
51
90.4924458
0
ARC
8
DEFAULT_255_2_778
10
25.3520588
20
24.7080693
40
0.2090467
50
89.7400285
51
132.2482676
0
ARC
8
DEFAULT_255_2_778
10
25.3312832
20
24.7307655
40
0.1782779
50
132.2099484
51
179.7273824
0
ARC
8
DEFAULT_255_2_778
10
26.9538442
20
71.0121914
40
0.209624
50
47.8537015
51
90.2287287
0
ARC
8
DEFAULT_255_2_778
10
26.9743532
20
71.0353976
40
0.1786564
50
0.2938212
51
47.7363771
0
ARC
8
DEFAULT_255_2_778
10
26.973118
20
14.8043815
40
0.1798961
50
312.4366212
51
359.5006808
0
ARC
8
DEFAULT_255_2_778
10
26.9547469
20
14.8246786
40
0.2072723
50
269.5191172
51
312.3985736
0
ARC
8
DEFAULT_255_2_778
10
25.3520988
20
14.8268491
40
0.2094373
50
227.8339016
51
270.2485345
0
ARC
8
DEFAULT_255_2_778
10
25.3314459
20
14.8037347
40
0.178441
50
180.2956843
51
227.7670117
0
ARC
8
DEFAULT_255_2_778
10
25.3332797
20
71.0346765
40
0.1802798
50
132.4901159
51
179.479636
0
ARC
8
DEFAULT_255_2_778
10
25.3511972
20
71.0147323
40
0.2070894
50
89.4991921
51
132.4183687
0
LINE
8
DEFAULT_255_2_778
10
25.3530073
20
38.2799138
11
26.9530073
21
38.2799138
0
LINE
8
DEFAULT_255_2_778
10
26.9530073
20
37.3517138
11
25.3530073
21
37.3517138
0
LINE
8
DEFAULT_255_2_778
10
26.9530073
20
47.5591138
11
25.3530073
21
47.5591138
0
LINE
8
DEFAULT_255_2_778
10
26.9530073
20
48.4872138
11
25.3530073
21
48.4872138
0
LINE
8
DEFAULT_255_2_778
10
25.3530073
20
16.9367138
11
26.9530073
21
16.9367138
0
LINE
8
DEFAULT_255_2_778
10
25.3530073
20
17.8649138
11
26.9530073
21
17.8649138
0
LINE
8
DEFAULT_255_2_778
10
26.9530073
20
67.9738138
11
25.3530073
21
67.9738138
0
LINE
8
DEFAULT_255_2_778
10
25.3530073
20
68.9019138
11
26.9530073
21
68.9019138
0
LINE
8
DEFAULT_255_2_778
10
26.9530073
20
60.9216138
11
25.3530073
21
60.9216138
0
LINE
8
DEFAULT_255_2_778
10
25.3530073
20
57.7664138
11
26.9530073
21
57.7664138
0
LINE
8
DEFAULT_255_2_778
10
25.3530073
20
28.0722138
11
26.9530073
21
28.0722138
0
LINE
8
DEFAULT_255_2_778
10
26.9530073
20
24.9171138
11
25.3530073
21
24.9171138
0
LINE
8
DEFAULT_255_2_778
10
27.1530073
20
71.0363138
11
27.1530073
21
14.8028138
0
LINE
8
DEFAULT_255_2_778
10
26.9530073
20
14.6174138
11
25.3530073
21
14.6174138
0
LINE
8
DEFAULT_255_2_778
10
25.1530073
20
14.8028138
11
25.1530073
21
71.0363138
0
LINE
8
DEFAULT_255_2_778
10
25.3530073
20
71.2218138
11
26.9530073
21
71.2218138
0
ARC
8
DEFAULT_255_2_778
10
28.3329973
20
16.7497456
40
0.1798968
50
132.436689
51
179.5005403
0
ARC
8
DEFAULT_255_2_778
10
28.3512976
20
16.7296319
40
0.20709
50
89.4992995
51
132.418372
0
ARC
8
DEFAULT_255_2_778
10
29.9541285
20
16.7275735
40
0.2091428
50
47.8025367
51
90.2797665
0
ARC
8
DEFAULT_255_2_778
10
29.9746679
20
16.7503926
40
0.1784418
50
0.2957755
51
47.7668669
0
ARC
8
DEFAULT_255_2_778
10
29.9728341
20
18.0520514
40
0.1802806
50
312.4902399
51
359.4795536
0
ARC
8
DEFAULT_255_2_778
10
29.9548469
20
18.0721786
40
0.2072723
50
269.5191172
51
312.3985736
0
ARC
8
DEFAULT_255_2_778
10
28.3521988
20
18.0743491
40
0.2094373
50
227.8339016
51
270.2485345
0
ARC
8
DEFAULT_255_2_778
10
28.3317614
20
18.0513301
40
0.1786565
50
180.29385
51
227.736411
0
ARC
8
DEFAULT_255_2_778
10
28.3329964
20
37.1644459
40
0.179896
50
132.4365442
51
179.5006318
0
ARC
8
DEFAULT_255_2_778
10
28.3514398
20
37.1443427
40
0.2071779
50
89.538832
51
132.4494149
0
ARC
8
DEFAULT_255_2_778
10
29.9539846
20
37.1422834
40
0.2092323
50
47.7715218
51
90.2402313
0
ARC
8
DEFAULT_255_2_778
10
29.9748315
20
37.1651655
40
0.1782779
50
0.2726176
51
47.7900516
0
ARC
8
DEFAULT_255_2_778
10
29.9732175
20
38.4666817
40
0.1798967
50
312.4367088
51
359.5006255
0
ARC
8
DEFAULT_255_2_778
10
29.9548855
20
38.486497
40
0.2068909
50
269.5075542
51
312.4806149
0
ARC
8
DEFAULT_255_2_778
10
28.3521586
20
38.4886583
40
0.2090467
50
227.7517775
51
270.2600295
0
ARC
8
DEFAULT_255_2_778
10
28.3313832
20
38.4659621
40
0.1782779
50
180.2726176
51
227.7900516
0
ARC
8
DEFAULT_255_2_778
10
28.3330479
20
47.3718242
40
0.1799468
50
132.4439745
51
179.5256931
0
ARC
8
DEFAULT_255_2_778
10
28.3512969
20
47.3517328
40
0.2070889
50
89.4991083
51
132.4183975
0
ARC
8
DEFAULT_255_2_778
10
29.9539442
20
47.3491914
40
0.209624
50
47.8537015
51
90.2287287
0
ARC
8
DEFAULT_255_2_778
10
29.9746163
20
47.3724703
40
0.178493
50
0.2707636
51
47.7594408
0
ARC
8
DEFAULT_255_2_778
10
28.3330473
20
48.6740028
40
0.1799462
50
180.4741136
51
227.556033
0
ARC
8
DEFAULT_255_2_778
10
28.3512972
20
48.6940948
40
0.207089
50
227.581532
51
270.5008082
0
ARC
8
DEFAULT_255_2_778
10
29.9539442
20
48.696636
40
0.2096239
50
269.7712639
51
312.1463194
0
ARC
8
DEFAULT_255_2_778
10
29.9746163
20
48.6733573
40
0.178493
50
312.2405592
51
359.7292364
0
ARC
8
DEFAULT_255_2_778
10
29.9732184
20
67.7865462
40
0.1798957
50
0.4992612
51
47.5634324
0
ARC
8
DEFAULT_255_2_778
10
29.9548472
20
67.7662495
40
0.2072717
50
47.6013975
51
90.4809667
0
ARC
8
DEFAULT_255_2_778
10
28.3520149
20
67.7645591
40
0.2089576
50
89.7004602
51
132.2171828
0
ARC
8
DEFAULT_255_2_778
10
28.3315467
20
67.7871927
40
0.1784417
50
132.2331266
51
179.7042429
0
ARC
8
DEFAULT_255_2_778
10
28.3333803
20
69.0888513
40
0.1802804
50
180.5204333
51
227.5097976
0
ARC
8
DEFAULT_255_2_778
10
28.3512971
20
69.1087945
40
0.2070888
50
227.5815183
51
270.5008479
0
ARC
8
DEFAULT_255_2_778
10
29.9539442
20
69.111336
40
0.2096239
50
269.7712639
51
312.1463194
0
ARC
8
DEFAULT_255_2_778
10
29.9744531
20
69.08813
40
0.1786565
50
312.2636294
51
359.7061605
0
ARC
8
DEFAULT_255_2_778
10
29.9728338
20
28.2591516
40
0.180281
50
312.4902709
51
359.479467
0
ARC
8
DEFAULT_255_2_778
10
29.9548474
20
28.2792786
40
0.207272
50
269.5189742
51
312.3984629
0
ARC
8
DEFAULT_255_2_778
10
28.3521988
20
28.2814491
40
0.2094373
50
227.8339016
51
270.2485345
0
ARC
8
DEFAULT_255_2_778
10
28.3317618
20
28.2584301
40
0.1786568
50
180.2938482
51
227.7362995
0
ARC
8
DEFAULT_255_2_778
10
29.973218
20
24.7298461
40
0.1798961
50
0.4993071
51
47.5633718
0
ARC
8
DEFAULT_255_2_778
10
29.9548477
20
24.7095502
40
0.2072709
50
47.6013549
51
90.4810903
0
ARC
8
DEFAULT_255_2_778
10
28.3520145
20
24.7078596
40
0.2089571
50
89.7003486
51
132.2171915
0
ARC
8
DEFAULT_255_2_778
10
28.3315468
20
24.7304926
40
0.1784418
50
132.2331331
51
179.7042245
0
ARC
8
DEFAULT_255_2_778
10
29.9732179
20
61.1083816
40
0.1798963
50
312.4366313
51
359.5006525
0
ARC
8
DEFAULT_255_2_778
10
29.9547053
20
61.1286666
40
0.2073589
50
269.5584507
51
312.4297092
0
ARC
8
DEFAULT_255_2_778
10
28.3521586
20
61.1303586
40
0.2090469
50
227.7518114
51
270.2600175
0
ARC
8
DEFAULT_255_2_778
10
28.3313832
20
61.1076621
40
0.1782779
50
180.2726176
51
227.7900516
0
ARC
8
DEFAULT_255_2_778
10
29.9732183
20
57.5791462
40
0.1798958
50
0.4992798
51
47.5634258
0
ARC
8
DEFAULT_255_2_778
10
29.9548855
20
57.5593306
40
0.2068909
50
47.5193851
51
90.4924458
0
ARC
8
DEFAULT_255_2_778
10
28.3521584
20
57.5571695
40
0.2090465
50
89.7399311
51
132.2482361
0
ARC
8
DEFAULT_255_2_778
10
28.3313832
20
57.5798655
40
0.1782779
50
132.2099484
51
179.7273824
0
ARC
8
DEFAULT_255_2_778
10
28.3333797
20
71.0341765
40
0.1802798
50
132.4901159
51
179.479636
0
ARC
8
DEFAULT_255_2_778
10
28.3512972
20
71.0142323
40
0.2070894
50
89.4991921
51
132.4183687
0
ARC
8
DEFAULT_255_2_778
10
29.9539442
20
71.0116914
40
0.209624
50
47.8537015
51
90.2287287
0
ARC
8
DEFAULT_255_2_778
10
29.9744532
20
71.0348976
40
0.1786564
50
0.2938212
51
47.7363771
0
ARC
8
DEFAULT_255_2_778
10
29.973218
20
14.8038815
40
0.1798961
50
312.4366212
51
359.5006808
0
ARC
8
DEFAULT_255_2_778
10
29.9548469
20
14.8241786
40
0.2072723
50
269.5191172
51
312.3985736
0
ARC
8
DEFAULT_255_2_778
10
28.3521988
20
14.8263491
40
0.2094373
50
227.8339016
51
270.2485345
0
ARC
8
DEFAULT_255_2_778
10
28.3315459
20
14.8032347
40
0.178441
50
180.2956843
51
227.7670117
0
LINE
8
DEFAULT_255_2_778
10
28.3531073
20
16.9367138
11
29.9531073
21
16.9367138
0
LINE
8
DEFAULT_255_2_778
10
29.9531073
20
17.8649138
11
28.3531073
21
17.8649138
0
LINE
8
DEFAULT_255_2_778
10
28.3531073
20
37.3515138
11
29.9531073
21
37.3515138
0
LINE
8
DEFAULT_255_2_778
10
29.9531073
20
38.2796138
11
28.3531073
21
38.2796138
0
LINE
8
DEFAULT_255_2_778
10
28.3531073
20
47.5588138
11
29.9531073
21
47.5588138
0
LINE
8
DEFAULT_255_2_778
10
28.3531073
20
48.4870138
11
29.9531073
21
48.4870138
0
LINE
8
DEFAULT_255_2_778
10
29.9531073
20
67.9735138
11
28.3531073
21
67.9735138
0
LINE
8
DEFAULT_255_2_778
10
28.3531073
20
68.9017138
11
29.9531073
21
68.9017138
0
LINE
8
DEFAULT_255_2_778
10
29.9531073
20
28.0720138
11
28.3531073
21
28.0720138
0
LINE
8
DEFAULT_255_2_778
10
29.9531073
20
24.9168138
11
28.3531073
21
24.9168138
0
LINE
8
DEFAULT_255_2_778
10
29.9531073
20
60.9213138
11
28.3531073
21
60.9213138
0
LINE
8
DEFAULT_255_2_778
10
29.9531073
20
57.7662138
11
28.3531073
21
57.7662138
0
LINE
8
DEFAULT_255_2_778
10
28.3531073
20
71.2213138
11
29.9531073
21
71.2213138
0
LINE
8
DEFAULT_255_2_778
10
30.1531073
20
71.0358138
11
30.1531073
21
14.8023138
0
LINE
8
DEFAULT_255_2_778
10
29.9531073
20
14.6169138
11
28.3531073
21
14.6169138
0
LINE
8
DEFAULT_255_2_778
10
28.1531073
20
14.8023138
11
28.1531073
21
71.0358138
0
ARC
8
DEFAULT_255_2_778
10
31.3332797
20
37.1645765
40
0.1802798
50
132.4901159
51
179.479636
0
ARC
8
DEFAULT_255_2_778
10
31.3511969
20
37.1446328
40
0.2070889
50
89.4991083
51
132.4183975
0
ARC
8
DEFAULT_255_2_778
10
32.9538442
20
37.1420914
40
0.209624
50
47.8537015
51
90.2287287
0
ARC
8
DEFAULT_255_2_778
10
32.9743533
20
37.1652975
40
0.1786565
50
0.29385
51
47.736411
0
ARC
8
DEFAULT_255_2_778
10
32.973118
20
38.4668815
40
0.1798961
50
312.4366212
51
359.5006808
0
ARC
8
DEFAULT_255_2_778
10
32.9547476
20
38.4871779
40
0.2072713
50
269.5189359
51
312.3985711
0
ARC
8
DEFAULT_255_2_778
10
31.3519143
20
38.488868
40
0.2089571
50
227.7828537
51
270.2997095
0
ARC
8
DEFAULT_255_2_778
10
31.3314464
20
38.4662348
40
0.1784415
50
180.2957395
51
227.7669239
0
ARC
8
DEFAULT_255_2_778
10
32.9731171
20
18.0521818
40
0.179897
50
312.436766
51
359.5005893
0
ARC
8
DEFAULT_255_2_778
10
32.9547855
20
18.071997
40
0.2068909
50
269.5075542
51
312.4806149
0
ARC
8
DEFAULT_255_2_778
10
31.3520583
20
18.0741583
40
0.2090467
50
227.7518429
51
270.2601149
0
ARC
8
DEFAULT_255_2_778
10
31.3312832
20
18.0514621
40
0.1782779
50
180.2726176
51
227.7900516
0
ARC
8
DEFAULT_255_2_778
10
31.3328973
20
16.7499456
40
0.1798968
50
132.436689
51
179.5005403
0
ARC
8
DEFAULT_255_2_778
10
31.3511592
20
16.7303126
40
0.2067094
50
89.4877344
51
132.5003858
0
ARC
8
DEFAULT_255_2_778
10
32.9538843
20
16.7277829
40
0.2092328
50
47.7715509
51
90.240147
0
ARC
8
DEFAULT_255_2_778
10
32.9747315
20
16.7506655
40
0.1782779
50
0.2726176
51
47.7900516
0
ARC
8
DEFAULT_255_2_778
10
31.3329479
20
47.3723242
40
0.1799468
50
132.4439745
51
179.5256931
0
ARC
8
DEFAULT_255_2_778
10
31.3511969
20
47.3522328
40
0.2070889
50
89.4991083
51
132.4183975
0
ARC
8
DEFAULT_255_2_778
10
32.9538442
20
47.3496914
40
0.209624
50
47.8537015
51
90.2287287
0
ARC
8
DEFAULT_255_2_778
10
32.9745163
20
47.3729703
40
0.178493
50
0.2707636
51
47.7594408
0
ARC
8
DEFAULT_255_2_778
10
31.3329473
20
48.6745028
40
0.1799462
50
180.4741136
51
227.556033
0
ARC
8
DEFAULT_255_2_778
10
31.3511972
20
48.6945948
40
0.207089
50
227.581532
51
270.5008082
0
ARC
8
DEFAULT_255_2_778
10
32.9538442
20
48.697136
40
0.2096239
50
269.7712639
51
312.1463194
0
ARC
8
DEFAULT_255_2_778
10
32.9745163
20
48.6738573
40
0.178493
50
312.2405592
51
359.7292364
0
ARC
8
DEFAULT_255_2_778
10
32.9731184
20
67.7870462
40
0.1798957
50
0.4992612
51
47.5634324
0
ARC
8
DEFAULT_255_2_778
10
32.9547472
20
67.7667495
40
0.2072717
50
47.6013975
51
90.4809667
0
ARC
8
DEFAULT_255_2_778
10
31.3519149
20
67.7650591
40
0.2089576
50
89.7004602
51
132.2171828
0
ARC
8
DEFAULT_255_2_778
10
31.3314467
20
67.7876927
40
0.1784417
50
132.2331266
51
179.7042429
0
ARC
8
DEFAULT_255_2_778
10
31.3332803
20
69.0893513
40
0.1802804
50
180.5204333
51
227.5097976
0
ARC
8
DEFAULT_255_2_778
10
31.3511971
20
69.1092945
40
0.2070888
50
227.5815183
51
270.5008479
0
ARC
8
DEFAULT_255_2_778
10
32.9538442
20
69.111836
40
0.2096239
50
269.7712639
51
312.1463194
0
ARC
8
DEFAULT_255_2_778
10
32.9743531
20
69.08863
40
0.1786565
50
312.2636294
51
359.7061605
0
ARC
8
DEFAULT_255_2_778
10
32.9727338
20
28.2596516
40
0.180281
50
312.4902709
51
359.479467
0
ARC
8
DEFAULT_255_2_778
10
32.9547474
20
28.2797786
40
0.207272
50
269.5189742
51
312.3984629
0
ARC
8
DEFAULT_255_2_778
10
31.3520988
20
28.2819491
40
0.2094373
50
227.8339016
51
270.2485345
0
ARC
8
DEFAULT_255_2_778
10
31.3316618
20
28.2589301
40
0.1786568
50
180.2938482
51
227.7362995
0
ARC
8
DEFAULT_255_2_778
10
32.973118
20
24.7303461
40
0.1798961
50
0.4993071
51
47.5633718
0
ARC
8
DEFAULT_255_2_778
10
32.9547477
20
24.7100502
40
0.2072709
50
47.6013549
51
90.4810903
0
ARC
8
DEFAULT_255_2_778
10
31.3519145
20
24.7083596
40
0.2089571
50
89.7003486
51
132.2171915
0
ARC
8
DEFAULT_255_2_778
10
31.3314468
20
24.7309926
40
0.1784418
50
132.2331331
51
179.7042245
0
ARC
8
DEFAULT_255_2_778
10
32.9731179
20
61.1088816
40
0.1798963
50
312.4366313
51
359.5006525
0
ARC
8
DEFAULT_255_2_778
10
32.9546053
20
61.1291666
40
0.2073589
50
269.5584507
51
312.4297092
0
ARC
8
DEFAULT_255_2_778
10
31.3520586
20
61.1308586
40
0.2090469
50
227.7518114
51
270.2600175
0
ARC
8
DEFAULT_255_2_778
10
31.3312832
20
61.1081621
40
0.1782779
50
180.2726176
51
227.7900516
0
ARC
8
DEFAULT_255_2_778
10
32.9731183
20
57.5796462
40
0.1798958
50
0.4992798
51
47.5634258
0
ARC
8
DEFAULT_255_2_778
10
32.9547855
20
57.5598306
40
0.2068909
50
47.5193851
51
90.4924458
0
ARC
8
DEFAULT_255_2_778
10
31.3520584
20
57.5576695
40
0.2090465
50
89.7399311
51
132.2482361
0
ARC
8
DEFAULT_255_2_778
10
31.3312832
20
57.5803655
40
0.1782779
50
132.2099484
51
179.7273824
0
ARC
8
DEFAULT_255_2_778
10
31.3332797
20
71.0346765
40
0.1802798
50
132.4901159
51
179.479636
0
ARC
8
DEFAULT_255_2_778
10
31.3511972
20
71.0147323
40
0.2070894
50
89.4991921
51
132.4183687
0
ARC
8
DEFAULT_255_2_778
10
32.9538442
20
71.0121914
40
0.209624
50
47.8537015
51
90.2287287
0
ARC
8
DEFAULT_255_2_778
10
32.9743532
20
71.0353976
40
0.1786564
50
0.2938212
51
47.7363771
0
ARC
8
DEFAULT_255_2_778
10
32.973118
20
14.8043815
40
0.1798961
50
312.4366212
51
359.5006808
0
ARC
8
DEFAULT_255_2_778
10
32.9547469
20
14.8246786
40
0.2072723
50
269.5191172
51
312.3985736
0
ARC
8
DEFAULT_255_2_778
10
31.3520988
20
14.8268491
40
0.2094373
50
227.8339016
51
270.2485345
0
ARC
8
DEFAULT_255_2_778
10
31.3314459
20
14.8037347
40
0.178441
50
180.2956843
51
227.7670117
0
LINE
8
DEFAULT_255_2_778
10
31.3530073
20
37.3517138
11
32.9530073
21
37.3517138
0
LINE
8
DEFAULT_255_2_778
10
32.9530073
20
38.2799138
11
31.3530073
21
38.2799138
0
LINE
8
DEFAULT_255_2_778
10
32.9530073
20
17.8651138
11
31.3530073
21
17.8651138
0
LINE
8
DEFAULT_255_2_778
10
31.3530073
20
16.9370138
11
32.9530073
21
16.9370138
0
LINE
8
DEFAULT_255_2_778
10
31.3530073
20
47.5593138
11
32.9530073
21
47.5593138
0
LINE
8
DEFAULT_255_2_778
10
31.3530073
20
48.4875138
11
32.9530073
21
48.4875138
0
LINE
8
DEFAULT_255_2_778
10
32.9530073
20
67.9740138
11
31.3530073
21
67.9740138
0
LINE
8
DEFAULT_255_2_778
10
31.3530073
20
68.9022138
11
32.9530073
21
68.9022138
0
LINE
8
DEFAULT_255_2_778
10
32.9530073
20
28.0725138
11
31.3530073
21
28.0725138
0
LINE
8
DEFAULT_255_2_778
10
32.9530073
20
24.9173138
11
31.3530073
21
24.9173138
0
LINE
8
DEFAULT_255_2_778
10
32.9530073
20
60.9218138
11
31.3530073
21
60.9218138
0
LINE
8
DEFAULT_255_2_778
10
32.9530073
20
57.7667138
11
31.3530073
21
57.7667138
0
LINE
8
DEFAULT_255_2_778
10
31.3530073
20
71.2218138
11
32.9530073
21
71.2218138
0
LINE
8
DEFAULT_255_2_778
10
33.1530073
20
71.0363138
11
33.1530073
21
14.8028138
0
LINE
8
DEFAULT_255_2_778
10
32.9530073
20
14.6174138
11
31.3530073
21
14.6174138
0
LINE
8
DEFAULT_255_2_778
10
31.1530073
20
14.8028138
11
31.1530073
21
71.0363138
0
ARC
8
DEFAULT_255_2_778
10
34.3329964
20
37.1647459
40
0.179896
50
132.4365442
51
179.5006318
0
ARC
8
DEFAULT_255_2_778
10
34.3512973
20
37.1446321
40
0.2070896
50
89.4992021
51
132.4183406
0
ARC
8
DEFAULT_255_2_778
10
35.9541283
20
37.1425722
40
0.209144
50
47.8027191
51
90.279702
0
ARC
8
DEFAULT_255_2_778
10
35.9746687
20
37.1653929
40
0.178441
50
0.2956843
51
47.7670117
0
ARC
8
DEFAULT_255_2_778
10
35.9730005
20
38.4669773
40
0.1801136
50
312.4671378
51
359.5026439
0
ARC
8
DEFAULT_255_2_778
10
35.9548477
20
38.4871774
40
0.2072709
50
269.5189097
51
312.3986451
0
ARC
8
DEFAULT_255_2_778
10
34.3521988
20
38.4893491
40
0.2094373
50
227.8339016
51
270.2485345
0
ARC
8
DEFAULT_255_2_778
10
34.3315983
20
38.4662573
40
0.178493
50
180.2707636
51
227.7594408
0
ARC
8
DEFAULT_255_2_778
10
35.9732183
20
67.7870462
40
0.1798959
50
0.4992895
51
47.5634223
0
ARC
8
DEFAULT_255_2_778
10
35.9548855
20
67.7672306
40
0.2068909
50
47.5193851
51
90.4924458
0
ARC
8
DEFAULT_255_2_778
10
34.352159
20
67.765068
40
0.2090479
50
89.7400929
51
132.2480854
0
ARC
8
DEFAULT_255_2_778
10
34.3313832
20
67.7877655
40
0.1782779
50
132.2099484
51
179.7273824
0
ARC
8
DEFAULT_255_2_778
10
34.3329962
20
69.0892813
40
0.1798957
50
180.4992612
51
227.5634324
0
ARC
8
DEFAULT_255_2_778
10
34.3512591
20
69.1089143
40
0.2067088
50
227.4995011
51
270.5123057
0
ARC
8
DEFAULT_255_2_778
10
35.9539842
20
69.1114453
40
0.2092334
50
269.7598837
51
312.2283619
0
ARC
8
DEFAULT_255_2_778
10
35.9748315
20
69.0885621
40
0.1782779
50
312.2099484
51
359.7273824
0
ARC
8
DEFAULT_255_2_778
10
34.3333809
20
16.749876
40
0.180281
50
132.4902709
51
179.479467
0
ARC
8
DEFAULT_255_2_778
10
34.3512976
20
16.7299319
40
0.20709
50
89.4992995
51
132.418372
0
ARC
8
DEFAULT_255_2_778
10
35.9539442
20
16.7273914
40
0.209624
50
47.8537015
51
90.2287287
0
ARC
8
DEFAULT_255_2_778
10
35.9744533
20
16.7505975
40
0.1786565
50
0.29385
51
47.736411
0
ARC
8
DEFAULT_255_2_778
10
35.9732171
20
18.0521818
40
0.179897
50
312.436766
51
359.5005893
0
ARC
8
DEFAULT_255_2_778
10
35.9548469
20
18.0724786
40
0.2072723
50
269.5191172
51
312.3985736
0
ARC
8
DEFAULT_255_2_778
10
34.3520148
20
18.074168
40
0.2089571
50
227.782743
51
270.299566
0
ARC
8
DEFAULT_255_2_778
10
34.3315468
20
18.051535
40
0.1784418
50
180.2957755
51
227.7668669
0
ARC
8
DEFAULT_255_2_778
10
34.3329966
20
47.3723458
40
0.1798961
50
132.4365543
51
179.5006035
0
ARC
8
DEFAULT_255_2_778
10
34.351439
20
47.3522439
40
0.2071765
50
89.5386246
51
132.4494864
0
ARC
8
DEFAULT_255_2_778
10
35.9539845
20
47.3501826
40
0.209233
50
47.7716299
51
90.2401932
0
ARC
8
DEFAULT_255_2_778
10
35.9748315
20
47.3730655
40
0.1782779
50
0.2726176
51
47.7900516
0
ARC
8
DEFAULT_255_2_778
10
34.3329962
20
48.6745814
40
0.1798958
50
180.4992826
51
227.5634422
0
ARC
8
DEFAULT_255_2_778
10
34.3512591
20
48.6942143
40
0.2067088
50
227.4995011
51
270.5123057
0
ARC
8
DEFAULT_255_2_778
10
35.9539847
20
48.6967444
40
0.2092324
50
269.7597481
51
312.2284384
0
ARC
8
DEFAULT_255_2_778
10
35.9748315
20
48.6738621
40
0.1782779
50
312.2099484
51
359.7273824
0
ARC
8
DEFAULT_255_2_778
10
35.9732179
20
61.1091816
40
0.1798963
50
312.4366313
51
359.5006525
0
ARC
8
DEFAULT_255_2_778
10
35.9547053
20
61.1294666
40
0.2073589
50
269.5584507
51
312.4297092
0
ARC
8
DEFAULT_255_2_778
10
34.3521586
20
61.1311586
40
0.2090469
50
227.7518114
51
270.2600175
0
ARC
8
DEFAULT_255_2_778
10
34.3313832
20
61.1084621
40
0.1782779
50
180.2726176
51
227.7900516
0
ARC
8
DEFAULT_255_2_778
10
35.9732183
20
57.5799462
40
0.1798958
50
0.4992798
51
47.5634258
0
ARC
8
DEFAULT_255_2_778
10
35.9548855
20
57.5601306
40
0.2068909
50
47.5193851
51
90.4924458
0
ARC
8
DEFAULT_255_2_778
10
34.3521584
20
57.5579695
40
0.2090465
50
89.7399311
51
132.2482361
0
ARC
8
DEFAULT_255_2_778
10
34.3313832
20
57.5806655
40
0.1782779
50
132.2099484
51
179.7273824
0
ARC
8
DEFAULT_255_2_778
10
35.9728338
20
28.2599516
40
0.180281
50
312.4902709
51
359.479467
0
ARC
8
DEFAULT_255_2_778
10
35.9548474
20
28.2800786
40
0.207272
50
269.5189742
51
312.3984629
0
ARC
8
DEFAULT_255_2_778
10
34.3521988
20
28.2822491
40
0.2094373
50
227.8339016
51
270.2485345
0
ARC
8
DEFAULT_255_2_778
10
34.3317618
20
28.2592301
40
0.1786568
50
180.2938482
51
227.7362995
0
ARC
8
DEFAULT_255_2_778
10
35.973218
20
24.7306461
40
0.1798961
50
0.4993071
51
47.5633718
0
ARC
8
DEFAULT_255_2_778
10
35.9548477
20
24.7103502
40
0.2072709
50
47.6013549
51
90.4810903
0
ARC
8
DEFAULT_255_2_778
10
34.3333797
20
71.0349765
40
0.1802798
50
132.4901159
51
179.479636
0
ARC
8
DEFAULT_255_2_778
10
34.3512972
20
71.0150323
40
0.2070894
50
89.4991921
51
132.4183687
0
ARC
8
DEFAULT_255_2_778
10
35.9539442
20
71.0124914
40
0.209624
50
47.8537015
51
90.2287287
0
ARC
8
DEFAULT_255_2_778
10
35.9744532
20
71.0356976
40
0.1786564
50
0.2938212
51
47.7363771
0
ARC
8
DEFAULT_255_2_778
10
35.973218
20
14.8046815
40
0.1798961
50
312.4366212
51
359.5006808
0
ARC
8
DEFAULT_255_2_778
10
35.9548469
20
14.8249786
40
0.2072723
50
269.5191172
51
312.3985736
0
ARC
8
DEFAULT_255_2_778
10
34.3521988
20
14.8271491
40
0.2094373
50
227.8339016
51
270.2485345
0
ARC
8
DEFAULT_255_2_778
10
34.3315459
20
14.8040347
40
0.178441
50
180.2956843
51
227.7670117
0
LINE
8
DEFAULT_255_2_778
10
34.3531073
20
37.3517138
11
35.9531073
21
37.3517138
0
LINE
8
DEFAULT_255_2_778
10
35.9531073
20
38.2799138
11
34.3531073
21
38.2799138
0
LINE
8
DEFAULT_255_2_778
10
35.9531073
20
67.9741138
11
34.3531073
21
67.9741138
0
LINE
8
DEFAULT_255_2_778
10
34.3531073
20
68.9022138
11
35.9531073
21
68.9022138
0
LINE
8
DEFAULT_255_2_778
10
34.3531073
20
16.9370138
11
35.9531073
21
16.9370138
0
LINE
8
DEFAULT_255_2_778
10
35.9531073
20
17.8652138
11
34.3531073
21
17.8652138
0
LINE
8
DEFAULT_255_2_778
10
34.3531073
20
47.5594138
11
35.9531073
21
47.5594138
0
LINE
8
DEFAULT_255_2_778
10
34.3531073
20
48.4875138
11
35.9531073
21
48.4875138
0
LINE
8
DEFAULT_255_2_778
10
35.9531073
20
60.9221138
11
34.3531073
21
60.9221138
0
LINE
8
DEFAULT_255_2_778
10
35.9531073
20
57.7670138
11
34.3531073
21
57.7670138
0
LINE
8
DEFAULT_255_2_778
10
35.9531073
20
28.0728138
11
34.3531073
21
28.0728138
0
LINE
8
DEFAULT_255_2_778
10
35.9531073
20
24.9176138
11
34.1531073
21
24.9176138
0
LINE
8
DEFAULT_255_2_778
10
34.3531073
20
71.2221138
11
35.9531073
21
71.2221138
0
LINE
8
DEFAULT_255_2_778
10
36.1531073
20
71.0366138
11
36.1531073
21
14.8031138
0
LINE
8
DEFAULT_255_2_778
10
35.9531073
20
14.6177138
11
34.3531073
21
14.6177138
0
LINE
8
DEFAULT_255_2_778
10
34.1531073
20
14.8031138
11
34.1531073
21
71.0366138
0
ARC
8
DEFAULT_255_2_778
10
37.3330965
20
47.3720781
40
0.179896
50
132.4365509
51
179.5006131
0
ARC
8
DEFAULT_255_2_778
10
37.351539
20
47.3519762
40
0.2071765
50
89.5386246
51
132.4494864
0
ARC
8
DEFAULT_255_2_778
10
38.9540841
20
47.3499139
40
0.209234
50
47.7717332
51
90.2400827
0
ARC
8
DEFAULT_255_2_778
10
38.9749315
20
47.3727978
40
0.1782779
50
0.2726176
51
47.7900516
0
ARC
8
DEFAULT_255_2_778
10
37.333096
20
48.6743136
40
0.1798955
50
180.499265
51
227.5634927
0
ARC
8
DEFAULT_255_2_778
10
37.3513591
20
48.6939466
40
0.2067088
50
227.4995011
51
270.5123057
0
ARC
8
DEFAULT_255_2_778
10
38.9540842
20
48.6964774
40
0.2092331
50
269.7598718
51
312.2283958
0
ARC
8
DEFAULT_255_2_778
10
38.9749315
20
48.6735943
40
0.1782779
50
312.2099484
51
359.7273824
0
ARC
8
DEFAULT_255_2_778
10
37.3334809
20
16.7496083
40
0.180281
50
132.4902709
51
179.479467
0
ARC
8
DEFAULT_255_2_778
10
37.3513976
20
16.7296642
40
0.20709
50
89.4992995
51
132.418372
0
ARC
8
DEFAULT_255_2_778
10
38.9540442
20
16.7271237
40
0.209624
50
47.8537015
51
90.2287287
0
ARC
8
DEFAULT_255_2_778
10
38.9745533
20
16.7503298
40
0.1786565
50
0.29385
51
47.736411
0
ARC
8
DEFAULT_255_2_778
10
38.9733171
20
18.0519141
40
0.179897
50
312.436766
51
359.5005893
0
ARC
8
DEFAULT_255_2_778
10
38.9549469
20
18.0722109
40
0.2072723
50
269.5191172
51
312.3985736
0
ARC
8
DEFAULT_255_2_778
10
37.3521148
20
18.0739003
40
0.2089571
50
227.782743
51
270.299566
0
ARC
8
DEFAULT_255_2_778
10
37.3316468
20
18.0512672
40
0.1784418
50
180.2957755
51
227.7668669
0
ARC
8
DEFAULT_255_2_778
10
37.3330964
20
37.1644782
40
0.179896
50
132.4365442
51
179.5006318
0
ARC
8
DEFAULT_255_2_778
10
37.3513969
20
37.1443651
40
0.2070889
50
89.4991083
51
132.4183975
0
ARC
8
DEFAULT_255_2_778
10
38.9542283
20
37.1423045
40
0.209144
50
47.8027191
51
90.279702
0
ARC
8
DEFAULT_255_2_778
10
38.9747679
20
37.1651249
40
0.1784418
50
0.2957755
51
47.7668669
0
ARC
8
DEFAULT_255_2_778
10
38.9731
20
38.4667097
40
0.1801141
50
312.4672218
51
359.5025983
0
ARC
8
DEFAULT_255_2_778
10
38.9549473
20
38.4869107
40
0.2072719
50
269.5190198
51
312.3985422
0
ARC
8
DEFAULT_255_2_778
10
37.3522988
20
38.4890814
40
0.2094373
50
227.8339016
51
270.2485345
0
ARC
8
DEFAULT_255_2_778
10
37.3316983
20
38.4659896
40
0.178493
50
180.2707636
51
227.7594408
0
ARC
8
DEFAULT_255_2_778
10
38.973318
20
67.7867784
40
0.1798961
50
0.4993071
51
47.5633718
0
ARC
8
DEFAULT_255_2_778
10
38.9549855
20
67.7669628
40
0.2068909
50
47.5193851
51
90.4924458
0
ARC
8
DEFAULT_255_2_778
10
37.3522584
20
67.7648018
40
0.2090465
50
89.7399311
51
132.2482361
0
ARC
8
DEFAULT_255_2_778
10
37.3314832
20
67.7874978
40
0.1782779
50
132.2099484
51
179.7273824
0
ARC
8
DEFAULT_255_2_778
10
37.3330959
20
69.0890136
40
0.1798954
50
180.4992367
51
227.5635028
0
ARC
8
DEFAULT_255_2_778
10
37.3513591
20
69.1086466
40
0.2067088
50
227.4995011
51
270.5123057
0
ARC
8
DEFAULT_255_2_778
10
38.9540847
20
69.1111767
40
0.2092324
50
269.7597481
51
312.2284384
0
ARC
8
DEFAULT_255_2_778
10
38.9749315
20
69.0882943
40
0.1782779
50
312.2099484
51
359.7273824
0
ARC
8
DEFAULT_255_2_778
10
38.9733171
20
61.1086142
40
0.179897
50
312.4367363
51
359.5005486
0
ARC
8
DEFAULT_255_2_778
10
38.9549477
20
61.1289097
40
0.2072709
50
269.5189097
51
312.3986451
0
ARC
8
DEFAULT_255_2_778
10
37.3522988
20
61.1310814
40
0.2094373
50
227.8339016
51
270.2485345
0
ARC
8
DEFAULT_255_2_778
10
37.3316466
20
61.1079671
40
0.1784415
50
180.295729
51
227.7668835
0
ARC
8
DEFAULT_255_2_778
10
38.9732669
20
57.5794568
40
0.1799466
50
0.4742
51
47.5560021
0
ARC
8
DEFAULT_255_2_778
10
38.9549468
20
57.5591806
40
0.2072729
50
47.6015345
51
90.4808445
0
ARC
8
DEFAULT_255_2_778
10
37.3522988
20
57.5570108
40
0.2094373
50
89.7514655
51
132.1660984
0
ARC
8
DEFAULT_255_2_778
10
37.3316983
20
57.5801026
40
0.178493
50
132.2405592
51
179.7292364
0
ARC
8
DEFAULT_255_2_778
10
38.9733175
20
28.259314
40
0.1798966
50
312.4367053
51
359.5006352
0
ARC
8
DEFAULT_255_2_778
10
38.9549855
20
28.2791293
40
0.2068909
50
269.5075542
51
312.4806149
0
ARC
8
DEFAULT_255_2_778
10
37.3522585
20
28.2812906
40
0.2090467
50
227.7517978
51
270.2600569
0
ARC
8
DEFAULT_255_2_778
10
37.3314832
20
28.2585943
40
0.1782779
50
180.2726176
51
227.7900516
0
ARC
8
DEFAULT_255_2_778
10
38.973318
20
24.7300784
40
0.1798961
50
0.4993071
51
47.5633718
0
ARC
8
DEFAULT_255_2_778
10
38.9549855
20
24.7102628
40
0.2068909
50
47.5193851
51
90.4924458
0
ARC
8
DEFAULT_255_2_778
10
38.9542283
20
71.0124045
40
0.209144
50
47.8027191
51
90.279702
0
ARC
8
DEFAULT_255_2_778
10
38.9747681
20
71.0352251
40
0.1784415
50
0.295729
51
47.7668835
0
ARC
8
DEFAULT_255_2_778
10
38.9729341
20
14.8042836
40
0.1802806
50
312.4902399
51
359.4795536
0
ARC
8
DEFAULT_255_2_778
10
38.9549469
20
14.8244109
40
0.2072723
50
269.5191172
51
312.3985736
0
ARC
8
DEFAULT_255_2_778
10
37.3522988
20
14.8265814
40
0.2094373
50
227.8339016
51
270.2485345
0
ARC
8
DEFAULT_255_2_778
10
37.3318612
20
14.8035622
40
0.1786562
50
180.2938036
51
227.7364276
0
ARC
8
DEFAULT_255_2_778
10
37.3334797
20
71.0347088
40
0.1802798
50
132.4901159
51
179.479636
0
ARC
8
DEFAULT_255_2_778
10
37.3513974
20
71.0147644
40
0.2070897
50
89.4992319
51
132.418355
0
LINE
8
DEFAULT_255_2_778
10
37.3532073
20
47.5591461
11
38.9532073
21
47.5591461
0
LINE
8
DEFAULT_255_2_778
10
37.3532073
20
48.4872461
11
38.9532073
21
48.4872461
0
LINE
8
DEFAULT_255_2_778
10
37.3532073
20
16.9367461
11
38.9532073
21
16.9367461
0
LINE
8
DEFAULT_255_2_778
10
38.9532073
20
17.8649461
11
37.3532073
21
17.8649461
0
LINE
8
DEFAULT_255_2_778
10
37.3532073
20
37.3514461
11
38.9532073
21
37.3514461
0
LINE
8
DEFAULT_255_2_778
10
38.9532073
20
38.2796461
11
37.3532073
21
38.2796461
0
LINE
8
DEFAULT_255_2_778
10
38.9532073
20
67.9738461
11
37.3532073
21
67.9738461
0
LINE
8
DEFAULT_255_2_778
10
37.3532073
20
68.9019461
11
38.9532073
21
68.9019461
0
LINE
8
DEFAULT_255_2_778
10
38.9532073
20
60.9216461
11
37.3532073
21
60.9216461
0
LINE
8
DEFAULT_255_2_778
10
38.9532073
20
57.7664461
11
37.3532073
21
57.7664461
0
LINE
8
DEFAULT_255_2_778
10
38.9532073
20
28.0722461
11
37.3532073
21
28.0722461
0
LINE
8
DEFAULT_255_2_778
10
38.9532073
20
24.9171461
11
37.1532073
21
24.9171461
0
LINE
8
DEFAULT_255_2_778
10
39.1532073
20
71.0361461
11
39.1532073
21
14.8026461
0
LINE
8
DEFAULT_255_2_778
10
38.9532073
20
14.6171461
11
37.3532073
21
14.6171461
0
LINE
8
DEFAULT_255_2_778
10
37.1532073
20
14.8026461
11
37.1532073
21
71.0363461
0
LINE
8
DEFAULT_255_2_778
10
37.3532073
20
71.2218461
11
38.9532073
21
71.2215461
0
ARC
8
DEFAULT_255_2_778
10
40.3328973
20
16.7496456
40
0.1798968
50
132.436689
51
179.5005403
0
ARC
8
DEFAULT_255_2_778
10
40.3511592
20
16.7300126
40
0.2067094
50
89.4877344
51
132.5003858
0
ARC
8
DEFAULT_255_2_778
10
41.9538843
20
16.7274829
40
0.2092328
50
47.7715509
51
90.240147
0
ARC
8
DEFAULT_255_2_778
10
41.9747315
20
16.7503655
40
0.1782779
50
0.2726176
51
47.7900516
0
ARC
8
DEFAULT_255_2_778
10
40.3328967
20
18.0518814
40
0.1798962
50
180.4992661
51
227.5633186
0
ARC
8
DEFAULT_255_2_778
10
40.3511591
20
18.0715143
40
0.2067088
50
227.4995011
51
270.5123057
0
ARC
8
DEFAULT_255_2_778
10
41.9538848
20
18.0740446
40
0.2092327
50
269.759702
51
312.2283595
0
ARC
8
DEFAULT_255_2_778
10
41.9747315
20
18.0511621
40
0.1782779
50
312.2099484
51
359.7273824
0
ARC
8
DEFAULT_255_2_778
10
41.9731179
20
61.1085816
40
0.1798963
50
312.4366313
51
359.5006525
0
ARC
8
DEFAULT_255_2_778
10
41.9546053
20
61.1288666
40
0.2073589
50
269.5584507
51
312.4297092
0
ARC
8
DEFAULT_255_2_778
10
40.3520586
20
61.1305586
40
0.2090469
50
227.7518114
51
270.2600175
0
ARC
8
DEFAULT_255_2_778
10
40.3312832
20
61.1078621
40
0.1782779
50
180.2726176
51
227.7900516
0
ARC
8
DEFAULT_255_2_778
10
40.3332803
20
28.2593512
40
0.1802804
50
180.5204016
51
227.5097761
0
ARC
8
DEFAULT_255_2_778
10
40.3511972
20
28.279296
40
0.2070899
50
227.5817846
51
270.5008271
0
ARC
8
DEFAULT_255_2_778
10
41.9538442
20
28.281836
40
0.2096239
50
269.7712639
51
312.1463194
0
ARC
8
DEFAULT_255_2_778
10
41.9743528
20
28.2586301
40
0.1786568
50
312.2637005
51
359.7061518
0
ARC
8
DEFAULT_255_2_778
10
40.3328962
20
48.6739814
40
0.1798958
50
180.4992826
51
227.5634422
0
ARC
8
DEFAULT_255_2_778
10
40.3511591
20
48.6936143
40
0.2067088
50
227.4995011
51
270.5123057
0
ARC
8
DEFAULT_255_2_778
10
41.9538847
20
48.6961444
40
0.2092324
50
269.7597481
51
312.2284384
0
ARC
8
DEFAULT_255_2_778
10
41.9747315
20
48.6732621
40
0.1782779
50
312.2099484
51
359.7273824
0
ARC
8
DEFAULT_255_2_778
10
41.9731183
20
47.3717462
40
0.1798958
50
0.4992798
51
47.5634258
0
ARC
8
DEFAULT_255_2_778
10
41.9546053
20
47.351461
40
0.2073589
50
47.5702908
51
90.4415493
0
ARC
8
DEFAULT_255_2_778
10
40.3520584
20
47.3497695
40
0.2090465
50
89.7399311
51
132.2482361
0
ARC
8
DEFAULT_255_2_778
10
40.3312832
20
47.3724655
40
0.1782779
50
132.2099484
51
179.7273824
0
ARC
8
DEFAULT_255_2_778
10
41.9727345
20
37.1642764
40
0.1802802
50
0.5203885
51
47.5098137
0
ARC
8
DEFAULT_255_2_778
10
41.9547477
20
37.1441502
40
0.2072709
50
47.6013549
51
90.4810903
0
ARC
8
DEFAULT_255_2_778
10
40.3520988
20
37.1419785
40
0.2094373
50
89.7514655
51
132.1660984
0
ARC
8
DEFAULT_255_2_778
10
40.3316614
20
37.1649975
40
0.1786565
50
132.263589
51
179.70615
0
ARC
8
DEFAULT_255_2_778
10
40.3328958
20
38.4665811
40
0.1798954
50
180.4991746
51
227.5634634
0
ARC
8
DEFAULT_255_2_778
10
40.3511969
20
38.4866948
40
0.2070888
50
227.5815976
51
270.5008934
0
ARC
8
DEFAULT_255_2_778
10
41.9540291
20
38.488754
40
0.2091427
50
269.7200826
51
312.1973736
0
ARC
8
DEFAULT_255_2_778
10
41.9745684
20
38.4659348
40
0.1784413
50
312.2330454
51
359.7042797
0
ARC
8
DEFAULT_255_2_778
10
40.3332803
20
69.0890513
40
0.1802804
50
180.5204333
51
227.5097976
0
ARC
8
DEFAULT_255_2_778
10
40.3511971
20
69.1089945
40
0.2070888
50
227.5815183
51
270.5008479
0
ARC
8
DEFAULT_255_2_778
10
41.9538442
20
69.111536
40
0.2096239
50
269.7712639
51
312.1463194
0
ARC
8
DEFAULT_255_2_778
10
41.9743531
20
69.08833
40
0.1786565
50
312.2636294
51
359.7061605
0
ARC
8
DEFAULT_255_2_778
10
41.9731184
20
67.7867462
40
0.1798957
50
0.4992612
51
47.5634324
0
ARC
8
DEFAULT_255_2_778
10
41.9547472
20
67.7664495
40
0.2072717
50
47.6013975
51
90.4809667
0
ARC
8
DEFAULT_255_2_778
10
40.3519149
20
67.7647591
40
0.2089576
50
89.7004602
51
132.2171828
0
ARC
8
DEFAULT_255_2_778
10
40.3314467
20
67.7873927
40
0.1784417
50
132.2331266
51
179.7042429
0
ARC
8
DEFAULT_255_2_778
10
41.973118
20
24.7300461
40
0.1798961
50
0.4993071
51
47.5633718
0
ARC
8
DEFAULT_255_2_778
10
41.9547477
20
24.7097502
40
0.2072709
50
47.6013549
51
90.4810903
0
ARC
8
DEFAULT_255_2_778
10
41.9731183
20
57.5793462
40
0.1798958
50
0.4992798
51
47.5634258
0
ARC
8
DEFAULT_255_2_778
10
41.9547855
20
57.5595306
40
0.2068909
50
47.5193851
51
90.4924458
0
ARC
8
DEFAULT_255_2_778
10
40.3520584
20
57.5573695
40
0.2090465
50
89.7399311
51
132.2482361
0
ARC
8
DEFAULT_255_2_778
10
40.3312832
20
57.5800655
40
0.1782779
50
132.2099484
51
179.7273824
0
ARC
8
DEFAULT_255_2_778
10
40.3332797
20
71.0343765
40
0.1802798
50
132.4901159
51
179.479636
0
ARC
8
DEFAULT_255_2_778
10
40.3511972
20
71.0144323
40
0.2070894
50
89.4991921
51
132.4183687
0
ARC
8
DEFAULT_255_2_778
10
41.9538442
20
71.0118914
40
0.209624
50
47.8537015
51
90.2287287
0
ARC
8
DEFAULT_255_2_778
10
41.9743532
20
71.0350976
40
0.1786564
50
0.2938212
51
47.7363771
0
ARC
8
DEFAULT_255_2_778
10
41.973118
20
14.8040815
40
0.1798961
50
312.4366212
51
359.5006808
0
ARC
8
DEFAULT_255_2_778
10
41.9547469
20
14.8243786
40
0.2072723
50
269.5191172
51
312.3985736
0
ARC
8
DEFAULT_255_2_778
10
40.3520988
20
14.8265491
40
0.2094373
50
227.8339016
51
270.2485345
0
ARC
8
DEFAULT_255_2_778
10
40.3314459
20
14.8034347
40
0.178441
50
180.2956843
51
227.7670117
0
LINE
8
DEFAULT_255_2_778
10
40.3530073
20
16.9367138
11
41.9530073
21
16.9367138
0
LINE
8
DEFAULT_255_2_778
10
40.3530073
20
17.8648138
11
41.9530073
21
17.8648138
0
LINE
8
DEFAULT_255_2_778
10
41.9530073
20
60.9215138
11
40.3530073
21
60.9215138
0
LINE
8
DEFAULT_255_2_778
10
40.3530073
20
28.0722138
11
41.9530073
21
28.0722138
0
LINE
8
DEFAULT_255_2_778
10
40.3530073
20
48.4869138
11
41.9530073
21
48.4869138
0
LINE
8
DEFAULT_255_2_778
10
41.9530073
20
47.5588138
11
40.3530073
21
47.5588138
0
LINE
8
DEFAULT_255_2_778
10
41.9530073
20
37.3514138
11
40.3530073
21
37.3514138
0
LINE
8
DEFAULT_255_2_778
10
40.3530073
20
38.2796138
11
41.9530073
21
38.2796138
0
LINE
8
DEFAULT_255_2_778
10
40.3530073
20
68.9019138
11
41.9530073
21
68.9019138
0
LINE
8
DEFAULT_255_2_778
10
41.9530073
20
67.9737138
11
40.3530073
21
67.9737138
0
LINE
8
DEFAULT_255_2_778
10
41.9530073
20
24.9170138
11
40.1530073
21
24.9170138
0
LINE
8
DEFAULT_255_2_778
10
41.9530073
20
57.7664138
11
40.3530073
21
57.7664138
0
LINE
8
DEFAULT_255_2_778
10
40.3530073
20
71.2215138
11
41.9530073
21
71.2215138
0
LINE
8
DEFAULT_255_2_778
10
42.1530073
20
71.0360138
11
42.1530073
21
14.8025138
0
LINE
8
DEFAULT_255_2_778
10
41.9530073
20
14.6171138
11
40.3530073
21
14.6171138
0
LINE
8
DEFAULT_255_2_778
10
40.1530073
20
14.8025138
11
40.1530073
21
71.0360138
0
ARC
8
DEFAULT_255_2_778
10
43.3333805
20
69.0893282
40
0.1802806
50
180.5204464
51
227.5097601
0
ARC
8
DEFAULT_255_2_778
10
43.3512975
20
69.1092721
40
0.2070896
50
227.5815609
51
270.5007243
0
ARC
8
DEFAULT_255_2_778
10
44.9539442
20
69.1118129
40
0.2096239
50
269.7712639
51
312.1463194
0
ARC
8
DEFAULT_255_2_778
10
44.9744531
20
69.0886068
40
0.1786566
50
312.2636501
51
359.7061694
0
ARC
8
DEFAULT_255_2_778
10
43.3329971
20
8.7726582
40
0.1798966
50
180.4992568
51
227.5632274
0
ARC
8
DEFAULT_255_2_778
10
43.351297
20
8.7927721
40
0.2070893
50
227.5816716
51
270.5008672
0
ARC
8
DEFAULT_255_2_778
10
44.9541291
20
8.7948308
40
0.2091427
50
269.7200826
51
312.1973736
0
ARC
8
DEFAULT_255_2_778
10
44.9746681
20
8.7720117
40
0.1784415
50
312.2331165
51
359.704271
0
ARC
8
DEFAULT_255_2_778
10
43.3329958
20
18.0521579
40
0.1798954
50
180.4991746
51
227.5634634
0
ARC
8
DEFAULT_255_2_778
10
43.3512591
20
18.0717911
40
0.2067088
50
227.4995011
51
270.5123057
0
ARC
8
DEFAULT_255_2_778
10
44.9539843
20
18.0743214
40
0.2092326
50
269.7598456
51
312.22847
0
ARC
8
DEFAULT_255_2_778
10
44.9748315
20
18.0514389
40
0.1782779
50
312.2099484
51
359.7273824
0
ARC
8
DEFAULT_255_2_778
10
44.9732175
20
38.4668587
40
0.1798966
50
312.4366588
51
359.5005756
0
ARC
8
DEFAULT_255_2_778
10
44.9548474
20
38.4871547
40
0.2072715
50
269.5189935
51
312.3986162
0
ARC
8
DEFAULT_255_2_778
10
43.3520149
20
38.4888456
40
0.2089578
50
227.7828511
51
270.2995278
0
ARC
8
DEFAULT_255_2_778
10
43.3315466
20
38.4662117
40
0.1784416
50
180.2957474
51
227.7668769
0
ARC
8
DEFAULT_255_2_778
10
43.3329959
20
61.108858
40
0.1798954
50
180.4991933
51
227.5634568
0
ARC
8
DEFAULT_255_2_778
10
43.351439
20
61.1289602
40
0.2071763
50
227.5504677
51
270.4613917
0
ARC
8
DEFAULT_255_2_778
10
44.9539847
20
61.1310212
40
0.2092324
50
269.7597481
51
312.2284384
0
ARC
8
DEFAULT_255_2_778
10
44.9748315
20
61.1081389
40
0.1782779
50
312.2099484
51
359.7273824
0
ARC
8
DEFAULT_255_2_778
10
43.3330473
20
48.6744797
40
0.1799462
50
180.4741136
51
227.556033
0
ARC
8
DEFAULT_255_2_778
10
43.3512972
20
48.6945716
40
0.207089
50
227.581532
51
270.5008082
0
ARC
8
DEFAULT_255_2_778
10
44.9539442
20
48.6971129
40
0.2096239
50
269.7712639
51
312.1463194
0
ARC
8
DEFAULT_255_2_778
10
44.9746163
20
48.6738341
40
0.178493
50
312.2405592
51
359.7292364
0
ARC
8
DEFAULT_255_2_778
10
43.3329962
20
28.259758
40
0.1798957
50
180.4992108
51
227.5634062
0
ARC
8
DEFAULT_255_2_778
10
43.3512968
20
28.2798709
40
0.2070882
50
227.5814894
51
270.5009318
0
ARC
8
DEFAULT_255_2_778
10
44.9730006
20
32.0613274
40
0.1801135
50
0.4972969
51
47.5328485
0
ARC
8
DEFAULT_255_2_778
10
44.9548477
20
32.041127
40
0.2072709
50
47.6013549
51
90.4810903
0
ARC
8
DEFAULT_255_2_778
10
43.3329958
20
33.3635579
40
0.1798954
50
180.4991746
51
227.5634634
0
ARC
8
DEFAULT_255_2_778
10
43.3512974
20
33.3836723
40
0.2070897
50
227.5816402
51
270.5007698
0
ARC
8
DEFAULT_255_2_778
10
43.3521581
20
32.0396473
40
0.2090455
50
89.7398207
51
132.2483393
0
ARC
8
DEFAULT_255_2_778
10
43.3313832
20
32.0623424
40
0.1782779
50
132.2099484
51
179.7273824
0
ARC
8
DEFAULT_255_2_778
10
43.332996
20
53.7788582
40
0.1798955
50
180.499265
51
227.5634927
0
ARC
8
DEFAULT_255_2_778
10
43.3512591
20
53.7984911
40
0.2067088
50
227.4995011
51
270.5123057
0
ARC
8
DEFAULT_255_2_778
10
43.3521988
20
52.4544553
40
0.2094373
50
89.7514655
51
132.1660984
0
ARC
8
DEFAULT_255_2_778
10
43.3315466
20
52.4775696
40
0.1784415
50
132.2331165
51
179.704271
0
ARC
8
DEFAULT_255_2_778
10
44.9728341
20
33.3642282
40
0.1802806
50
312.4902399
51
359.4795536
0
ARC
8
DEFAULT_255_2_778
10
44.9548474
20
33.3843555
40
0.207272
50
269.5189742
51
312.3984629
0
ARC
8
DEFAULT_255_2_778
10
44.9732175
20
52.4769228
40
0.1798966
50
0.4993527
51
47.5632876
0
ARC
8
DEFAULT_255_2_778
10
44.9548471
20
52.4566256
40
0.2072724
50
47.6015056
51
90.4809284
0
ARC
8
DEFAULT_255_2_778
10
43.3329964
20
67.7878228
40
0.179896
50
132.4365442
51
179.5006318
0
ARC
8
DEFAULT_255_2_778
10
43.3512972
20
67.7677091
40
0.2070894
50
89.4991921
51
132.4183687
0
ARC
8
DEFAULT_255_2_778
10
44.9541287
20
67.7656498
40
0.2091433
50
47.8026764
51
90.2798257
0
ARC
8
DEFAULT_255_2_778
10
44.9746684
20
67.7884697
40
0.1784413
50
0.2957203
51
47.7669546
0
ARC
8
DEFAULT_255_2_778
10
44.9728345
20
77.0671533
40
0.1802802
50
0.5203885
51
47.5098137
0
ARC
8
DEFAULT_255_2_778
10
44.9548469
20
77.0470258
40
0.2072723
50
47.6014264
51
90.4808828
0
ARC
8
DEFAULT_255_2_778
10
43.3521988
20
77.0448553
40
0.2094373
50
89.7514655
51
132.1660984
0
ARC
8
DEFAULT_255_2_778
10
43.3317617
20
77.0678743
40
0.1786567
50
132.2636601
51
179.7061413
0
ARC
8
DEFAULT_255_2_778
10
44.9732184
20
16.7507231
40
0.1798957
50
0.4992612
51
47.5634324
0
ARC
8
DEFAULT_255_2_778
10
44.9548855
20
16.7309074
40
0.2068909
50
47.5193851
51
90.4924458
0
ARC
8
DEFAULT_255_2_778
10
43.3521588
20
16.7287461
40
0.2090467
50
89.7400285
51
132.2482676
0
ARC
8
DEFAULT_255_2_778
10
43.3313832
20
16.7514424
40
0.1782779
50
132.2099484
51
179.7273824
0
ARC
8
DEFAULT_255_2_778
10
43.3329965
20
37.1654227
40
0.179896
50
132.4365509
51
179.5006131
0
ARC
8
DEFAULT_255_2_778
10
43.3512591
20
37.1457899
40
0.206709
50
89.4877106
51
132.500453
0
ARC
8
DEFAULT_255_2_778
10
44.9539846
20
37.1432599
40
0.2092326
50
47.7715825
51
90.2402445
0
ARC
8
DEFAULT_255_2_778
10
44.9748315
20
37.1661424
40
0.1782779
50
0.2726176
51
47.7900516
0
ARC
8
DEFAULT_255_2_778
10
43.3333797
20
57.5800533
40
0.1802798
50
132.4901159
51
179.479636
0
ARC
8
DEFAULT_255_2_778
10
43.3512968
20
57.5601101
40
0.2070885
50
89.4990845
51
132.4184646
0
ARC
8
DEFAULT_255_2_778
10
44.9732175
20
53.7785587
40
0.1798966
50
312.4366588
51
359.5005756
0
ARC
8
DEFAULT_255_2_778
10
44.9548468
20
53.7988562
40
0.2072729
50
269.5191555
51
312.3984655
0
ARC
8
DEFAULT_255_2_778
10
43.3329966
20
47.3728227
40
0.1798961
50
132.4365543
51
179.5006035
0
ARC
8
DEFAULT_255_2_778
10
43.3512969
20
47.3527096
40
0.2070889
50
89.4991083
51
132.4183975
0
ARC
8
DEFAULT_255_2_778
10
44.9541283
20
47.3506491
40
0.209144
50
47.8027191
51
90.279702
0
ARC
8
DEFAULT_255_2_778
10
44.9746685
20
47.3734697
40
0.1784412
50
0.2957019
51
47.7669612
0
ARC
8
DEFAULT_255_2_778
10
43.3329964
20
24.7308228
40
0.179896
50
132.4365442
51
179.5006318
0
ARC
8
DEFAULT_255_2_778
10
43.3512592
20
24.7111894
40
0.2067094
50
89.4877344
51
132.5003858
0
ARC
8
DEFAULT_255_2_778
10
44.9539843
20
24.7086597
40
0.2092328
50
47.7715509
51
90.240147
0
ARC
8
DEFAULT_255_2_778
10
44.9748315
20
24.7315424
40
0.1782779
50
0.2726176
51
47.7900516
0
LINE
8
DEFAULT_255_2_778
10
43.3531073
20
68.9021906
11
44.9531073
21
68.9021906
0
LINE
8
DEFAULT_255_2_778
10
43.3531073
20
8.5856906
11
44.9531073
21
8.5856906
0
LINE
8
DEFAULT_255_2_778
10
43.3531073
20
17.8650906
11
44.9531073
21
17.8650906
0
LINE
8
DEFAULT_255_2_778
10
44.9531073
20
38.2798906
11
43.3531073
21
38.2798906
0
LINE
8
DEFAULT_255_2_778
10
43.3531073
20
60.9217906
11
44.9531073
21
60.9217906
0
LINE
8
DEFAULT_255_2_778
10
43.3531073
20
48.4874906
11
44.9531073
21
48.4874906
0
LINE
8
DEFAULT_255_2_778
10
43.3531073
20
28.0727906
11
45.1531073
21
28.0727906
0
LINE
8
DEFAULT_255_2_778
10
45.1531073
20
28.0727906
11
45.1531073
21
32.0628906
0
LINE
8
DEFAULT_255_2_778
10
43.1531073
20
3.4820906
11
45.1531073
21
3.4820906
0
LINE
8
DEFAULT_255_2_778
10
43.3531073
20
33.1765906
11
45.1531073
21
33.1765906
0
LINE
8
DEFAULT_255_2_778
10
45.1531073
20
33.1765906
11
45.1531073
21
32.2486906
0
LINE
8
DEFAULT_255_2_778
10
45.1531073
20
32.2486906
11
43.3531073
21
32.2486906
0
LINE
8
DEFAULT_255_2_778
10
43.3531073
20
53.5917906
11
45.1531073
21
53.5917906
0
LINE
8
DEFAULT_255_2_778
10
45.1531073
20
53.5917906
11
45.1531073
21
52.6638906
0
LINE
8
DEFAULT_255_2_778
10
45.1531073
20
52.6638906
11
43.3531073
21
52.6638906
0
LINE
8
DEFAULT_255_2_778
10
45.1531073
20
34.3369906
11
45.1531073
21
33.3625906
0
LINE
8
DEFAULT_255_2_778
10
45.1531073
20
51.5039906
11
45.1531073
21
52.4784906
0
LINE
8
DEFAULT_255_2_778
10
43.3531073
20
67.9747906
11
44.9531073
21
67.9747906
0
LINE
8
DEFAULT_255_2_778
10
44.9531073
20
77.2542906
11
43.3531073
21
77.2542906
0
LINE
8
DEFAULT_255_2_778
10
44.9531073
20
16.9377906
11
43.3531073
21
16.9377906
0
LINE
8
DEFAULT_255_2_778
10
43.3531073
20
37.3524906
11
44.9531073
21
37.3524906
0
LINE
8
DEFAULT_255_2_778
10
43.3531073
20
57.7671906
11
45.1531073
21
57.7671906
0
LINE
8
DEFAULT_255_2_778
10
45.1531073
20
57.7671906
11
45.1531073
21
53.7769906
0
LINE
8
DEFAULT_255_2_778
10
43.3531073
20
47.5597906
11
44.9531073
21
47.5597906
0
LINE
8
DEFAULT_255_2_778
10
43.3531073
20
24.9178906
11
44.9531073
21
24.9178906
0
ARC
8
DEFAULT_255_2_778
10
46.3328971
20
16.7499642
40
0.1798966
50
132.4366722
51
179.5005872
0
ARC
8
DEFAULT_255_2_778
10
46.35134
20
16.7298599
40
0.207179
50
89.5388966
51
132.4492329
0
ARC
8
DEFAULT_255_2_778
10
47.9538846
20
16.7278013
40
0.2092328
50
47.7716163
51
90.2402325
0
ARC
8
DEFAULT_255_2_778
10
47.9747315
20
16.750684
40
0.1782779
50
0.2726176
51
47.7900516
0
ARC
8
DEFAULT_255_2_778
10
47.9731179
20
18.0522
40
0.1798962
50
312.4366278
51
359.5006622
0
ARC
8
DEFAULT_255_2_778
10
47.9547855
20
18.0720155
40
0.2068909
50
269.5075542
51
312.4806149
0
ARC
8
DEFAULT_255_2_778
10
46.3520585
20
18.0741768
40
0.2090467
50
227.7517978
51
270.2600569
0
ARC
8
DEFAULT_255_2_778
10
46.3312832
20
18.0514805
40
0.1782779
50
180.2726176
51
227.7900516
0
ARC
8
DEFAULT_255_2_778
10
47.9730669
20
67.787043
40
0.1799466
50
0.4742
51
47.5560021
0
ARC
8
DEFAULT_255_2_778
10
47.9547469
20
67.7667674
40
0.2072723
50
47.6014264
51
90.4808828
0
ARC
8
DEFAULT_255_2_778
10
46.3520988
20
67.7645969
40
0.2094373
50
89.7514655
51
132.1660984
0
ARC
8
DEFAULT_255_2_778
10
46.3314983
20
67.7876887
40
0.178493
50
132.2405592
51
179.7292364
0
ARC
8
DEFAULT_255_2_778
10
47.9730665
20
69.0892217
40
0.179947
50
312.4440515
51
359.525742
0
ARC
8
DEFAULT_255_2_778
10
47.9547474
20
69.1094963
40
0.2072715
50
269.5189935
51
312.3986162
0
ARC
8
DEFAULT_255_2_778
10
46.3520988
20
69.1116676
40
0.2094373
50
227.8339016
51
270.2485345
0
ARC
8
DEFAULT_255_2_778
10
46.3314983
20
69.0885757
40
0.178493
50
180.2707636
51
227.7594408
0
ARC
8
DEFAULT_255_2_778
10
46.3328959
20
38.4668996
40
0.1798954
50
180.4991933
51
227.5634568
0
ARC
8
DEFAULT_255_2_778
10
46.3511591
20
38.4865327
40
0.2067088
50
227.4995011
51
270.5123057
0
ARC
8
DEFAULT_255_2_778
10
47.9538841
20
38.4890643
40
0.2092339
50
269.7599099
51
312.2282877
0
ARC
8
DEFAULT_255_2_778
10
47.9747315
20
38.4661805
40
0.1782779
50
312.2099484
51
359.7273824
0
ARC
8
DEFAULT_255_2_778
10
47.9731183
20
37.1646646
40
0.1798958
50
0.4992798
51
47.5634258
0
ARC
8
DEFAULT_255_2_778
10
47.9547855
20
37.144849
40
0.2068909
50
47.5193851
51
90.4924458
0
ARC
8
DEFAULT_255_2_778
10
46.3520584
20
37.1426879
40
0.2090465
50
89.7399311
51
132.2482361
0
ARC
8
DEFAULT_255_2_778
10
46.3312832
20
37.165384
40
0.1782779
50
132.2099484
51
179.7273824
0
ARC
8
DEFAULT_255_2_778
10
47.9727341
20
48.6743698
40
0.1802806
50
312.4902399
51
359.4795536
0
ARC
8
DEFAULT_255_2_778
10
47.9547472
20
48.6944966
40
0.2072717
50
269.5190333
51
312.3986025
0
ARC
8
DEFAULT_255_2_778
10
46.3520988
20
48.6966676
40
0.2094373
50
227.8339016
51
270.2485345
0
ARC
8
DEFAULT_255_2_778
10
46.3316617
20
48.6736485
40
0.1786567
50
180.2938587
51
227.7363399
0
ARC
8
DEFAULT_255_2_778
10
47.9731178
20
47.3720645
40
0.1798964
50
0.4993351
51
47.5633382
0
ARC
8
DEFAULT_255_2_778
10
47.9547472
20
47.3517679
40
0.2072717
50
47.6013975
51
90.4809667
0
ARC
8
DEFAULT_255_2_778
10
46.3519149
20
47.3500775
40
0.2089576
50
89.7004602
51
132.2171828
0
ARC
8
DEFAULT_255_2_778
10
46.3314462
20
47.3727113
40
0.1784412
50
132.2330388
51
179.7042981
0
ARC
8
DEFAULT_255_2_778
10
47.9538442
20
77.0436099
40
0.209624
50
47.8537015
51
90.2287287
0
ARC
8
DEFAULT_255_2_778
10
47.9745684
20
77.0669113
40
0.1784413
50
0.2957203
51
47.7669546
0
ARC
8
DEFAULT_255_2_778
10
47.9538442
20
28.2818544
40
0.2096239
50
269.7712639
51
312.1463194
0
ARC
8
DEFAULT_255_2_778
10
47.9743533
20
28.2586485
40
0.1786565
50
312.263589
51
359.70615
0
ARC
8
DEFAULT_255_2_778
10
47.9731184
20
24.7300647
40
0.1798957
50
0.4992612
51
47.5634324
0
ARC
8
DEFAULT_255_2_778
10
47.9546044
20
24.7097775
40
0.2073609
50
47.5704704
51
90.4413035
0
ARC
8
DEFAULT_255_2_778
10
46.3520588
20
24.7080877
40
0.2090467
50
89.7400285
51
132.2482676
0
ARC
8
DEFAULT_255_2_778
10
46.3312832
20
24.730784
40
0.1782779
50
132.2099484
51
179.7273824
0
ARC
8
DEFAULT_255_2_778
10
47.9730665
20
8.7724217
40
0.179947
50
312.4440515
51
359.525742
0
ARC
8
DEFAULT_255_2_778
10
47.9547469
20
8.792697
40
0.2072723
50
269.5191172
51
312.3985736
0
ARC
8
DEFAULT_255_2_778
10
46.3520988
20
8.7948676
40
0.2094373
50
227.8339016
51
270.2485345
0
ARC
8
DEFAULT_255_2_778
10
46.3314983
20
8.7717757
40
0.178493
50
180.2707636
51
227.7594408
0
ARC
8
DEFAULT_255_2_778
10
47.9538442
20
57.5568099
40
0.209624
50
47.8537015
51
90.2287287
0
ARC
8
DEFAULT_255_2_778
10
47.974353
20
57.5800159
40
0.1786567
50
0.2938587
51
47.7363399
0
ARC
8
DEFAULT_255_2_778
10
47.9731175
20
61.1089003
40
0.1798966
50
312.4366588
51
359.5005756
0
ARC
8
DEFAULT_255_2_778
10
47.9547855
20
61.1287155
40
0.2068909
50
269.5075542
51
312.4806149
0
ARC
8
DEFAULT_255_2_778
10
46.3520585
20
61.1308763
40
0.2090462
50
227.7517033
51
270.2600557
0
ARC
8
DEFAULT_255_2_778
10
46.3312832
20
61.1081805
40
0.1782779
50
180.2726176
51
227.7900516
0
LINE
8
DEFAULT_255_2_778
10
46.2969073
20
47.5519322
11
46.2969073
21
38.2872322
0
LINE
8
DEFAULT_255_2_778
10
46.1530073
20
3.4818322
11
48.1530073
21
3.4818322
0
LINE
8
DEFAULT_255_2_778
10
48.1530073
20
82.3573322
11
46.1530073
21
82.3573322
0
LINE
8
DEFAULT_255_2_778
10
46.3530073
20
16.9370322
11
47.9530073
21
16.9370322
0
LINE
8
DEFAULT_255_2_778
10
47.9530073
20
17.8651322
11
46.3530073
21
17.8651322
0
LINE
8
DEFAULT_255_2_778
10
47.9530073
20
67.9740322
11
46.3530073
21
67.9740322
0
LINE
8
DEFAULT_255_2_778
10
47.9530073
20
68.9022322
11
46.3530073
21
68.9022322
0
LINE
8
DEFAULT_255_2_778
10
46.3530073
20
38.2798322
11
47.9530073
21
38.2798322
0
LINE
8
DEFAULT_255_2_778
10
47.9530073
20
37.3517322
11
46.3530073
21
37.3517322
0
LINE
8
DEFAULT_255_2_778
10
47.9530073
20
48.4872322
11
46.3530073
21
48.4872322
0
LINE
8
DEFAULT_255_2_778
10
47.9530073
20
47.5590322
11
46.3530073
21
47.5590322
0
LINE
8
DEFAULT_255_2_778
10
46.2969073
20
37.3443322
11
46.2943073
21
34.0079322
0
LINE
8
DEFAULT_255_2_778
10
46.2943073
20
34.0079322
11
46.2922073
21
33.9227322
0
LINE
8
DEFAULT_255_2_778
10
46.2922073
20
33.9227322
11
46.2895073
21
33.8777322
0
LINE
8
DEFAULT_255_2_778
10
46.2895073
20
33.8777322
11
46.2882073
21
33.8719322
0
LINE
8
DEFAULT_255_2_778
10
46.2882073
20
51.9667322
11
46.2906073
21
51.9493322
0
LINE
8
DEFAULT_255_2_778
10
46.2906073
20
51.9493322
11
46.2932073
21
51.8781322
0
LINE
8
DEFAULT_255_2_778
10
46.2932073
20
51.8781322
11
46.2959073
21
51.7133322
0
LINE
8
DEFAULT_255_2_778
10
46.2959073
20
51.7133322
11
46.2969073
21
48.4943322
0
LINE
8
DEFAULT_255_2_778
10
46.1530073
20
51.9667322
11
46.1530073
21
51.5027322
0
LINE
8
DEFAULT_255_2_778
10
46.1530073
20
77.2532322
11
47.9530073
21
77.2532322
0
LINE
8
DEFAULT_255_2_778
10
46.1530073
20
28.2577322
11
46.1530073
21
28.0722322
0
LINE
8
DEFAULT_255_2_778
10
46.1530073
20
28.0722322
11
47.9530073
21
28.0722322
0
LINE
8
DEFAULT_255_2_778
10
48.1530073
20
28.2577322
11
47.2672073
21
28.2577322
0
LINE
8
DEFAULT_255_2_778
10
47.9530073
20
24.9171322
11
46.3530073
21
24.9171322
0
LINE
8
DEFAULT_255_2_778
10
47.9530073
20
8.5854322
11
46.3530073
21
8.5854322
0
LINE
8
DEFAULT_255_2_778
10
46.1530073
20
57.5809322
11
46.1530073
21
57.7664322
0
LINE
8
DEFAULT_255_2_778
10
46.1530073
20
57.7664322
11
47.9530073
21
57.7664322
0
LINE
8
DEFAULT_255_2_778
10
48.1530073
20
57.5809322
11
47.7058073
21
57.5809322
0
LINE
8
DEFAULT_255_2_778
10
47.7058073
20
57.5809322
11
47.2669073
21
57.5809322
0
LINE
8
DEFAULT_255_2_778
10
47.2669073
20
57.5809322
11
47.2669073
21
51.9667322
0
LINE
8
DEFAULT_255_2_778
10
47.2669073
20
51.9667322
11
47.4029073
21
51.9654322
0
LINE
8
DEFAULT_255_2_778
10
47.4029073
20
51.9654322
11
47.4055073
21
51.9315322
0
LINE
8
DEFAULT_255_2_778
10
47.4055073
20
51.9315322
11
47.4082073
21
51.8437322
0
LINE
8
DEFAULT_255_2_778
10
47.4082073
20
51.8437322
11
47.4111073
21
48.4872322
0
LINE
8
DEFAULT_255_2_778
10
47.9530073
20
60.9218322
11
46.3530073
21
60.9218322
0
LINE
8
DEFAULT_255_2_778
10
46.1530073
20
34.6701322
11
46.2969073
21
34.6701322
0
LINE
8
DEFAULT_255_2_778
10
46.1530073
20
51.1690322
11
46.2969073
21
51.1690322
0
ARC
8
DEFAULT_255_2_778
10
50.9732184
20
16.7497083
40
0.1798957
50
0.4992612
51
47.5634324
0
ARC
8
DEFAULT_255_2_778
10
50.9548855
20
16.7298926
40
0.2068909
50
47.5193851
51
90.4924458
0
ARC
8
DEFAULT_255_2_778
10
49.3521584
20
16.727732
40
0.2090459
50
89.7399049
51
132.2483103
0
ARC
8
DEFAULT_255_2_778
10
49.3313832
20
16.7504276
40
0.1782779
50
132.2099484
51
179.7273824
0
ARC
8
DEFAULT_255_2_778
10
49.3329968
20
18.0519437
40
0.1798963
50
180.499352
51
227.5633557
0
ARC
8
DEFAULT_255_2_778
10
49.3512591
20
18.0715763
40
0.2067088
50
227.4995011
51
270.5123057
0
ARC
8
DEFAULT_255_2_778
10
50.9539843
20
18.0741066
40
0.2092326
50
269.7598456
51
312.22847
0
ARC
8
DEFAULT_255_2_778
10
50.9748315
20
18.0512241
40
0.1782779
50
312.2099484
51
359.7273824
0
ARC
8
DEFAULT_255_2_778
10
49.3329959
20
8.7724432
40
0.1798954
50
180.499196
51
227.5634732
0
ARC
8
DEFAULT_255_2_778
10
49.3512968
20
8.7925561
40
0.2070882
50
227.5814894
51
270.5009318
0
ARC
8
DEFAULT_255_2_778
10
50.9541287
20
8.7946162
40
0.2091429
50
269.72018
51
312.1974052
0
ARC
8
DEFAULT_255_2_778
10
50.9746679
20
8.771797
40
0.1784418
50
312.2331331
51
359.7042245
0
LINE
8
DEFAULT_255_2_778
10
49.1531073
20
3.4815758
11
51.1531073
21
3.4815758
0
LINE
8
DEFAULT_255_2_778
10
50.9531073
20
16.9367758
11
49.3531073
21
16.9367758
0
LINE
8
DEFAULT_255_2_778
10
49.3531073
20
17.8648758
11
50.9531073
21
17.8648758
0
LINE
8
DEFAULT_255_2_778
10
49.3531073
20
8.5854758
11
50.9531073
21
8.5854758
0
ARC
8
DEFAULT_255_2_778
10
53.9730184
20
16.7497083
40
0.1798957
50
0.4992612
51
47.5634324
0
ARC
8
DEFAULT_255_2_778
10
53.9546855
20
16.7298926
40
0.2068909
50
47.5193851
51
90.4924458
0
ARC
8
DEFAULT_255_2_778
10
52.3519584
20
16.727732
40
0.2090459
50
89.7399049
51
132.2483103
0
ARC
8
DEFAULT_255_2_778
10
52.3311832
20
16.7504276
40
0.1782779
50
132.2099484
51
179.7273824
0
ARC
8
DEFAULT_255_2_778
10
52.3327968
20
18.0519437
40
0.1798963
50
180.499352
51
227.5633557
0
ARC
8
DEFAULT_255_2_778
10
52.3510591
20
18.0715763
40
0.2067088
50
227.4995011
51
270.5123057
0
ARC
8
DEFAULT_255_2_778
10
53.9537843
20
18.0741066
40
0.2092326
50
269.7598456
51
312.22847
0
ARC
8
DEFAULT_255_2_778
10
53.9746315
20
18.0512241
40
0.1782779
50
312.2099484
51
359.7273824
0
ARC
8
DEFAULT_255_2_778
10
52.3327959
20
8.7724432
40
0.1798954
50
180.499196
51
227.5634732
0
ARC
8
DEFAULT_255_2_778
10
52.3510968
20
8.7925561
40
0.2070882
50
227.5814894
51
270.5009318
0
ARC
8
DEFAULT_255_2_778
10
53.9539287
20
8.7946162
40
0.2091429
50
269.72018
51
312.1974052
0
ARC
8
DEFAULT_255_2_778
10
53.9744679
20
8.771797
40
0.1784418
50
312.2331331
51
359.7042245
0
LINE
8
DEFAULT_255_2_778
10
52.1529073
20
3.4815758
11
54.1529073
21
3.4815758
0
LINE
8
DEFAULT_255_2_778
10
53.9529073
20
16.9367758
11
52.3529073
21
16.9367758
0
LINE
8
DEFAULT_255_2_778
10
52.3529073
20
17.8648758
11
53.9529073
21
17.8648758
0
LINE
8
DEFAULT_255_2_778
10
52.3529073
20
8.5854758
11
53.9529073
21
8.5854758
0
ARC
8
DEFAULT_255_2_778
10
56.9731184
20
16.7497083
40
0.1798957
50
0.4992612
51
47.5634324
0
ARC
8
DEFAULT_255_2_778
10
56.9547855
20
16.7298926
40
0.2068909
50
47.5193851
51
90.4924458
0
ARC
8
DEFAULT_255_2_778
10
55.3520584
20
16.727732
40
0.2090459
50
89.7399049
51
132.2483103
0
ARC
8
DEFAULT_255_2_778
10
55.3312832
20
16.7504276
40
0.1782779
50
132.2099484
51
179.7273824
0
ARC
8
DEFAULT_255_2_778
10
55.3328968
20
18.0519437
40
0.1798963
50
180.499352
51
227.5633557
0
ARC
8
DEFAULT_255_2_778
10
55.3511591
20
18.0715763
40
0.2067088
50
227.4995011
51
270.5123057
0
ARC
8
DEFAULT_255_2_778
10
56.9538843
20
18.0741066
40
0.2092326
50
269.7598456
51
312.22847
0
ARC
8
DEFAULT_255_2_778
10
56.9747315
20
18.0512241
40
0.1782779
50
312.2099484
51
359.7273824
0
ARC
8
DEFAULT_255_2_778
10
55.3328959
20
8.7724432
40
0.1798954
50
180.499196
51
227.5634732
0
ARC
8
DEFAULT_255_2_778
10
55.3511968
20
8.7925561
40
0.2070882
50
227.5814894
51
270.5009318
0
ARC
8
DEFAULT_255_2_778
10
56.9540287
20
8.7946162
40
0.2091429
50
269.72018
51
312.1974052
0
ARC
8
DEFAULT_255_2_778
10
56.9745679
20
8.771797
40
0.1784418
50
312.2331331
51
359.7042245
0
LINE
8
DEFAULT_255_2_778
10
55.1530073
20
3.4815758
11
57.1530073
21
3.4815758
0
LINE
8
DEFAULT_255_2_778
10
56.9530073
20
16.9367758
11
55.3530073
21
16.9367758
0
LINE
8
DEFAULT_255_2_778
10
55.3530073
20
17.8648758
11
56.9530073
21
17.8648758
0
LINE
8
DEFAULT_255_2_778
10
55.3530073
20
8.5854758
11
56.9530073
21
8.5854758
0
ARC
8
DEFAULT_255_2_778
10
58.3330968
20
18.0519437
40
0.1798963
50
180.499352
51
227.5633557
0
ARC
8
DEFAULT_255_2_778
10
58.3513591
20
18.0715763
40
0.2067088
50
227.4995011
51
270.5123057
0
ARC
8
DEFAULT_255_2_778
10
59.9540843
20
18.0741066
40
0.2092326
50
269.7598456
51
312.22847
0
ARC
8
DEFAULT_255_2_778
10
59.9749315
20
18.0512241
40
0.1782779
50
312.2099484
51
359.7273824
0
ARC
8
DEFAULT_255_2_778
10
59.9733184
20
16.7497083
40
0.1798957
50
0.4992612
51
47.5634324
0
ARC
8
DEFAULT_255_2_778
10
59.9549855
20
16.7298926
40
0.2068909
50
47.5193851
51
90.4924458
0
ARC
8
DEFAULT_255_2_778
10
58.3522584
20
16.727732
40
0.2090459
50
89.7399049
51
132.2483103
0
ARC
8
DEFAULT_255_2_778
10
58.3314832
20
16.7504276
40
0.1782779
50
132.2099484
51
179.7273824
0
ARC
8
DEFAULT_255_2_778
10
58.3330959
20
8.7724432
40
0.1798954
50
180.499196
51
227.5634732
0
ARC
8
DEFAULT_255_2_778
10
58.3513968
20
8.7925561
40
0.2070882
50
227.5814894
51
270.5009318
0
ARC
8
DEFAULT_255_2_778
10
59.9542287
20
8.7946162
40
0.2091429
50
269.72018
51
312.1974052
0
ARC
8
DEFAULT_255_2_778
10
59.9747679
20
8.771797
40
0.1784418
50
312.2331331
51
359.7042245
0
LINE
8
DEFAULT_255_2_778
10
58.1532073
20
3.4815758
11
60.1532073
21
3.4815758
0
LINE
8
DEFAULT_255_2_778
10
58.3532073
20
17.8648758
11
59.9532073
21
17.8648758
0
LINE
8
DEFAULT_255_2_778
10
59.9532073
20
16.9367758
11
58.3532073
21
16.9367758
0
LINE
8
DEFAULT_255_2_778
10
58.3532073
20
8.5854758
11
59.9532073
21
8.5854758
0
ARC
8
DEFAULT_255_2_778
10
50.9731669
20
67.7870866
40
0.1799466
50
0.4742
51
47.5560021
0
ARC
8
DEFAULT_255_2_778
10
50.9548477
20
67.7668122
40
0.2072709
50
47.6013549
51
90.4810903
0
ARC
8
DEFAULT_255_2_778
10
49.3521988
20
67.7646405
40
0.2094373
50
89.7514655
51
132.1660984
0
ARC
8
DEFAULT_255_2_778
10
49.3315983
20
67.7877323
40
0.178493
50
132.2405592
51
179.7292364
0
ARC
8
DEFAULT_255_2_778
10
50.9731665
20
69.0892653
40
0.179947
50
312.4440515
51
359.525742
0
ARC
8
DEFAULT_255_2_778
10
50.9548477
20
69.1095395
40
0.2072709
50
269.5189097
51
312.3986451
0
ARC
8
DEFAULT_255_2_778
10
49.3521988
20
69.1117112
40
0.2094373
50
227.8339016
51
270.2485345
0
ARC
8
DEFAULT_255_2_778
10
49.3315983
20
69.0886193
40
0.178493
50
180.2707636
51
227.7594408
0
ARC
8
DEFAULT_255_2_778
10
49.3329964
20
77.066508
40
0.179896
50
132.4365442
51
179.5006318
0
ARC
8
DEFAULT_255_2_778
10
49.3512592
20
77.0468746
40
0.2067094
50
89.4877344
51
132.5003858
0
ARC
8
DEFAULT_255_2_778
10
50.9539843
20
77.0443449
40
0.2092328
50
47.7715509
51
90.240147
0
ARC
8
DEFAULT_255_2_778
10
50.9748315
20
77.0672276
40
0.1782779
50
0.2726176
51
47.7900516
0
LINE
8
DEFAULT_255_2_778
10
51.1531073
20
82.3573758
11
49.1531073
21
82.3573758
0
LINE
8
DEFAULT_255_2_778
10
50.9531073
20
67.9740758
11
49.3531073
21
67.9740758
0
LINE
8
DEFAULT_255_2_778
10
50.9531073
20
68.9022758
11
49.3531073
21
68.9022758
0
LINE
8
DEFAULT_255_2_778
10
49.3531073
20
77.2535758
11
50.9531073
21
77.2535758
0
ARC
8
DEFAULT_255_2_778
10
53.9729669
20
67.7870866
40
0.1799466
50
0.4742
51
47.5560021
0
ARC
8
DEFAULT_255_2_778
10
53.9546477
20
67.7668122
40
0.2072709
50
47.6013549
51
90.4810903
0
ARC
8
DEFAULT_255_2_778
10
52.3519988
20
67.7646405
40
0.2094373
50
89.7514655
51
132.1660984
0
ARC
8
DEFAULT_255_2_778
10
52.3313983
20
67.7877323
40
0.178493
50
132.2405592
51
179.7292364
0
ARC
8
DEFAULT_255_2_778
10
53.9729665
20
69.0892653
40
0.179947
50
312.4440515
51
359.525742
0
ARC
8
DEFAULT_255_2_778
10
53.9546477
20
69.1095395
40
0.2072709
50
269.5189097
51
312.3986451
0
ARC
8
DEFAULT_255_2_778
10
52.3519988
20
69.1117112
40
0.2094373
50
227.8339016
51
270.2485345
0
ARC
8
DEFAULT_255_2_778
10
52.3313983
20
69.0886193
40
0.178493
50
180.2707636
51
227.7594408
0
ARC
8
DEFAULT_255_2_778
10
52.3327964
20
77.066508
40
0.179896
50
132.4365442
51
179.5006318
0
ARC
8
DEFAULT_255_2_778
10
52.3510592
20
77.0468746
40
0.2067094
50
89.4877344
51
132.5003858
0
ARC
8
DEFAULT_255_2_778
10
53.9537843
20
77.0443449
40
0.2092328
50
47.7715509
51
90.240147
0
ARC
8
DEFAULT_255_2_778
10
53.9746315
20
77.0672276
40
0.1782779
50
0.2726176
51
47.7900516
0
LINE
8
DEFAULT_255_2_778
10
54.1529073
20
82.3573758
11
52.1529073
21
82.3573758
0
LINE
8
DEFAULT_255_2_778
10
53.9529073
20
67.9740758
11
52.3529073
21
67.9740758
0
LINE
8
DEFAULT_255_2_778
10
53.9529073
20
68.9022758
11
52.3529073
21
68.9022758
0
LINE
8
DEFAULT_255_2_778
10
52.3529073
20
77.2535758
11
53.9529073
21
77.2535758
0
ARC
8
DEFAULT_255_2_778
10
56.9730669
20
67.7870866
40
0.1799466
50
0.4742
51
47.5560021
0
ARC
8
DEFAULT_255_2_778
10
56.9547477
20
67.7668122
40
0.2072709
50
47.6013549
51
90.4810903
0
ARC
8
DEFAULT_255_2_778
10
55.3520988
20
67.7646405
40
0.2094373
50
89.7514655
51
132.1660984
0
ARC
8
DEFAULT_255_2_778
10
55.3314983
20
67.7877323
40
0.178493
50
132.2405592
51
179.7292364
0
ARC
8
DEFAULT_255_2_778
10
56.9730665
20
69.0892653
40
0.179947
50
312.4440515
51
359.525742
0
ARC
8
DEFAULT_255_2_778
10
56.9547477
20
69.1095395
40
0.2072709
50
269.5189097
51
312.3986451
0
ARC
8
DEFAULT_255_2_778
10
55.3520988
20
69.1117112
40
0.2094373
50
227.8339016
51
270.2485345
0
ARC
8
DEFAULT_255_2_778
10
55.3314983
20
69.0886193
40
0.178493
50
180.2707636
51
227.7594408
0
ARC
8
DEFAULT_255_2_778
10
55.3328964
20
77.066508
40
0.179896
50
132.4365442
51
179.5006318
0
ARC
8
DEFAULT_255_2_778
10
55.3511592
20
77.0468746
40
0.2067094
50
89.4877344
51
132.5003858
0
ARC
8
DEFAULT_255_2_778
10
56.9538843
20
77.0443449
40
0.2092328
50
47.7715509
51
90.240147
0
ARC
8
DEFAULT_255_2_778
10
56.9747315
20
77.0672276
40
0.1782779
50
0.2726176
51
47.7900516
0
LINE
8
DEFAULT_255_2_778
10
57.1530073
20
82.3573758
11
55.1530073
21
82.3573758
0
LINE
8
DEFAULT_255_2_778
10
56.9530073
20
67.9740758
11
55.3530073
21
67.9740758
0
LINE
8
DEFAULT_255_2_778
10
56.9530073
20
68.9022758
11
55.3530073
21
68.9022758
0
LINE
8
DEFAULT_255_2_778
10
55.3530073
20
77.2535758
11
56.9530073
21
77.2535758
0
ARC
8
DEFAULT_255_2_778
10
59.9732669
20
67.7870866
40
0.1799466
50
0.4742
51
47.5560021
0
ARC
8
DEFAULT_255_2_778
10
59.9549477
20
67.7668122
40
0.2072709
50
47.6013549
51
90.4810903
0
ARC
8
DEFAULT_255_2_778
10
58.3522988
20
67.7646405
40
0.2094373
50
89.7514655
51
132.1660984
0
ARC
8
DEFAULT_255_2_778
10
58.3316983
20
67.7877323
40
0.178493
50
132.2405592
51
179.7292364
0
ARC
8
DEFAULT_255_2_778
10
58.3331485
20
69.0892654
40
0.1799473
50
180.4742826
51
227.5558781
0
ARC
8
DEFAULT_255_2_778
10
58.3513968
20
69.1093561
40
0.2070882
50
227.5814894
51
270.5009318
0
ARC
8
DEFAULT_255_2_778
10
59.9540442
20
69.1118981
40
0.2096239
50
269.7712639
51
312.1463194
0
ARC
8
DEFAULT_255_2_778
10
59.9747163
20
69.0886193
40
0.178493
50
312.2405592
51
359.7292364
0
ARC
8
DEFAULT_255_2_778
10
58.3330964
20
77.066508
40
0.179896
50
132.4365442
51
179.5006318
0
ARC
8
DEFAULT_255_2_778
10
58.3513592
20
77.0468746
40
0.2067094
50
89.4877344
51
132.5003858
0
ARC
8
DEFAULT_255_2_778
10
59.9540843
20
77.0443449
40
0.2092328
50
47.7715509
51
90.240147
0
ARC
8
DEFAULT_255_2_778
10
59.9749315
20
77.0672276
40
0.1782779
50
0.2726176
51
47.7900516
0
LINE
8
DEFAULT_255_2_778
10
60.1532073
20
82.3573758
11
58.1532073
21
82.3573758
0
LINE
8
DEFAULT_255_2_778
10
59.9532073
20
67.9740758
11
58.3532073
21
67.9740758
0
LINE
8
DEFAULT_255_2_778
10
58.3532073
20
68.9022758
11
59.9532073
21
68.9022758
0
LINE
8
DEFAULT_255_2_778
10
58.3532073
20
77.2535758
11
59.9532073
21
77.2535758
0
ARC
8
DEFAULT_255_2_778
10
62.9730669
20
67.7870866
40
0.1799466
50
0.4742
51
47.5560021
0
ARC
8
DEFAULT_255_2_778
10
62.9547477
20
67.7668122
40
0.2072709
50
47.6013549
51
90.4810903
0
ARC
8
DEFAULT_255_2_778
10
61.3520988
20
67.7646405
40
0.2094373
50
89.7514655
51
132.1660984
0
ARC
8
DEFAULT_255_2_778
10
61.3314983
20
67.7877323
40
0.178493
50
132.2405592
51
179.7292364
0
ARC
8
DEFAULT_255_2_778
10
61.3329485
20
69.0892654
40
0.1799473
50
180.4742826
51
227.5558781
0
ARC
8
DEFAULT_255_2_778
10
61.3511968
20
69.1093561
40
0.2070882
50
227.5814894
51
270.5009318
0
ARC
8
DEFAULT_255_2_778
10
62.9538442
20
69.1118981
40
0.2096239
50
269.7712639
51
312.1463194
0
ARC
8
DEFAULT_255_2_778
10
62.9745163
20
69.0886193
40
0.178493
50
312.2405592
51
359.7292364
0
ARC
8
DEFAULT_255_2_778
10
61.3328964
20
77.066508
40
0.179896
50
132.4365442
51
179.5006318
0
ARC
8
DEFAULT_255_2_778
10
61.3511592
20
77.0468746
40
0.2067094
50
89.4877344
51
132.5003858
0
ARC
8
DEFAULT_255_2_778
10
62.9538843
20
77.0443449
40
0.2092328
50
47.7715509
51
90.240147
0
ARC
8
DEFAULT_255_2_778
10
62.9747315
20
77.0672276
40
0.1782779
50
0.2726176
51
47.7900516
0
LINE
8
DEFAULT_255_2_778
10
63.1530073
20
82.3573758
11
61.1530073
21
82.3573758
0
LINE
8
DEFAULT_255_2_778
10
62.9530073
20
67.9740758
11
61.3530073
21
67.9740758
0
LINE
8
DEFAULT_255_2_778
10
61.3530073
20
68.9022758
11
62.9530073
21
68.9022758
0
LINE
8
DEFAULT_255_2_778
10
61.3530073
20
77.2535758
11
62.9530073
21
77.2535758
0
ARC
8
DEFAULT_255_2_778
10
65.9732171
20
61.1088949
40
0.179897
50
312.436766
51
359.5005893
0
ARC
8
DEFAULT_255_2_778
10
65.9547051
20
61.1291809
40
0.20736
50
269.5585153
51
312.4295271
0
ARC
8
DEFAULT_255_2_778
10
64.352159
20
61.1308726
40
0.2090479
50
227.7519146
51
270.2599071
0
ARC
8
DEFAULT_255_2_778
10
64.3313832
20
61.1081751
40
0.1782779
50
180.2726176
51
227.7900516
0
ARC
8
DEFAULT_255_2_778
10
64.3333809
20
75.349789
40
0.180281
50
132.4902709
51
179.479467
0
ARC
8
DEFAULT_255_2_778
10
64.3512974
20
75.3298442
40
0.2070905
50
89.4992568
51
132.4181865
0
ARC
8
DEFAULT_255_2_778
10
65.9539442
20
75.3273045
40
0.209624
50
47.8537015
51
90.2287287
0
ARC
8
DEFAULT_255_2_778
10
65.9744531
20
75.3505106
40
0.1786565
50
0.2938395
51
47.7363706
0
ARC
8
DEFAULT_255_2_778
10
65.973218
20
67.7870592
40
0.1798961
50
0.4992882
51
47.563355
0
ARC
8
DEFAULT_255_2_778
10
65.9547048
20
67.7667724
40
0.2073605
50
47.5705018
51
90.4414009
0
ARC
8
DEFAULT_255_2_778
10
64.3521586
20
67.7650821
40
0.2090469
50
89.7399825
51
132.2481886
0
ARC
8
DEFAULT_255_2_778
10
64.3313832
20
67.7877786
40
0.1782779
50
132.2099484
51
179.7273824
0
ARC
8
DEFAULT_255_2_778
10
64.3333799
20
69.089364
40
0.18028
50
180.5203149
51
227.5098071
0
ARC
8
DEFAULT_255_2_778
10
64.3512968
20
69.1093072
40
0.2070882
50
227.5814894
51
270.5009318
0
ARC
8
DEFAULT_255_2_778
10
65.9539442
20
69.1118491
40
0.2096239
50
269.7712639
51
312.1463194
0
ARC
8
DEFAULT_255_2_778
10
65.9744535
20
69.088643
40
0.1786562
50
312.2635724
51
359.7061964
0
LINE
8
DEFAULT_255_2_778
10
65.9531073
20
60.9218269
11
64.3531073
21
60.9218269
0
LINE
8
DEFAULT_255_2_778
10
64.1531073
20
61.1073269
11
64.1531073
21
75.3514269
0
LINE
8
DEFAULT_255_2_778
10
64.3531073
20
75.5369269
11
65.9531073
21
75.5369269
0
LINE
8
DEFAULT_255_2_778
10
66.1531073
20
75.3514269
11
66.1531073
21
61.1073269
0
LINE
8
DEFAULT_255_2_778
10
65.9531073
20
67.9741269
11
64.3531073
21
67.9741269
0
LINE
8
DEFAULT_255_2_778
10
64.3531073
20
68.9022269
11
65.9531073
21
68.9022269
0
ARC
8
DEFAULT_255_2_778
10
25.9986013
20
2.3358826
40
1.2670576
50
242.3989241
51
270.1796056
0
ARC
8
DEFAULT_255_2_778
10
25.9051902
20
2.198995
40
1.1026398
50
180.8555299
51
243.4049031
0
ARC
8
DEFAULT_255_2_778
10
25.9154701
20
2.1616245
40
1.1129933
50
111.6121099
51
178.9236822
0
ARC
8
DEFAULT_255_2_778
10
25.9997551
20
2.022048
40
1.2740863
50
89.8732701
51
112.8241744
0
ARC
8
DEFAULT_255_2_778
10
43.606659
20
2.0293743
40
1.2667632
50
62.2340673
51
90.1802765
0
ARC
8
DEFAULT_255_2_778
10
43.7004414
20
2.1661061
40
1.1022542
50
0.8538206
51
63.2366271
0
ARC
8
DEFAULT_255_2_778
10
43.6897148
20
2.2033805
40
1.1130537
50
291.6142814
51
358.9266944
0
ARC
8
DEFAULT_255_2_778
10
43.6054941
20
2.342877
40
1.2740489
50
269.8731413
51
292.8247452
0
LINE
8
DEFAULT_255_2_778
10
30.7565732
20
2.3682312
11
30.8031732
21
1.9041312
0
LINE
8
DEFAULT_255_2_778
10
30.8031732
20
1.9041312
11
26.0030732
21
1.0691312
0
LINE
8
DEFAULT_255_2_778
10
26.0030732
20
1.0691312
11
27.4029732
21
1.0691312
0
LINE
8
DEFAULT_255_2_778
10
27.4029732
20
1.0691312
11
27.6029732
21
1.3474312
0
LINE
8
DEFAULT_255_2_778
10
27.6029732
20
1.3474312
11
29.0029732
21
1.3474312
0
LINE
8
DEFAULT_255_2_778
10
29.0029732
20
1.3474312
11
29.2029732
21
1.6258312
0
LINE
8
DEFAULT_255_2_778
10
29.2029732
20
1.6258312
11
30.6028732
21
1.6258312
0
LINE
8
DEFAULT_255_2_778
10
30.6028732
20
1.6258312
11
30.8028732
21
1.9041312
0
LINE
8
DEFAULT_255_2_778
10
30.8028732
20
1.9041312
11
38.8028732
21
1.9041312
0
LINE
8
DEFAULT_255_2_778
10
38.8028732
20
1.9041312
11
39.0028732
21
1.6258312
0
LINE
8
DEFAULT_255_2_778
10
39.0028732
20
1.6258312
11
40.4027732
21
1.6258312
0
LINE
8
DEFAULT_255_2_778
10
40.4027732
20
1.6258312
11
40.6027732
21
1.3474312
0
LINE
8
DEFAULT_255_2_778
10
40.6027732
20
1.3474312
11
42.0026732
21
1.3474312
0
LINE
8
DEFAULT_255_2_778
10
42.0026732
20
1.3474312
11
42.2027732
21
1.0691312
0
LINE
8
DEFAULT_255_2_778
10
42.2027732
20
1.0691312
11
43.6026732
21
1.0691312
0
LINE
8
DEFAULT_255_2_778
10
43.6026732
20
1.0691312
11
38.8025732
21
1.9041312
0
LINE
8
DEFAULT_255_2_778
10
38.8025732
20
1.9041312
11
38.8491732
21
2.3682312
0
LINE
8
DEFAULT_255_2_778
10
33.7527732
20
1.9041312
11
33.5526732
21
1.6258312
0
LINE
8
DEFAULT_255_2_778
10
33.5526732
20
1.6258312
11
33.0526732
21
1.6258312
0
LINE
8
DEFAULT_255_2_778
10
33.0526732
20
1.6258312
11
32.8525732
21
1.9041312
0
LINE
8
DEFAULT_255_2_778
10
25.9623732
20
1.5340312
11
26.0025732
21
1.0688312
0
LINE
8
DEFAULT_255_2_778
10
26.0025732
20
3.2961312
11
43.6026732
21
3.2961312
0
LINE
8
DEFAULT_255_2_778
10
43.6026732
20
1.0688312
11
43.6428732
21
1.5340312
0
LINE
8
DEFAULT_255_2_778
10
35.2526732
20
1.9041312
11
35.0526732
21
1.6258312
0
LINE
8
DEFAULT_255_2_778
10
35.0526732
20
1.6258312
11
34.5525732
21
1.6258312
0
LINE
8
DEFAULT_255_2_778
10
34.5525732
20
1.6258312
11
34.3525732
21
1.9041312
0
LINE
8
DEFAULT_255_2_778
10
36.7525732
20
1.9041312
11
36.5525732
21
1.6258312
0
LINE
8
DEFAULT_255_2_778
10
36.5525732
20
1.6258312
11
36.0524732
21
1.6258312
0
LINE
8
DEFAULT_255_2_778
10
36.0524732
20
1.6258312
11
35.8524732
21
1.9041312
0
LINE
8
DEFAULT_255_2_778
10
38.2524732
20
1.9041312
11
38.0524732
21
1.6258312
0
LINE
8
DEFAULT_255_2_778
10
38.0524732
20
1.6258312
11
37.5523732
21
1.6258312
0
LINE
8
DEFAULT_255_2_778
10
37.5523732
20
1.6258312
11
37.3523732
21
1.9041312
0
LINE
8
DEFAULT_255_2_778
10
32.2522732
20
1.9041312
11
32.0522732
21
1.6258312
0
LINE
8
DEFAULT_255_2_778
10
32.0522732
20
1.6258312
11
31.5521732
21
1.6258312
0
LINE
8
DEFAULT_255_2_778
10
31.5521732
20
1.6258312
11
31.3521732
21
1.9041312
0
ENDSEC
0
EOF