0
SECTION
2
HEADER
9
$MEASUREMENT
70
1
0
ENDSEC
0
SECTION
2
TABLES
0
TABLE
2
LTYPE
0
LTYPE
72
65
70
64
2
CONTINUOUS
3
______
73
0
40
0
0
ENDTAB
0
TABLE
2
LAYER
0
LAYER
2
DEFAULT_255_2_778
70
0
62
255
6
CONTINUOUS
0
LAYER
2
DEFAULT_255_1_388
70
0
62
255
6
CONTINUOUS
0
LAYER
2
DEFAULT_255_2_778_1
70
0
62
255
6
CONTINUOUS
0
ENDTAB
0
ENDSEC
0
SECTION
2
ENTITIES
0
ARC
8
DEFAULT_255_2_778
10
3.5700693
20
44.0552035
40
0.7914215
50
129.1312896
51
180.1450914
0
ARC
8
DEFAULT_255_2_778
10
3.5703345
20
44.0556906
40
0.7912112
50
89.854026
51
129.1684493
0
ARC
8
DEFAULT_255_2_778
10
25.7993937
20
44.0553771
40
0.7915249
50
39.4792447
51
90.147911
0
ARC
8
DEFAULT_255_2_778
10
25.7999935
20
44.0552238
40
0.7911595
50
359.8533901
51
39.5154338
0
ARC
8
DEFAULT_255_2_778
10
25.7996693
20
-1.9863488
40
0.7914836
50
309.4761667
51
0.1482649
0
ARC
8
DEFAULT_255_2_778
10
25.799398
20
-1.9867799
40
0.7913235
50
269.8517415
51
309.511178
0
ARC
8
DEFAULT_255_2_778
10
3.570342
20
-1.9867217
40
0.7913815
50
219.1282118
51
270.1454017
0
ARC
8
DEFAULT_255_2_778
10
3.5700247
20
-1.9863392
40
0.7913769
50
179.8524075
51
219.1641908
0
LINE
8
DEFAULT_255_2_778
10
3.5723503
20
44.8468993
11
25.7973503
21
44.8468993
0
LINE
8
DEFAULT_255_2_778
10
26.5911503
20
44.0531993
11
26.5911503
21
-1.9843007
0
LINE
8
DEFAULT_255_2_778
10
25.7973503
20
-2.7781007
11
3.5723503
21
-2.7781007
0
LINE
8
DEFAULT_255_2_778
10
2.7786503
20
-1.9843007
11
2.7786503
21
44.0531993
0
LINE
8
DEFAULT_255_1_388
10
10.702032
20
-0.2223532
11
10.8764199
21
-0.2223532
0
LINE
8
DEFAULT_255_1_388
10
9.8635242
20
-0.0434475
11
9.8635242
21
0.0830516
0
LINE
8
DEFAULT_255_1_388
10
10.8764199
20
0.2529217
11
10.702032
21
0.2529217
0
LINE
8
DEFAULT_255_1_388
10
10.0379121
20
0.0785337
11
10.0379121
21
-0.0488688
0
ARC
8
DEFAULT_255_1_388
10
10.2598433
20
-0.1551671
40
0.6202263
50
340.1774904
51
353.7812217
0
ARC
8
DEFAULT_255_1_388
10
10.4366286
20
-0.2210107
40
0.4315926
50
311.4560052
51
340.4420756
0
ARC
8
DEFAULT_255_1_388
10
10.4328826
20
-0.2085335
40
0.4434573
50
282.4332229
51
310.7514507
0
ARC
8
DEFAULT_255_1_388
10
10.3834644
20
-0.0043297
40
0.6535262
50
269.9358869
51
282.8096729
0
ARC
8
DEFAULT_255_1_388
10
10.3776583
20
0.1469329
40
0.8048043
50
269.9995752
51
270.3612856
0
ARC
8
DEFAULT_255_1_388
10
10.3717073
20
-0.1329219
40
0.5249831
50
250.7885263
51
270.6488451
0
ARC
8
DEFAULT_255_1_388
10
10.3527898
20
-0.2046147
40
0.4510942
50
219.3628377
51
250.0611024
0
ARC
8
DEFAULT_255_1_388
10
10.4460772
20
-0.1253347
40
0.5735046
50
193.5480293
51
219.5755675
0
ARC
8
DEFAULT_255_1_388
10
10.7128981
20
-0.056048
40
0.849146
50
181.1220183
51
193.8754971
0
ARC
8
DEFAULT_255_1_388
10
10.9452214
20
-0.0436086
40
1.0816971
50
179.9914644
51
181.5398227
0
ARC
8
DEFAULT_255_1_388
10
10.7375525
20
0.0872586
40
0.8740384
50
169.5837606
51
180.275782
0
ARC
8
DEFAULT_255_1_388
10
10.5308873
20
0.1254439
40
0.6638751
50
155.0367033
51
169.6002779
0
ARC
8
DEFAULT_255_1_388
10
10.4031331
20
0.1870336
40
0.5220662
50
136.7831557
51
155.2472983
0
ARC
8
DEFAULT_255_1_388
10
10.3593122
20
0.2242577
40
0.4646502
50
121.7633063
51
136.4281161
0
ARC
8
DEFAULT_255_1_388
10
10.3744962
20
0.1962049
40
0.4964979
50
95.6460018
51
121.5489589
0
ARC
8
DEFAULT_255_1_388
10
10.3921936
20
0.0714704
40
0.6223912
50
89.9245727
51
96.1375919
0
ARC
8
DEFAULT_255_1_388
10
10.3978641
20
0.0848721
40
0.6090084
50
76.6779212
51
90.456405
0
ARC
8
DEFAULT_255_1_388
10
10.4421454
20
0.263806
40
0.42469
50
47.4858803
51
76.9287069
0
ARC
8
DEFAULT_255_1_388
10
10.4256068
20
0.2525623
40
0.4441778
50
16.5424081
51
46.8934505
0
ARC
8
DEFAULT_255_1_388
10
10.2447118
20
0.1931265
40
0.6345318
50
5.4072971
51
17.0363711
0
ARC
8
DEFAULT_255_1_388
10
10.0828843
20
0.1671304
40
0.6250632
50
7.8888693
51
15.9242022
0
ARC
8
DEFAULT_255_1_388
10
10.3063828
20
0.2320309
40
0.3923364
50
15.7650676
51
27.9410069
0
ARC
8
DEFAULT_255_1_388
10
10.4305997
20
0.2985317
40
0.2514401
50
27.8167196
51
46.4007942
0
ARC
8
DEFAULT_255_1_388
10
10.4361839
20
0.2978882
40
0.2480958
50
47.4372362
51
75.0695672
0
ARC
8
DEFAULT_255_1_388
10
10.4014675
20
0.1770277
40
0.3738281
50
74.7009379
51
87.8124314
0
ARC
8
DEFAULT_255_1_388
10
10.3932292
20
0.0586659
40
0.4924321
50
87.3802571
51
90.0251599
0
ARC
8
DEFAULT_255_1_388
10
10.3888939
20
0.1906997
40
0.3604218
50
89.3451886
51
108.5744412
0
ARC
8
DEFAULT_255_1_388
10
10.3734931
20
0.2484836
40
0.3007661
50
109.2998307
51
143.3037387
0
ARC
8
DEFAULT_255_1_388
10
10.4592221
20
0.1825584
40
0.4089031
50
143.075267
51
163.1918576
0
ARC
8
DEFAULT_255_1_388
10
10.6788055
20
0.1132652
40
0.6391492
50
162.9375929
51
174.6208776
0
ARC
8
DEFAULT_255_1_388
10
10.9742437
20
0.0808711
40
0.9363344
50
174.342123
51
180.1430283
0
ARC
8
DEFAULT_255_1_388
10
10.8694978
20
-0.0534883
40
0.8315986
50
179.6817261
51
189.150555
0
ARC
8
DEFAULT_255_1_388
10
10.5881727
20
-0.1003441
40
0.5464044
50
188.9911061
51
203.5772363
0
ARC
8
DEFAULT_255_1_388
10
10.4667019
20
-0.1507461
40
0.4149206
50
203.9075402
51
215.1312435
0
ARC
8
DEFAULT_255_1_388
10
10.3628817
20
-0.2312093
40
0.2837747
50
213.9071511
51
263.8848919
0
ARC
8
DEFAULT_255_1_388
10
10.376981
20
-0.1429481
40
0.3730641
50
263.1757928
51
270.1031044
0
ARC
8
DEFAULT_255_1_388
10
10.380589
20
-0.0026489
40
0.5133712
50
269.6722503
51
279.0606936
0
ARC
8
DEFAULT_255_1_388
10
10.4106045
20
-0.184085
40
0.3294739
50
278.8749101
51
293.6349581
0
ARC
8
DEFAULT_255_1_388
10
10.4466249
20
-0.2686749
40
0.2375405
50
293.8553806
51
310.0518171
0
ARC
8
DEFAULT_255_1_388
10
10.4471758
20
-0.2756979
40
0.2318463
50
311.0644687
51
332.0111037
0
ARC
8
DEFAULT_255_1_388
10
10.3130431
20
-0.2017298
40
0.3850112
50
331.6586806
51
343.2877423
0
ARC
8
DEFAULT_255_1_388
10
10.0809896
20
-0.1304194
40
0.6277712
50
343.1446576
51
351.0103568
0
ARC
8
DEFAULT_255_1_388
10
9.917722
20
-0.1004127
40
0.7937327
50
350.71248
51
351.1626997
0
LINE
8
DEFAULT_255_1_388
10
11.8947371
20
0.138169
11
11.8947371
21
-0.0786865
0
LINE
8
DEFAULT_255_1_388
10
11.0643613
20
-0.1012756
11
11.0643613
21
0.1219048
0
LINE
8
DEFAULT_255_1_388
10
11.7275776
20
-0.1238647
11
11.7275776
21
0.1499153
0
LINE
8
DEFAULT_255_1_388
10
11.2315208
20
0.1625652
11
11.2315208
21
-0.1048898
0
ARC
8
DEFAULT_255_1_388
10
10.5169705
20
-0.0841882
40
1.3777776
50
353.8440855
51
0.2287917
0
ARC
8
DEFAULT_255_1_388
10
11.0388722
20
-0.1424586
40
0.852639
50
344.4934746
51
353.9763743
0
ARC
8
DEFAULT_255_1_388
10
11.3755529
20
-0.2381809
40
0.5026273
50
329.2803599
51
344.7473406
0
ARC
8
DEFAULT_255_1_388
10
11.4871025
20
-0.2993962
40
0.3754848
50
324.9361395
51
328.6153007
0
ARC
8
DEFAULT_255_1_388
10
11.5296675
20
-0.3291414
40
0.3235566
50
280.5801797
51
324.9173226
0
ARC
8
DEFAULT_255_1_388
10
11.4845303
20
-0.1411764
40
0.5167077
50
269.5979457
51
281.6732777
0
ARC
8
DEFAULT_255_1_388
10
11.4764207
20
-0.1546887
40
0.5032026
50
256.6228565
51
270.5105488
0
ARC
8
DEFAULT_255_1_388
10
11.431195
20
-0.3288655
40
0.3233092
50
215.8618351
51
257.2787793
0
ARC
8
DEFAULT_255_1_388
10
11.5460657
20
-0.2517894
40
0.4615831
50
197.9695203
51
215.2622745
0
ARC
8
DEFAULT_255_1_388
10
11.8256332
20
-0.1574359
40
0.7566307
50
187.8816486
51
198.2346584
0
ARC
8
DEFAULT_255_1_388
10
12.270957
20
-0.0931547
40
1.2065653
50
180.8977266
51
188.0054894
0
ARC
8
DEFAULT_255_1_388
10
12.5759784
20
-0.08166
40
1.5117443
50
180.7434591
51
181.152202
0
ARC
8
DEFAULT_255_1_388
10
12.408478
20
0.1273371
40
1.3441277
50
173.7674302
51
180.2315596
0
ARC
8
DEFAULT_255_1_388
10
11.9002649
20
0.1847779
40
0.8326847
50
164.3058537
51
173.9000553
0
ARC
8
DEFAULT_255_1_388
10
11.5726649
20
0.2791652
40
0.4917711
50
148.7922028
51
164.5682288
0
ARC
8
DEFAULT_255_1_388
10
11.4657386
20
0.3388457
40
0.3694204
50
144.5883979
51
148.1161588
0
ARC
8
DEFAULT_255_1_388
10
11.4270132
20
0.3658667
40
0.322202
50
101.6440149
51
144.5142619
0
ARC
8
DEFAULT_255_1_388
10
11.4748324
20
0.1758337
40
0.5180451
50
89.528284
51
102.5820197
0
ARC
8
DEFAULT_255_1_388
10
11.4837316
20
0.1714376
40
0.5224441
50
77.0437914
51
90.508231
0
ARC
8
DEFAULT_255_1_388
10
11.528957
20
0.3562272
40
0.3322297
50
48.2777708
51
77.4996087
0
ARC
8
DEFAULT_255_1_388
10
11.537131
20
0.3707557
40
0.315966
50
36.3141586
51
47.6307332
0
ARC
8
DEFAULT_255_1_388
10
11.4394032
20
0.3049159
40
0.4337313
50
18.2931065
51
35.6770203
0
ARC
8
DEFAULT_255_1_388
10
11.1532873
20
0.2067107
40
0.7362203
50
8.0246996
51
18.5605636
0
ARC
8
DEFAULT_255_1_388
10
10.6849228
20
0.1375432
40
1.2096583
50
1.127539
51
8.1718423
0
ARC
8
DEFAULT_255_1_388
10
10.3200362
20
0.1232374
40
1.5747719
50
0.5432713
51
1.38669
0
ARC
8
DEFAULT_255_1_388
10
10.525774
20
0.1539163
40
1.2018103
50
359.8092569
51
4.9408001
0
ARC
8
DEFAULT_255_1_388
10
10.9994322
20
0.19619
40
0.7262727
50
4.8364937
51
12.2906017
0
ARC
8
DEFAULT_255_1_388
10
11.3093786
20
0.2652485
40
0.4087324
50
12.0806994
51
23.8171225
0
ARC
8
DEFAULT_255_1_388
10
11.4414182
20
0.3211508
40
0.2653719
50
24.2874621
51
31.3934353
0
ARC
8
DEFAULT_255_1_388
10
11.5004618
20
0.3597822
40
0.1948607
50
30.7407708
51
82.4658033
0
ARC
8
DEFAULT_255_1_388
10
11.4802279
20
0.2604017
40
0.2961198
50
81.1057101
51
90.2187368
0
ARC
8
DEFAULT_255_1_388
10
11.4762091
20
0.2894421
40
0.2670929
50
89.380395
51
105.6763916
0
ARC
8
DEFAULT_255_1_388
10
11.4555813
20
0.364432
40
0.1893189
50
105.7980655
51
149.7387869
0
ARC
8
DEFAULT_255_1_388
10
11.5752953
20
0.2924719
40
0.3289892
50
149.4208441
51
163.628295
0
ARC
8
DEFAULT_255_1_388
10
11.8105183
20
0.2207345
40
0.5749004
50
163.3764549
51
172.141138
0
ARC
8
DEFAULT_255_1_388
10
12.1817904
20
0.1675582
40
0.9499585
50
172.0258462
51
178.0705453
0
ARC
8
DEFAULT_255_1_388
10
12.5239457
20
0.1513682
40
1.2924734
50
177.8639301
51
179.5036263
0
ARC
8
DEFAULT_255_1_388
10
12.4020476
20
-0.1089849
40
1.170534
50
179.7995545
51
185.246089
0
ARC
8
DEFAULT_255_1_388
10
11.9472069
20
-0.1520596
40
0.7136613
50
185.1411911
51
193.0082205
0
ARC
8
DEFAULT_255_1_388
10
11.6498329
20
-0.2223559
40
0.4080987
50
192.7897338
51
205.2507384
0
ARC
8
DEFAULT_255_1_388
10
11.5320539
20
-0.2749462
40
0.2791522
50
205.8001921
51
211.2545876
0
ARC
8
DEFAULT_255_1_388
10
11.4732078
20
-0.3143868
40
0.2084074
50
210.3789935
51
238.4007996
0
ARC
8
DEFAULT_255_1_388
10
11.4710164
20
-0.3091214
40
0.2117943
50
239.6521916
51
265.9793852
0
ARC
8
DEFAULT_255_1_388
10
11.4806013
20
-0.2334642
40
0.2879689
50
265.1324455
51
270.0603288
0
ARC
8
DEFAULT_255_1_388
10
11.483839
20
-0.2699582
40
0.2514919
50
269.3314378
51
287.2180039
0
ARC
8
DEFAULT_255_1_388
10
11.4993473
20
-0.3265709
40
0.1928357
50
287.7957942
51
329.0808983
0
ARC
8
DEFAULT_255_1_388
10
11.391623
20
-0.2593349
40
0.319808
50
328.6635261
51
343.3325043
0
ARC
8
DEFAULT_255_1_388
10
11.1471688
20
-0.1831805
40
0.5758408
50
343.0498092
51
351.9392499
0
ARC
8
DEFAULT_255_1_388
10
10.757101
20
-0.1256795
40
0.9701202
50
351.8071632
51
357.7957897
0
ARC
8
DEFAULT_255_1_388
10
10.3936487
20
-0.1068276
40
1.3340376
50
357.5870923
51
359.2682493
0
LINE
8
DEFAULT_255_1_388
10
12.4739219
20
-0.0127263
11
12.4739219
21
-0.1491645
0
LINE
8
DEFAULT_255_1_388
10
12.4739219
20
-0.1491645
11
12.0329824
21
-0.1491645
0
LINE
8
DEFAULT_255_1_388
10
12.0329824
20
-0.1491645
11
12.0329824
21
-0.0127263
0
LINE
8
DEFAULT_255_1_388
10
12.0329824
20
-0.0127263
11
12.4739219
21
-0.0127263
0
LINE
8
DEFAULT_255_1_388
10
13.4443501
20
0.138169
11
13.4443501
21
-0.0786865
0
LINE
8
DEFAULT_255_1_388
10
12.6139744
20
-0.1012756
11
12.6139744
21
0.1219048
0
LINE
8
DEFAULT_255_1_388
10
13.2771907
20
-0.1238647
11
13.2771907
21
0.1499153
0
LINE
8
DEFAULT_255_1_388
10
12.7811338
20
0.1625652
11
12.7811338
21
-0.1048898
0
ARC
8
DEFAULT_255_1_388
10
12.0665835
20
-0.0841882
40
1.3777776
50
353.8440855
51
0.2287917
0
ARC
8
DEFAULT_255_1_388
10
12.5884852
20
-0.1424586
40
0.852639
50
344.4934746
51
353.9763743
0
ARC
8
DEFAULT_255_1_388
10
12.925166
20
-0.2381809
40
0.5026273
50
329.2803599
51
344.7473406
0
ARC
8
DEFAULT_255_1_388
10
13.0367155
20
-0.2993962
40
0.3754848
50
324.9361395
51
328.6153007
0
ARC
8
DEFAULT_255_1_388
10
13.0792805
20
-0.3291414
40
0.3235566
50
280.5801797
51
324.9173226
0
ARC
8
DEFAULT_255_1_388
10
13.0341434
20
-0.1411764
40
0.5167077
50
269.5979457
51
281.6732777
0
ARC
8
DEFAULT_255_1_388
10
13.0260337
20
-0.1546887
40
0.5032026
50
256.6228565
51
270.5105488
0
ARC
8
DEFAULT_255_1_388
10
12.980808
20
-0.3288655
40
0.3233092
50
215.8618351
51
257.2787793
0
ARC
8
DEFAULT_255_1_388
10
13.0956787
20
-0.2517894
40
0.4615831
50
197.9695203
51
215.2622745
0
ARC
8
DEFAULT_255_1_388
10
13.3752463
20
-0.1574359
40
0.7566307
50
187.8816486
51
198.2346584
0
ARC
8
DEFAULT_255_1_388
10
13.8205701
20
-0.0931547
40
1.2065653
50
180.8977266
51
188.0054894
0
ARC
8
DEFAULT_255_1_388
10
14.1255915
20
-0.08166
40
1.5117443
50
180.7434591
51
181.152202
0
ARC
8
DEFAULT_255_1_388
10
13.958091
20
0.1273371
40
1.3441277
50
173.7674302
51
180.2315596
0
ARC
8
DEFAULT_255_1_388
10
13.4498779
20
0.1847779
40
0.8326847
50
164.3058537
51
173.9000553
0
ARC
8
DEFAULT_255_1_388
10
13.1222779
20
0.2791652
40
0.4917711
50
148.7922028
51
164.5682288
0
ARC
8
DEFAULT_255_1_388
10
13.0153517
20
0.3388457
40
0.3694204
50
144.5883979
51
148.1161588
0
ARC
8
DEFAULT_255_1_388
10
12.9766262
20
0.3658667
40
0.322202
50
101.6440149
51
144.5142619
0
ARC
8
DEFAULT_255_1_388
10
13.0244454
20
0.1758337
40
0.5180451
50
89.528284
51
102.5820197
0
ARC
8
DEFAULT_255_1_388
10
13.0333446
20
0.1714376
40
0.5224441
50
77.0437914
51
90.508231
0
ARC
8
DEFAULT_255_1_388
10
13.07857
20
0.3562272
40
0.3322297
50
48.2777708
51
77.4996087
0
ARC
8
DEFAULT_255_1_388
10
13.086744
20
0.3707557
40
0.315966
50
36.3141586
51
47.6307332
0
ARC
8
DEFAULT_255_1_388
10
12.9890162
20
0.3049159
40
0.4337313
50
18.2931065
51
35.6770203
0
ARC
8
DEFAULT_255_1_388
10
12.7029003
20
0.2067107
40
0.7362203
50
8.0246996
51
18.5605636
0
ARC
8
DEFAULT_255_1_388
10
12.2345358
20
0.1375432
40
1.2096583
50
1.127539
51
8.1718423
0
ARC
8
DEFAULT_255_1_388
10
11.8696492
20
0.1232374
40
1.5747719
50
0.5432713
51
1.38669
0
ARC
8
DEFAULT_255_1_388
10
12.0753871
20
0.1539163
40
1.2018103
50
359.8092569
51
4.9408001
0
ARC
8
DEFAULT_255_1_388
10
12.5490452
20
0.19619
40
0.7262727
50
4.8364937
51
12.2906017
0
ARC
8
DEFAULT_255_1_388
10
12.8589917
20
0.2652485
40
0.4087324
50
12.0806994
51
23.8171225
0
ARC
8
DEFAULT_255_1_388
10
12.9910313
20
0.3211508
40
0.2653719
50
24.2874621
51
31.3934353
0
ARC
8
DEFAULT_255_1_388
10
13.0500748
20
0.3597822
40
0.1948607
50
30.7407708
51
82.4658033
0
ARC
8
DEFAULT_255_1_388
10
13.0298409
20
0.2604017
40
0.2961198
50
81.1057101
51
90.2187368
0
ARC
8
DEFAULT_255_1_388
10
13.0258221
20
0.2894421
40
0.2670929
50
89.380395
51
105.6763916
0
ARC
8
DEFAULT_255_1_388
10
13.0051943
20
0.364432
40
0.1893189
50
105.7980655
51
149.7387869
0
ARC
8
DEFAULT_255_1_388
10
13.1249083
20
0.2924719
40
0.3289892
50
149.4208441
51
163.628295
0
ARC
8
DEFAULT_255_1_388
10
13.3601313
20
0.2207345
40
0.5749004
50
163.3764549
51
172.141138
0
ARC
8
DEFAULT_255_1_388
10
13.7314034
20
0.1675582
40
0.9499585
50
172.0258462
51
178.0705453
0
ARC
8
DEFAULT_255_1_388
10
14.0735587
20
0.1513682
40
1.2924734
50
177.8639301
51
179.5036263
0
ARC
8
DEFAULT_255_1_388
10
13.9516606
20
-0.1089849
40
1.170534
50
179.7995545
51
185.246089
0
ARC
8
DEFAULT_255_1_388
10
13.4968199
20
-0.1520596
40
0.7136613
50
185.1411911
51
193.0082205
0
ARC
8
DEFAULT_255_1_388
10
13.199446
20
-0.2223559
40
0.4080987
50
192.7897338
51
205.2507384
0
ARC
8
DEFAULT_255_1_388
10
13.081667
20
-0.2749462
40
0.2791522
50
205.8001921
51
211.2545876
0
ARC
8
DEFAULT_255_1_388
10
13.0228209
20
-0.3143868
40
0.2084074
50
210.3789935
51
238.4007996
0
ARC
8
DEFAULT_255_1_388
10
13.0206295
20
-0.3091214
40
0.2117943
50
239.6521916
51
265.9793852
0
ARC
8
DEFAULT_255_1_388
10
13.0302144
20
-0.2334642
40
0.2879689
50
265.1324455
51
270.0603288
0
ARC
8
DEFAULT_255_1_388
10
13.0334521
20
-0.2699582
40
0.2514919
50
269.3314378
51
287.2180039
0
ARC
8
DEFAULT_255_1_388
10
13.0489603
20
-0.3265709
40
0.1928357
50
287.7957942
51
329.0808983
0
ARC
8
DEFAULT_255_1_388
10
12.941236
20
-0.2593349
40
0.319808
50
328.6635261
51
343.3325043
0
ARC
8
DEFAULT_255_1_388
10
12.6967819
20
-0.1831805
40
0.5758408
50
343.0498092
51
351.9392499
0
ARC
8
DEFAULT_255_1_388
10
12.306714
20
-0.1256795
40
0.9701202
50
351.8071632
51
357.7957897
0
ARC
8
DEFAULT_255_1_388
10
11.9432617
20
-0.1068276
40
1.3340376
50
357.5870923
51
359.2682493
0
LINE
8
DEFAULT_255_1_388
10
14.3641787
20
0.6757898
11
14.3641787
21
-0.197957
0
LINE
8
DEFAULT_255_1_388
10
14.3641787
20
-0.197957
11
14.5466987
21
-0.197957
0
LINE
8
DEFAULT_255_1_388
10
14.5466987
20
-0.197957
11
14.5466987
21
-0.3343952
0
LINE
8
DEFAULT_255_1_388
10
14.5466987
20
-0.3343952
11
14.3641787
21
-0.3343952
0
LINE
8
DEFAULT_255_1_388
10
14.3641787
20
-0.3343952
11
14.3641787
21
-0.6398
0
LINE
8
DEFAULT_255_1_388
10
14.3641787
20
-0.6398
11
14.1961157
21
-0.6398
0
LINE
8
DEFAULT_255_1_388
10
14.1961157
20
-0.6398
11
14.1961157
21
-0.3343952
0
LINE
8
DEFAULT_255_1_388
10
14.1961157
20
-0.3343952
11
13.5970525
21
-0.3343952
0
LINE
8
DEFAULT_255_1_388
10
13.5970525
20
-0.3343952
11
13.5970525
21
-0.2359067
0
LINE
8
DEFAULT_255_1_388
10
13.5970525
20
-0.2359067
11
14.1861765
21
0.6757898
0
LINE
8
DEFAULT_255_1_388
10
14.1861765
20
0.6757898
11
14.3641787
21
0.6757898
0
LINE
8
DEFAULT_255_1_388
10
14.1762373
20
0.4110455
11
13.786801
21
-0.197957
0
LINE
8
DEFAULT_255_1_388
10
13.786801
20
-0.197957
11
14.1961157
21
-0.197957
0
LINE
8
DEFAULT_255_1_388
10
14.1961157
20
-0.197957
11
14.1961157
21
0.447188
0
LINE
8
DEFAULT_255_1_388
10
14.1961157
20
0.447188
11
14.1762373
21
0.4110455
0
LINE
8
DEFAULT_255_1_388
10
15.5930264
20
-0.6398
11
15.4674309
21
-0.2964455
0
LINE
8
DEFAULT_255_1_388
10
15.4674309
20
-0.2964455
11
14.9162566
21
-0.2964455
0
LINE
8
DEFAULT_255_1_388
10
14.9162566
20
-0.2964455
11
14.7924683
21
-0.6398
0
LINE
8
DEFAULT_255_1_388
10
14.7924683
20
-0.6398
11
14.6135625
21
-0.6398
0
LINE
8
DEFAULT_255_1_388
10
14.6135625
20
-0.6398
11
15.1159443
21
0.6757898
0
LINE
8
DEFAULT_255_1_388
10
15.1159443
20
0.6757898
11
15.2677432
21
0.6757898
0
LINE
8
DEFAULT_255_1_388
10
15.2677432
20
0.6757898
11
15.7710286
21
-0.6398
0
LINE
8
DEFAULT_255_1_388
10
15.7710286
20
-0.6398
11
15.5930264
21
-0.6398
0
LINE
8
DEFAULT_255_1_388
10
15.1918438
20
0.4616451
11
14.9686633
21
-0.1536823
0
LINE
8
DEFAULT_255_1_388
10
14.9686633
20
-0.1536823
11
15.4159277
21
-0.1536823
0
LINE
8
DEFAULT_255_1_388
10
15.4159277
20
-0.1536823
11
15.1918438
21
0.4616451
0
LINE
8
DEFAULT_255_1_388
10
16.3122637
20
-0.6398
11
15.9481272
21
-0.6398
0
LINE
8
DEFAULT_255_1_388
10
15.9481272
20
-0.6398
11
15.9481272
21
0.6757898
0
LINE
8
DEFAULT_255_1_388
10
15.9481272
20
0.6757898
11
16.3194922
21
0.6757898
0
LINE
8
DEFAULT_255_1_388
10
16.8995806
20
0.0622696
11
16.8995806
21
-0.0217619
0
LINE
8
DEFAULT_255_1_388
10
16.32401
20
0.5330267
11
16.1216116
21
0.5330267
0
LINE
8
DEFAULT_255_1_388
10
16.1216116
20
0.5330267
11
16.1216116
21
-0.4979404
0
LINE
8
DEFAULT_255_1_388
10
16.1216116
20
-0.4979404
11
16.3041316
21
-0.4979404
0
LINE
8
DEFAULT_255_1_388
10
16.7279033
20
-0.0181477
11
16.7279033
21
0.0586553
0
ARC
8
DEFAULT_255_1_388
10
16.3238717
20
0.0159436
40
0.6598608
50
75.4100343
51
90.3802731
0
ARC
8
DEFAULT_255_1_388
10
16.3496962
20
0.1235691
40
0.5492049
50
60.1455157
51
75.1889627
0
ARC
8
DEFAULT_255_1_388
10
16.3675554
20
0.1546914
40
0.5133226
50
26.525419
51
60.1451222
0
ARC
8
DEFAULT_255_1_388
10
16.241534
20
0.0878642
40
0.6559324
50
7.4029944
51
26.832209
0
ARC
8
DEFAULT_255_1_388
10
16.0621737
20
0.0599229
40
0.8374103
50
0.1605597
51
7.7176135
0
ARC
8
DEFAULT_255_1_388
10
16.0806137
20
-0.0260679
40
0.8189782
50
348.7289744
51
0.30125
0
ARC
8
DEFAULT_255_1_388
10
16.2669601
20
-0.0630844
40
0.628991
50
333.0706936
51
348.7181455
0
ARC
8
DEFAULT_255_1_388
10
16.3757229
20
-0.1221551
40
0.5052808
50
299.2531435
51
333.4571133
0
ARC
8
DEFAULT_255_1_388
10
16.335126
20
-0.0450371
40
0.5924066
50
278.1072193
51
299.0340218
0
ARC
8
DEFAULT_255_1_388
10
16.3063309
20
0.1245979
40
0.7644209
50
270.4446841
51
278.4508355
0
ARC
8
DEFAULT_255_1_388
10
16.3086793
20
0.02003
40
0.5179903
50
269.4969684
51
284.0204874
0
ARC
8
DEFAULT_255_1_388
10
16.3486511
20
-0.1335585
40
0.3592968
50
283.7699076
51
318.1557121
0
ARC
8
DEFAULT_255_1_388
10
16.3107056
20
-0.1051601
40
0.4065308
50
318.7417595
51
343.687252
0
ARC
8
DEFAULT_255_1_388
10
16.1077635
20
-0.0417725
40
0.6191194
50
343.3324891
51
355.8548594
0
ARC
8
DEFAULT_255_1_388
10
15.8716673
20
-0.0193281
40
0.856237
50
355.4988754
51
0.0789913
0
ARC
8
DEFAULT_255_1_388
10
15.9597472
20
0.063408
40
0.7681709
50
359.6455047
51
9.8607559
0
ARC
8
DEFAULT_255_1_388
10
16.2253195
20
0.1113664
40
0.498312
50
9.6573037
51
26.1931522
0
ARC
8
DEFAULT_255_1_388
10
16.329727
20
0.1598587
40
0.3832303
50
26.5777895
51
40.1533752
0
ARC
8
DEFAULT_255_1_388
10
16.3584935
20
0.182302
40
0.3467742
50
40.3839958
51
80.1430923
0
ARC
8
DEFAULT_255_1_388
10
16.3217191
20
0.0192486
40
0.5137832
50
79.2153636
51
89.7445174
0
LINE
8
DEFAULT_255_1_388
10
17.4832832
20
-0.0127263
11
17.4832832
21
-0.1491645
0
LINE
8
DEFAULT_255_1_388
10
17.4832832
20
-0.1491645
11
17.0423438
21
-0.1491645
0
LINE
8
DEFAULT_255_1_388
10
17.0423438
20
-0.1491645
11
17.0423438
21
-0.0127263
0
LINE
8
DEFAULT_255_1_388
10
17.0423438
20
-0.0127263
11
17.4832832
21
-0.0127263
0
LINE
8
DEFAULT_255_1_388
10
18.4907576
20
-0.5033618
11
18.4907576
21
-0.6398
0
LINE
8
DEFAULT_255_1_388
10
18.4907576
20
-0.6398
11
17.6287571
21
-0.6398
0
LINE
8
DEFAULT_255_1_388
10
17.6287571
20
-0.6398
11
17.6287571
21
-0.5196259
0
LINE
8
DEFAULT_255_1_388
10
17.6287571
20
-0.5196259
11
18.0841536
21
-0.0136298
0
LINE
8
DEFAULT_255_1_388
10
17.7706167
20
0.2881607
11
17.6034573
21
0.2881607
0
LINE
8
DEFAULT_255_1_388
10
18.1826421
20
-0.121154
11
17.830252
21
-0.5033618
0
LINE
8
DEFAULT_255_1_388
10
17.830252
20
-0.5033618
11
18.4907576
21
-0.5033618
0
ARC
8
DEFAULT_255_1_388
10
16.5665595
20
1.3283983
40
2.0258655
50
318.5132526
51
320.7829045
0
ARC
8
DEFAULT_255_1_388
10
17.1613552
20
0.8442929
40
1.2589638
50
320.7372878
51
323.9739031
0
ARC
8
DEFAULT_255_1_388
10
17.6022484
20
0.5248554
40
0.7145141
50
323.8962701
51
328.64194
0
ARC
8
DEFAULT_255_1_388
10
17.8324741
20
0.3828545
40
0.4440242
50
328.8294576
51
331.7891185
0
ARC
8
DEFAULT_255_1_388
10
17.9447061
20
0.3249374
40
0.3177517
50
331.4254512
51
352.9365785
0
ARC
8
DEFAULT_255_1_388
10
17.9600061
20
0.321505
40
0.3021496
50
353.2257659
51
0.0166158
0
ARC
8
DEFAULT_255_1_388
10
17.9836822
20
0.3240894
40
0.2784847
50
359.486299
51
15.9343185
0
ARC
8
DEFAULT_255_1_388
10
18.0407089
20
0.3394269
40
0.2194403
50
16.1712913
51
43.5286088
0
ARC
8
DEFAULT_255_1_388
10
18.0494033
20
0.3481191
40
0.2071504
50
43.4417391
51
83.1661095
0
ARC
8
DEFAULT_255_1_388
10
18.0343194
20
0.2652316
40
0.2912888
50
82.160179
51
90.1505708
0
ARC
8
DEFAULT_255_1_388
10
18.0307676
20
0.2048279
40
0.3517025
50
89.5460741
51
102.5418361
0
ARC
8
DEFAULT_255_1_388
10
18.0034396
20
0.3207933
40
0.2325748
50
102.1738499
51
129.206123
0
ARC
8
DEFAULT_255_1_388
10
17.9945849
20
0.3347664
40
0.2161591
50
129.72865
51
135.753947
0
ARC
8
DEFAULT_255_1_388
10
18.0082332
20
0.3238728
40
0.2335433
50
136.1757367
51
166.3673339
0
ARC
8
DEFAULT_255_1_388
10
18.121502
20
0.2935148
40
0.3507873
50
165.9090694
51
178.8684636
0
ARC
8
DEFAULT_255_1_388
10
18.2190792
20
0.2882263
40
0.4484624
50
178.4391136
51
180.0083808
0
ARC
8
DEFAULT_255_1_388
10
18.0611493
20
0.2926197
40
0.4577138
50
163.2878482
51
180.5581842
0
ARC
8
DEFAULT_255_1_388
10
17.9709534
20
0.3174393
40
0.3641968
50
133.4540601
51
162.947111
0
ARC
8
DEFAULT_255_1_388
10
17.9910416
20
0.2960789
40
0.3935189
50
100.7869829
51
133.4382499
0
ARC
8
DEFAULT_255_1_388
10
18.0301661
20
0.1218399
40
0.5720313
50
89.660664
51
101.3702276
0
ARC
8
DEFAULT_255_1_388
10
18.037627
20
0.1287263
40
0.5651495
50
78.2172678
51
90.412935
0
ARC
8
DEFAULT_255_1_388
10
18.0775736
20
0.3114511
40
0.378122
50
55.9269121
51
78.4888449
0
ARC
8
DEFAULT_255_1_388
10
18.0996451
20
0.3495187
40
0.3342379
50
47.929771
51
55.4049217
0
ARC
8
DEFAULT_255_1_388
10
18.1110981
20
0.3611618
40
0.3179217
50
4.334829
51
48.0560205
0
ARC
8
DEFAULT_255_1_388
10
17.9878783
20
0.3420487
40
0.442341
50
359.9251713
51
5.5971671
0
ARC
8
DEFAULT_255_1_388
10
18.0360938
20
0.3483728
40
0.3941854
50
337.8914027
51
358.9967534
0
ARC
8
DEFAULT_255_1_388
10
17.7308508
20
0.4661295
40
0.7213271
50
326.9132501
51
338.3508308
0
ARC
8
DEFAULT_255_1_388
10
17.282462
20
0.7535105
40
1.2538973
50
319.6471833
51
327.0959558
0
ARC
8
DEFAULT_255_1_388
10
16.8511278
20
1.109305
40
1.8129975
50
317.2588228
51
319.9045804
0
LINE
8
DEFAULT_255_1_388
10
10.3547605
20
38.3863
11
9.8885212
21
38.9980131
0
LINE
8
DEFAULT_255_1_388
10
9.8885212
20
38.9980131
11
9.7276868
21
38.8308537
0
LINE
8
DEFAULT_255_1_388
10
9.7276868
20
38.8308537
11
9.7276868
21
38.3863
0
LINE
8
DEFAULT_255_1_388
10
9.7276868
20
38.3863
11
9.5542024
21
38.3863
0
LINE
8
DEFAULT_255_1_388
10
9.5542024
20
38.3863
11
9.5542024
21
39.7018898
0
LINE
8
DEFAULT_255_1_388
10
9.5542024
20
39.7018898
11
9.7276868
21
39.7018898
0
LINE
8
DEFAULT_255_1_388
10
9.7276868
20
39.7018898
11
9.7276868
21
39.0513234
0
LINE
8
DEFAULT_255_1_388
10
9.7276868
20
39.0513234
11
10.312293
21
39.7018898
0
LINE
8
DEFAULT_255_1_388
10
10.312293
20
39.7018898
11
10.5219199
21
39.7018898
0
LINE
8
DEFAULT_255_1_388
10
10.5219199
20
39.7018898
11
10.0041775
21
39.1208979
0
LINE
8
DEFAULT_255_1_388
10
10.0041775
20
39.1208979
11
10.5625803
21
38.3863
0
LINE
8
DEFAULT_255_1_388
10
10.5625803
20
38.3863
11
10.3547605
21
38.3863
0
LINE
8
DEFAULT_255_1_388
10
11.6983608
20
39.0847553
11
11.6983608
21
39.0016274
0
LINE
8
DEFAULT_255_1_388
10
10.6402869
20
38.9898811
11
10.6402869
21
39.0847553
0
LINE
8
DEFAULT_255_1_388
10
11.52578
20
38.9889775
11
11.52578
21
39.0865625
0
LINE
8
DEFAULT_255_1_388
10
10.8128677
20
39.0983088
11
10.8128677
21
39.0016274
0
ARC
8
DEFAULT_255_1_388
10
10.7261347
20
38.9971726
40
0.9722364
50
350.4878118
51
0.2625322
0
ARC
8
DEFAULT_255_1_388
10
10.9841307
20
38.9527994
40
0.7104556
50
336.0277991
51
350.5787241
0
ARC
8
DEFAULT_255_1_388
10
11.1354414
20
38.8844243
40
0.544417
50
319.887443
51
336.1331163
0
ARC
8
DEFAULT_255_1_388
10
11.2032226
20
38.8301733
40
0.4576311
50
302.4806296
51
319.6144102
0
ARC
8
DEFAULT_255_1_388
10
11.1902847
20
38.8551067
40
0.4856183
50
275.8196423
51
302.1885521
0
ARC
8
DEFAULT_255_1_388
10
11.1715708
20
38.9836466
40
0.6154183
50
269.9169897
51
276.339506
0
ARC
8
DEFAULT_255_1_388
10
11.1665309
20
38.906468
40
0.5382553
50
252.5221437
51
270.441579
0
ARC
8
DEFAULT_255_1_388
10
11.150356
20
38.8458046
40
0.4755426
50
237.5349961
51
252.1858334
0
ARC
8
DEFAULT_255_1_388
10
11.1603936
20
38.858612
40
0.4917393
50
209.0632754
51
237.3492577
0
ARC
8
DEFAULT_255_1_388
10
11.2583261
20
38.9201104
40
0.6072464
50
205.118533
51
209.6465345
0
ARC
8
DEFAULT_255_1_388
10
11.3479264
20
38.9581174
40
0.7045164
50
188.7216633
51
204.8239753
0
ARC
8
DEFAULT_255_1_388
10
11.5726039
20
38.9959387
40
0.9323368
50
180.3722704
51
188.9253909
0
ARC
8
DEFAULT_255_1_388
10
11.56956
20
39.0892416
40
0.929284
50
169.5253055
51
180.2766048
0
ARC
8
DEFAULT_255_1_388
10
11.3555399
20
39.1286024
40
0.7116745
50
155.8314601
51
169.5088611
0
ARC
8
DEFAULT_255_1_388
10
11.2114862
20
39.1954312
40
0.5528904
50
139.6259579
51
156.0379072
0
ARC
8
DEFAULT_255_1_388
10
11.1451396
20
39.2488143
40
0.4677708
50
122.6414784
51
139.3431662
0
ARC
8
DEFAULT_255_1_388
10
11.1564651
20
39.2281787
40
0.4912586
50
93.0224537
51
122.4556091
0
ARC
8
DEFAULT_255_1_388
10
11.1686172
20
39.1195776
40
0.6003837
50
89.9756766
51
93.6340839
0
ARC
8
DEFAULT_255_1_388
10
11.1729769
20
39.1644879
40
0.5554884
50
73.7463329
51
90.4234008
0
ARC
8
DEFAULT_255_1_388
10
11.1927243
20
39.2409772
40
0.4765353
50
57.663051
51
73.4516911
0
ARC
8
DEFAULT_255_1_388
10
11.191828
20
39.2434108
40
0.4749629
50
29.1441355
51
57.4146687
0
ARC
8
DEFAULT_255_1_388
10
11.0866092
20
39.1777046
40
0.5988917
50
24.0985653
51
29.732054
0
ARC
8
DEFAULT_255_1_388
10
10.9703723
20
39.1295154
40
0.7246823
50
8.6654943
51
23.8241215
0
ARC
8
DEFAULT_255_1_388
10
10.7190142
20
39.0885037
40
0.9793537
50
359.7807044
51
8.8218476
0
ARC
8
DEFAULT_255_1_388
10
10.5899846
20
39.0913731
40
0.9358078
50
359.7054632
51
8.0359751
0
ARC
8
DEFAULT_255_1_388
10
10.9274898
20
39.1405252
40
0.5947474
50
7.8926278
51
20.2962188
0
ARC
8
DEFAULT_255_1_388
10
11.1105748
20
39.2080367
40
0.3996117
50
20.3231056
51
36.4990255
0
ARC
8
DEFAULT_255_1_388
10
11.1877045
20
39.2674399
40
0.3022818
50
36.1436715
51
85.6627846
0
ARC
8
DEFAULT_255_1_388
10
11.1694301
20
39.1504881
40
0.4203853
50
84.3845912
51
90.076054
0
ARC
8
DEFAULT_255_1_388
10
11.1646656
20
39.2247416
40
0.346157
50
89.3037228
51
109.9046209
0
ARC
8
DEFAULT_255_1_388
10
11.1542489
20
39.2677379
40
0.3022217
50
110.8229774
51
143.917961
0
ARC
8
DEFAULT_255_1_388
10
11.2592848
20
39.1875455
40
0.434348
50
143.5289166
51
163.2980252
0
ARC
8
DEFAULT_255_1_388
10
11.4739135
20
39.1200685
40
0.659321
50
163.0418884
51
174.3139873
0
ARC
8
DEFAULT_255_1_388
10
11.74441
20
39.0888378
40
0.9315905
50
174.050934
51
179.4174954
0
ARC
8
DEFAULT_255_1_388
10
11.6876044
20
38.9969382
40
0.8747493
50
179.6928582
51
188.7908948
0
ARC
8
DEFAULT_255_1_388
10
11.3879844
20
38.9490086
40
0.5713262
50
188.6328449
51
202.5630732
0
ARC
8
DEFAULT_255_1_388
10
11.246868
20
38.8923142
40
0.4192612
50
202.8078931
51
216.1195888
0
ARC
8
DEFAULT_255_1_388
10
11.1558197
20
38.8190479
40
0.3025752
50
215.0755613
51
264.6379773
0
ARC
8
DEFAULT_255_1_388
10
11.1701035
20
38.9125376
40
0.3970284
50
263.8464302
51
270.0830805
0
ARC
8
DEFAULT_255_1_388
10
11.174758
20
38.8834808
40
0.3679937
50
269.3649295
51
287.5149684
0
ARC
8
DEFAULT_255_1_388
10
11.194802
20
38.8106714
40
0.2925408
50
288.0629019
51
323.8115617
0
ARC
8
DEFAULT_255_1_388
10
11.0967997
20
38.8837754
40
0.4148018
50
323.6546541
51
342.6591359
0
ARC
8
DEFAULT_255_1_388
10
10.8682654
20
38.958128
40
0.6551163
50
342.4092446
51
353.6451501
0
ARC
8
DEFAULT_255_1_388
10
10.5497448
20
38.9977565
40
0.9760748
50
353.4027553
51
359.4846611
0
LINE
8
DEFAULT_255_1_388
10
12.8314307
20
39.3214892
11
12.6570427
21
39.3214892
0
LINE
8
DEFAULT_255_1_388
10
11.8781702
20
38.7676042
11
12.0525581
21
38.7676042
0
ARC
8
DEFAULT_255_1_388
10
12.7311154
20
40.3278821
40
1.4087688
50
248.9196578
51
254.1442424
0
ARC
8
DEFAULT_255_1_388
10
12.5421034
20
39.8412805
40
0.8867498
50
241.6337352
51
249.0064643
0
ARC
8
DEFAULT_255_1_388
10
12.3701348
20
39.5261764
40
0.5277799
50
230.4982261
51
241.8087583
0
ARC
8
DEFAULT_255_1_388
10
12.2819119
20
39.4137686
40
0.3849419
50
227.4062979
51
229.9877433
0
ARC
8
DEFAULT_255_1_388
10
12.2270465
20
39.3602155
40
0.3084129
50
200.6782127
51
228.1765252
0
ARC
8
DEFAULT_255_1_388
10
12.2351834
20
39.3585277
40
0.315461
50
179.506278
51
199.8695278
0
ARC
8
DEFAULT_255_1_388
10
12.2341423
20
39.3668671
40
0.3144584
50
132.4834401
51
181.0242352
0
ARC
8
DEFAULT_255_1_388
10
12.3010627
20
39.3036788
40
0.4063094
50
129.2526113
51
133.4249077
0
ARC
8
DEFAULT_255_1_388
10
12.317622
20
39.2788619
40
0.436014
50
101.9878945
51
128.8741833
0
ARC
8
DEFAULT_255_1_388
10
12.3624635
20
39.085236
40
0.6347415
50
89.5906376
51
102.3170567
0
ARC
8
DEFAULT_255_1_388
10
12.3703947
20
39.1210586
40
0.5989122
50
77.2359491
51
90.3248968
0
ARC
8
DEFAULT_255_1_388
10
12.3936878
20
39.2298554
40
0.4876594
50
63.8379856
51
77.0808925
0
ARC
8
DEFAULT_255_1_388
10
12.4249411
20
39.2880882
40
0.4216191
50
45.9863127
51
64.1608798
0
ARC
8
DEFAULT_255_1_388
10
12.4542805
20
39.321599
40
0.3771394
50
32.2747934
51
45.6544796
0
ARC
8
DEFAULT_255_1_388
10
12.4617611
20
39.3237426
40
0.3696765
50
359.6507495
51
32.6129943
0
ARC
8
DEFAULT_255_1_388
10
12.3556794
20
39.3242788
40
0.3013762
50
359.469654
51
14.983205
0
ARC
8
DEFAULT_255_1_388
10
12.4350046
20
39.3455288
40
0.2192542
50
14.9781954
51
48.2004799
0
ARC
8
DEFAULT_255_1_388
10
12.4165157
20
39.3222937
40
0.2489048
50
48.5926661
51
74.1242559
0
ARC
8
DEFAULT_255_1_388
10
12.378996
20
39.1984607
40
0.3782845
50
73.7889321
51
86.6653996
0
ARC
8
DEFAULT_255_1_388
10
12.3674774
20
39.0626955
40
0.5145025
50
86.2642725
51
90.0533288
0
ARC
8
DEFAULT_255_1_388
10
12.3642867
20
39.1071376
40
0.4700681
50
89.669455
51
99.2313411
0
ARC
8
DEFAULT_255_1_388
10
12.3370027
20
39.2696401
40
0.3052945
50
99.0695987
51
113.7659242
0
ARC
8
DEFAULT_255_1_388
10
12.3062021
20
39.3422772
40
0.226407
50
114.0402885
51
127.9848946
0
ARC
8
DEFAULT_255_1_388
10
12.2791497
20
39.3755884
40
0.1835045
50
127.7287217
51
176.7106493
0
ARC
8
DEFAULT_255_1_388
10
12.3555162
20
39.364221
40
0.2604907
50
175.1780759
51
180.0581213
0
ARC
8
DEFAULT_255_1_388
10
12.2606506
20
39.3628411
40
0.1656287
50
179.6140658
51
228.124674
0
ARC
8
DEFAULT_255_1_388
10
12.3103863
20
39.408894
40
0.2332038
50
226.5785315
51
230.8792476
0
ARC
8
DEFAULT_255_1_388
10
12.363335
20
39.4791908
40
0.3211664
50
231.4636401
51
241.9261664
0
ARC
8
DEFAULT_255_1_388
10
12.4980133
20
39.7270349
40
0.6032345
50
241.7177136
51
248.3259138
0
ARC
8
DEFAULT_255_1_388
10
12.6538728
20
40.1131771
40
1.0196417
50
248.2007377
51
252.4527713
0
ARC
8
DEFAULT_255_1_388
10
12.7892255
20
40.5316092
40
1.4594143
50
252.3388938
51
254.347037
0
ARC
8
DEFAULT_255_1_388
10
11.9407555
20
37.4968095
40
1.6917621
50
71.0197462
51
74.4085467
0
ARC
8
DEFAULT_255_1_388
10
12.1314643
20
38.0473144
40
1.1091618
50
66.1845203
51
71.086519
0
ARC
8
DEFAULT_255_1_388
10
12.3065192
20
38.4414439
40
0.6779073
50
59.3537334
51
66.269255
0
ARC
8
DEFAULT_255_1_388
10
12.4064918
20
38.6105777
40
0.4814366
50
49.1021732
51
59.3294421
0
ARC
8
DEFAULT_255_1_388
10
12.4985906
20
38.7155575
40
0.3417875
50
32.7924183
51
49.2503526
0
ARC
8
DEFAULT_255_1_388
10
12.533552
20
38.7405311
40
0.2988789
50
31.121225
51
32.3977355
0
ARC
8
DEFAULT_255_1_388
10
12.5247698
20
38.7372728
40
0.3080861
50
8.1116803
51
30.7958224
0
ARC
8
DEFAULT_255_1_388
10
12.4336044
20
38.7217437
40
0.4005385
50
359.8390945
51
8.4707348
0
ARC
8
DEFAULT_255_1_388
10
12.5040092
20
38.7162751
40
0.3301608
50
337.4732479
51
0.7538283
0
ARC
8
DEFAULT_255_1_388
10
12.5241117
20
38.7140554
40
0.3107929
50
307.5917028
51
336.4313755
0
ARC
8
DEFAULT_255_1_388
10
12.4730175
20
38.7708509
40
0.3870096
50
307.6560665
51
308.4561779
0
ARC
8
DEFAULT_255_1_388
10
12.4464391
20
38.8116832
40
0.435591
50
284.3733666
51
307.1426212
0
ARC
8
DEFAULT_255_1_388
10
12.3907285
20
39.0166391
40
0.6479685
50
272.4384566
51
284.6464689
0
ARC
8
DEFAULT_255_1_388
10
12.376467
20
39.2190434
40
0.8508149
50
269.9708517
51
272.8180721
0
ARC
8
DEFAULT_255_1_388
10
12.3716353
20
38.9898283
40
0.6216151
50
248.2707343
51
270.4054609
0
ARC
8
DEFAULT_255_1_388
10
12.3655224
20
38.9683673
40
0.5994203
50
246.1380358
51
248.054058
0
ARC
8
DEFAULT_255_1_388
10
12.3184367
20
38.8694705
40
0.4899388
50
233.1671897
51
246.4951656
0
ARC
8
DEFAULT_255_1_388
10
12.2561002
20
38.7853137
40
0.3852115
50
215.3403381
51
233.084328
0
ARC
8
DEFAULT_255_1_388
10
12.2254366
20
38.7630093
40
0.3472969
50
179.2419235
51
215.2648426
0
ARC
8
DEFAULT_255_1_388
10
12.3117917
20
38.7645979
40
0.259251
50
179.3355796
51
199.1045873
0
ARC
8
DEFAULT_255_1_388
10
12.2744059
20
38.7548223
40
0.2207454
50
199.8830064
51
232.7061328
0
ARC
8
DEFAULT_255_1_388
10
12.3275333
20
38.8216456
40
0.306101
50
232.3736206
51
255.5136621
0
ARC
8
DEFAULT_255_1_388
10
12.3658839
20
38.9616177
40
0.4512213
50
255.2447928
51
267.5318292
0
ARC
8
DEFAULT_255_1_388
10
12.3757306
20
39.1002709
40
0.5901825
50
267.1564563
51
270.0294721
0
ARC
8
DEFAULT_255_1_388
10
12.3788631
20
39.0503623
40
0.5402814
50
269.6999944
51
278.1662446
0
ARC
8
DEFAULT_255_1_388
10
12.4076659
20
38.8556974
40
0.3435003
50
278.0229022
51
290.6255326
0
ARC
8
DEFAULT_255_1_388
10
12.4467825
20
38.7513547
40
0.2320666
50
290.6616368
51
307.0374127
0
ARC
8
DEFAULT_255_1_388
10
12.4805725
20
38.709904
40
0.1786372
50
306.3942078
51
355.303191
0
ARC
8
DEFAULT_255_1_388
10
12.4230018
20
38.7185186
40
0.2367516
50
354.3662092
51
0.0709489
0
ARC
8
DEFAULT_255_1_388
10
12.4389887
20
38.7210561
40
0.2207761
50
359.4175379
51
16.1975911
0
ARC
8
DEFAULT_255_1_388
10
12.4902005
20
38.7350954
40
0.1676828
50
16.4721294
51
52.6261798
0
ARC
8
DEFAULT_255_1_388
10
12.3978512
20
38.6131606
40
0.3206412
50
52.7381828
51
62.4979144
0
ARC
8
DEFAULT_255_1_388
10
12.2420265
20
38.3199236
40
0.6527035
50
62.2517425
51
68.1219454
0
ARC
8
DEFAULT_255_1_388
10
12.0485753
20
37.8444951
40
1.1659797
50
68.006043
51
71.8055127
0
ARC
8
DEFAULT_255_1_388
10
11.8465661
20
37.2386723
40
1.8045908
50
71.718361
51
73.9260743
0
LINE
8
DEFAULT_255_1_388
10
13.9654041
20
39.7018898
11
13.9654041
21
39.5591267
0
LINE
8
DEFAULT_255_1_388
10
13.9654041
20
39.5591267
11
13.5425359
21
39.5591267
0
LINE
8
DEFAULT_255_1_388
10
13.5425359
20
39.5591267
11
13.5425359
21
38.3863
0
LINE
8
DEFAULT_255_1_388
10
13.5425359
20
38.3863
11
13.3699551
21
38.3863
0
LINE
8
DEFAULT_255_1_388
10
13.3699551
20
38.3863
11
13.3699551
21
39.5591267
0
LINE
8
DEFAULT_255_1_388
10
13.3699551
20
39.5591267
11
12.9479905
21
39.5591267
0
LINE
8
DEFAULT_255_1_388
10
12.9479905
20
39.5591267
11
12.9479905
21
39.7018898
0
LINE
8
DEFAULT_255_1_388
10
12.9479905
20
39.7018898
11
13.9654041
21
39.7018898
0
LINE
8
DEFAULT_255_1_388
10
14.9412537
20
38.3863
11
14.8156582
21
38.7296545
0
LINE
8
DEFAULT_255_1_388
10
14.8156582
20
38.7296545
11
14.2644839
21
38.7296545
0
LINE
8
DEFAULT_255_1_388
10
14.2644839
20
38.7296545
11
14.1406956
21
38.3863
0
LINE
8
DEFAULT_255_1_388
10
14.1406956
20
38.3863
11
13.9617898
21
38.3863
0
LINE
8
DEFAULT_255_1_388
10
13.9617898
20
38.3863
11
14.4641716
21
39.7018898
0
LINE
8
DEFAULT_255_1_388
10
14.4641716
20
39.7018898
11
14.6159705
21
39.7018898
0
LINE
8
DEFAULT_255_1_388
10
14.6159705
20
39.7018898
11
15.1192559
21
38.3863
0
LINE
8
DEFAULT_255_1_388
10
15.1192559
20
38.3863
11
14.9412537
21
38.3863
0
LINE
8
DEFAULT_255_1_388
10
14.540071
20
39.4877451
11
14.3168906
21
38.8724177
0
LINE
8
DEFAULT_255_1_388
10
14.3168906
20
38.8724177
11
14.764155
21
38.8724177
0
LINE
8
DEFAULT_255_1_388
10
14.764155
20
38.8724177
11
14.540071
21
39.4877451
0
LINE
8
DEFAULT_255_1_388
10
16.0797449
20
38.8037468
11
16.2541328
21
38.8037468
0
LINE
8
DEFAULT_255_1_388
10
15.2412371
20
38.9826525
11
15.2412371
21
39.1091516
0
LINE
8
DEFAULT_255_1_388
10
16.2541328
20
39.2790217
11
16.0797449
21
39.2790217
0
LINE
8
DEFAULT_255_1_388
10
15.415625
20
39.1046337
11
15.415625
21
38.9772312
0
ARC
8
DEFAULT_255_1_388
10
15.6375562
20
38.8709329
40
0.6202263
50
340.1774904
51
353.7812217
0
ARC
8
DEFAULT_255_1_388
10
15.8143415
20
38.8050893
40
0.4315926
50
311.4560052
51
340.4420756
0
ARC
8
DEFAULT_255_1_388
10
15.8105955
20
38.8175665
40
0.4434573
50
282.4332229
51
310.7514507
0
ARC
8
DEFAULT_255_1_388
10
15.7611772
20
39.0217703
40
0.6535262
50
269.9358869
51
282.8096729
0
ARC
8
DEFAULT_255_1_388
10
15.7553712
20
39.1730329
40
0.8048043
50
269.9995752
51
270.3612856
0
ARC
8
DEFAULT_255_1_388
10
15.7494202
20
38.8931781
40
0.5249831
50
250.7885263
51
270.6488451
0
ARC
8
DEFAULT_255_1_388
10
15.7305027
20
38.8214853
40
0.4510942
50
219.3628377
51
250.0611024
0
ARC
8
DEFAULT_255_1_388
10
15.8237901
20
38.9007653
40
0.5735046
50
193.5480293
51
219.5755675
0
ARC
8
DEFAULT_255_1_388
10
16.090611
20
38.970052
40
0.849146
50
181.1220183
51
193.8754971
0
ARC
8
DEFAULT_255_1_388
10
16.3229343
20
38.9824914
40
1.0816971
50
179.9914644
51
181.5398227
0
ARC
8
DEFAULT_255_1_388
10
16.1152653
20
39.1133586
40
0.8740384
50
169.5837606
51
180.275782
0
ARC
8
DEFAULT_255_1_388
10
15.9086002
20
39.1515439
40
0.6638751
50
155.0367033
51
169.6002779
0
ARC
8
DEFAULT_255_1_388
10
15.780846
20
39.2131336
40
0.5220662
50
136.7831557
51
155.2472983
0
ARC
8
DEFAULT_255_1_388
10
15.7370251
20
39.2503577
40
0.4646502
50
121.7633063
51
136.4281161
0
ARC
8
DEFAULT_255_1_388
10
15.752209
20
39.2223049
40
0.4964979
50
95.6460018
51
121.5489589
0
ARC
8
DEFAULT_255_1_388
10
15.7699065
20
39.0975704
40
0.6223912
50
89.9245727
51
96.1375919
0
ARC
8
DEFAULT_255_1_388
10
15.775577
20
39.1109721
40
0.6090084
50
76.6779212
51
90.456405
0
ARC
8
DEFAULT_255_1_388
10
15.8198583
20
39.289906
40
0.42469
50
47.4858803
51
76.9287069
0
ARC
8
DEFAULT_255_1_388
10
15.8033197
20
39.2786623
40
0.4441778
50
16.5424081
51
46.8934505
0
ARC
8
DEFAULT_255_1_388
10
15.6224246
20
39.2192265
40
0.6345318
50
5.4072971
51
17.0363711
0
ARC
8
DEFAULT_255_1_388
10
15.4605972
20
39.1932304
40
0.6250632
50
7.8888693
51
15.9242022
0
ARC
8
DEFAULT_255_1_388
10
15.6840957
20
39.2581309
40
0.3923364
50
15.7650676
51
27.9410069
0
ARC
8
DEFAULT_255_1_388
10
15.8083126
20
39.3246317
40
0.2514401
50
27.8167196
51
46.4007942
0
ARC
8
DEFAULT_255_1_388
10
15.8138968
20
39.3239882
40
0.2480958
50
47.4372362
51
75.0695672
0
ARC
8
DEFAULT_255_1_388
10
15.7791804
20
39.2031277
40
0.3738281
50
74.7009379
51
87.8124314
0
ARC
8
DEFAULT_255_1_388
10
15.7709421
20
39.0847659
40
0.4924321
50
87.3802571
51
90.0251599
0
ARC
8
DEFAULT_255_1_388
10
15.7666068
20
39.2167997
40
0.3604218
50
89.3451886
51
108.5744412
0
ARC
8
DEFAULT_255_1_388
10
15.751206
20
39.2745836
40
0.3007661
50
109.2998307
51
143.3037387
0
ARC
8
DEFAULT_255_1_388
10
15.836935
20
39.2086584
40
0.4089031
50
143.075267
51
163.1918576
0
ARC
8
DEFAULT_255_1_388
10
16.0565184
20
39.1393652
40
0.6391492
50
162.9375929
51
174.6208776
0
ARC
8
DEFAULT_255_1_388
10
16.3519566
20
39.1069711
40
0.9363344
50
174.342123
51
180.1430283
0
ARC
8
DEFAULT_255_1_388
10
16.2472107
20
38.9726117
40
0.8315986
50
179.6817261
51
189.150555
0
ARC
8
DEFAULT_255_1_388
10
15.9658856
20
38.9257559
40
0.5464044
50
188.9911061
51
203.5772363
0
ARC
8
DEFAULT_255_1_388
10
15.8444148
20
38.8753539
40
0.4149206
50
203.9075402
51
215.1312435
0
ARC
8
DEFAULT_255_1_388
10
15.7405946
20
38.7948907
40
0.2837747
50
213.9071511
51
263.8848919
0
ARC
8
DEFAULT_255_1_388
10
15.7546939
20
38.8831519
40
0.3730641
50
263.1757928
51
270.1031044
0
ARC
8
DEFAULT_255_1_388
10
15.7583019
20
39.0234511
40
0.5133712
50
269.6722503
51
279.0606936
0
ARC
8
DEFAULT_255_1_388
10
15.7883174
20
38.842015
40
0.3294739
50
278.8749101
51
293.6349581
0
ARC
8
DEFAULT_255_1_388
10
15.8243378
20
38.7574251
40
0.2375405
50
293.8553806
51
310.0518171
0
ARC
8
DEFAULT_255_1_388
10
15.8248886
20
38.7504021
40
0.2318463
50
311.0644687
51
332.0111037
0
ARC
8
DEFAULT_255_1_388
10
15.690756
20
38.8243702
40
0.3850112
50
331.6586806
51
343.2877423
0
ARC
8
DEFAULT_255_1_388
10
15.4587025
20
38.8956806
40
0.6277712
50
343.1446576
51
351.0103568
0
ARC
8
DEFAULT_255_1_388
10
15.2954348
20
38.9256873
40
0.7937327
50
350.71248
51
351.1626997
0
LINE
8
DEFAULT_255_1_388
10
17.8218171
20
39.3214892
11
17.6474292
21
39.3214892
0
LINE
8
DEFAULT_255_1_388
10
16.8685566
20
38.7676042
11
17.0429446
21
38.7676042
0
ARC
8
DEFAULT_255_1_388
10
17.7215019
20
40.3278821
40
1.4087688
50
248.9196578
51
254.1442424
0
ARC
8
DEFAULT_255_1_388
10
17.5324899
20
39.8412805
40
0.8867498
50
241.6337352
51
249.0064643
0
ARC
8
DEFAULT_255_1_388
10
17.3605212
20
39.5261764
40
0.5277799
50
230.4982261
51
241.8087583
0
ARC
8
DEFAULT_255_1_388
10
17.2722984
20
39.4137686
40
0.3849419
50
227.4062979
51
229.9877433
0
ARC
8
DEFAULT_255_1_388
10
17.217433
20
39.3602155
40
0.3084129
50
200.6782127
51
228.1765252
0
ARC
8
DEFAULT_255_1_388
10
17.2255699
20
39.3585277
40
0.315461
50
179.506278
51
199.8695278
0
ARC
8
DEFAULT_255_1_388
10
17.2245288
20
39.3668671
40
0.3144584
50
132.4834401
51
181.0242352
0
ARC
8
DEFAULT_255_1_388
10
17.2914492
20
39.3036788
40
0.4063094
50
129.2526113
51
133.4249077
0
ARC
8
DEFAULT_255_1_388
10
17.3080085
20
39.2788619
40
0.436014
50
101.9878945
51
128.8741833
0
ARC
8
DEFAULT_255_1_388
10
17.35285
20
39.085236
40
0.6347415
50
89.5906376
51
102.3170567
0
ARC
8
DEFAULT_255_1_388
10
17.3607811
20
39.1210586
40
0.5989122
50
77.2359491
51
90.3248968
0
ARC
8
DEFAULT_255_1_388
10
17.3840742
20
39.2298554
40
0.4876594
50
63.8379856
51
77.0808925
0
ARC
8
DEFAULT_255_1_388
10
17.4153276
20
39.2880882
40
0.4216191
50
45.9863127
51
64.1608798
0
ARC
8
DEFAULT_255_1_388
10
17.444667
20
39.321599
40
0.3771394
50
32.2747934
51
45.6544796
0
ARC
8
DEFAULT_255_1_388
10
17.4521476
20
39.3237426
40
0.3696765
50
359.6507495
51
32.6129943
0
ARC
8
DEFAULT_255_1_388
10
17.3460659
20
39.3242788
40
0.3013762
50
359.469654
51
14.983205
0
ARC
8
DEFAULT_255_1_388
10
17.4253911
20
39.3455288
40
0.2192542
50
14.9781954
51
48.2004799
0
ARC
8
DEFAULT_255_1_388
10
17.4069022
20
39.3222937
40
0.2489048
50
48.5926661
51
74.1242559
0
ARC
8
DEFAULT_255_1_388
10
17.3693824
20
39.1984607
40
0.3782845
50
73.7889321
51
86.6653996
0
ARC
8
DEFAULT_255_1_388
10
17.3578639
20
39.0626955
40
0.5145025
50
86.2642725
51
90.0533288
0
ARC
8
DEFAULT_255_1_388
10
17.3546732
20
39.1071376
40
0.4700681
50
89.669455
51
99.2313411
0
ARC
8
DEFAULT_255_1_388
10
17.3273891
20
39.2696401
40
0.3052945
50
99.0695987
51
113.7659242
0
ARC
8
DEFAULT_255_1_388
10
17.2965886
20
39.3422772
40
0.226407
50
114.0402885
51
127.9848946
0
ARC
8
DEFAULT_255_1_388
10
17.2695362
20
39.3755884
40
0.1835045
50
127.7287217
51
176.7106493
0
ARC
8
DEFAULT_255_1_388
10
17.3459027
20
39.364221
40
0.2604907
50
175.1780759
51
180.0581213
0
ARC
8
DEFAULT_255_1_388
10
17.2510371
20
39.3628411
40
0.1656287
50
179.6140658
51
228.124674
0
ARC
8
DEFAULT_255_1_388
10
17.3007728
20
39.408894
40
0.2332038
50
226.5785315
51
230.8792476
0
ARC
8
DEFAULT_255_1_388
10
17.3537215
20
39.4791908
40
0.3211664
50
231.4636401
51
241.9261664
0
ARC
8
DEFAULT_255_1_388
10
17.4883998
20
39.7270349
40
0.6032345
50
241.7177136
51
248.3259138
0
ARC
8
DEFAULT_255_1_388
10
17.6442593
20
40.1131771
40
1.0196417
50
248.2007377
51
252.4527713
0
ARC
8
DEFAULT_255_1_388
10
17.7796119
20
40.5316092
40
1.4594143
50
252.3388938
51
254.347037
0
ARC
8
DEFAULT_255_1_388
10
16.931142
20
37.4968095
40
1.6917621
50
71.0197462
51
74.4085467
0
ARC
8
DEFAULT_255_1_388
10
17.1218508
20
38.0473144
40
1.1091618
50
66.1845203
51
71.086519
0
ARC
8
DEFAULT_255_1_388
10
17.2969057
20
38.4414439
40
0.6779073
50
59.3537334
51
66.269255
0
ARC
8
DEFAULT_255_1_388
10
17.3968783
20
38.6105777
40
0.4814366
50
49.1021732
51
59.3294421
0
ARC
8
DEFAULT_255_1_388
10
17.4889771
20
38.7155575
40
0.3417875
50
32.7924183
51
49.2503526
0
ARC
8
DEFAULT_255_1_388
10
17.5239385
20
38.7405311
40
0.2988789
50
31.121225
51
32.3977355
0
ARC
8
DEFAULT_255_1_388
10
17.5151563
20
38.7372728
40
0.3080861
50
8.1116803
51
30.7958224
0
ARC
8
DEFAULT_255_1_388
10
17.4239909
20
38.7217437
40
0.4005385
50
359.8390945
51
8.4707348
0
ARC
8
DEFAULT_255_1_388
10
17.4943956
20
38.7162751
40
0.3301608
50
337.4732479
51
0.7538283
0
ARC
8
DEFAULT_255_1_388
10
17.5144982
20
38.7140554
40
0.3107929
50
307.5917028
51
336.4313755
0
ARC
8
DEFAULT_255_1_388
10
17.4634039
20
38.7708509
40
0.3870096
50
307.6560665
51
308.4561779
0
ARC
8
DEFAULT_255_1_388
10
17.4368256
20
38.8116832
40
0.435591
50
284.3733666
51
307.1426212
0
ARC
8
DEFAULT_255_1_388
10
17.381115
20
39.0166391
40
0.6479685
50
272.4384566
51
284.6464689
0
ARC
8
DEFAULT_255_1_388
10
17.3668535
20
39.2190434
40
0.8508149
50
269.9708517
51
272.8180721
0
ARC
8
DEFAULT_255_1_388
10
17.3620218
20
38.9898283
40
0.6216151
50
248.2707343
51
270.4054609
0
ARC
8
DEFAULT_255_1_388
10
17.3559089
20
38.9683673
40
0.5994203
50
246.1380358
51
248.054058
0
ARC
8
DEFAULT_255_1_388
10
17.3088232
20
38.8694705
40
0.4899388
50
233.1671897
51
246.4951656
0
ARC
8
DEFAULT_255_1_388
10
17.2464867
20
38.7853137
40
0.3852115
50
215.3403381
51
233.084328
0
ARC
8
DEFAULT_255_1_388
10
17.2158231
20
38.7630093
40
0.3472969
50
179.2419235
51
215.2648426
0
ARC
8
DEFAULT_255_1_388
10
17.3021782
20
38.7645979
40
0.259251
50
179.3355796
51
199.1045873
0
ARC
8
DEFAULT_255_1_388
10
17.2647924
20
38.7548223
40
0.2207454
50
199.8830064
51
232.7061328
0
ARC
8
DEFAULT_255_1_388
10
17.3179198
20
38.8216456
40
0.306101
50
232.3736206
51
255.5136621
0
ARC
8
DEFAULT_255_1_388
10
17.3562704
20
38.9616177
40
0.4512213
50
255.2447928
51
267.5318292
0
ARC
8
DEFAULT_255_1_388
10
17.3661171
20
39.1002709
40
0.5901825
50
267.1564563
51
270.0294721
0
ARC
8
DEFAULT_255_1_388
10
17.3692496
20
39.0503623
40
0.5402814
50
269.6999944
51
278.1662446
0
ARC
8
DEFAULT_255_1_388
10
17.3980524
20
38.8556974
40
0.3435003
50
278.0229022
51
290.6255326
0
ARC
8
DEFAULT_255_1_388
10
17.437169
20
38.7513547
40
0.2320666
50
290.6616368
51
307.0374127
0
ARC
8
DEFAULT_255_1_388
10
17.470959
20
38.709904
40
0.1786372
50
306.3942078
51
355.303191
0
ARC
8
DEFAULT_255_1_388
10
17.4133883
20
38.7185186
40
0.2367516
50
354.3662092
51
0.0709489
0
ARC
8
DEFAULT_255_1_388
10
17.4293752
20
38.7210561
40
0.2207761
50
359.4175379
51
16.1975911
0
ARC
8
DEFAULT_255_1_388
10
17.480587
20
38.7350954
40
0.1676828
50
16.4721294
51
52.6261798
0
ARC
8
DEFAULT_255_1_388
10
17.3882377
20
38.6131606
40
0.3206412
50
52.7381828
51
62.4979144
0
ARC
8
DEFAULT_255_1_388
10
17.232413
20
38.3199236
40
0.6527035
50
62.2517425
51
68.1219454
0
ARC
8
DEFAULT_255_1_388
10
17.0389618
20
37.8444951
40
1.1659797
50
68.006043
51
71.8055127
0
ARC
8
DEFAULT_255_1_388
10
16.8369526
20
37.2386723
40
1.8045908
50
71.718361
51
73.9260743
0
LINE
8
DEFAULT_255_1_388
10
18.597979
20
38.7676042
11
18.597979
21
39.7018898
0
LINE
8
DEFAULT_255_1_388
10
18.597979
20
39.7018898
11
18.7723669
21
39.7018898
0
LINE
8
DEFAULT_255_1_388
10
18.7723669
20
39.7018898
11
18.7723669
21
38.7703149
0
LINE
8
DEFAULT_255_1_388
10
17.9419912
20
38.7495329
11
18.1154756
21
38.7495329
0
ARC
8
DEFAULT_255_1_388
10
18.2671392
20
38.7659958
40
0.5052462
50
346.3132364
51
0.4897996
0
ARC
8
DEFAULT_255_1_388
10
18.4210925
20
38.7265792
40
0.3463431
50
313.3793278
51
346.6225662
0
ARC
8
DEFAULT_255_1_388
10
18.3985008
20
38.7550186
40
0.3825426
50
281.1587645
51
312.9130978
0
ARC
8
DEFAULT_255_1_388
10
18.3601914
20
38.9231607
40
0.5549427
50
269.6423454
51
281.6796473
0
ARC
8
DEFAULT_255_1_388
10
18.3524692
20
38.9849499
40
0.6167359
50
258.9989698
51
270.3955842
0
ARC
8
DEFAULT_255_1_388
10
18.3103151
20
38.7769792
40
0.4045461
50
239.625581
51
259.2387746
0
ARC
8
DEFAULT_255_1_388
10
18.2778144
20
38.7156638
40
0.3352261
50
227.4961805
51
239.1189042
0
ARC
8
DEFAULT_255_1_388
10
18.2736027
20
38.7088009
40
0.3273245
50
191.3396895
51
227.2280349
0
ARC
8
DEFAULT_255_1_388
10
18.4316349
20
38.7461896
40
0.4896551
50
179.6087821
51
191.9932937
0
ARC
8
DEFAULT_255_1_388
10
18.4467094
20
38.7470216
40
0.3312434
50
179.565607
51
192.0702314
0
ARC
8
DEFAULT_255_1_388
10
18.3374046
20
38.722456
40
0.2192212
50
191.7655537
51
215.6462731
0
ARC
8
DEFAULT_255_1_388
10
18.3173287
20
38.7103629
40
0.1958682
50
216.1940686
51
224.3931249
0
ARC
8
DEFAULT_255_1_388
10
18.3180984
20
38.7133862
40
0.1985399
50
224.861176
51
254.3628599
0
ARC
8
DEFAULT_255_1_388
10
18.3485527
20
38.8140135
40
0.3036595
50
253.9470645
51
267.395327
0
ARC
8
DEFAULT_255_1_388
10
18.3564826
20
38.9179346
40
0.4078462
50
266.9458957
51
270.0343693
0
ARC
8
DEFAULT_255_1_388
10
18.3593407
20
38.7872844
40
0.2772084
50
269.4598277
51
286.1819188
0
ARC
8
DEFAULT_255_1_388
10
18.375238
20
38.7289765
40
0.2167824
50
286.4415261
51
315.8045035
0
ARC
8
DEFAULT_255_1_388
10
18.3691412
20
38.7337201
40
0.2244619
50
316.0212602
51
345.479585
0
ARC
8
DEFAULT_255_1_388
10
18.2599571
20
38.7644753
40
0.3378781
50
345.0729937
51
358.3249855
0
ARC
8
DEFAULT_255_1_388
10
18.1624017
20
38.7707509
40
0.4355887
50
357.8749464
51
359.5860856
0
ARC
8
DEFAULT_255_2_778
10
13.4953021
20
42.1360533
40
2.3035416
50
339.8907409
51
346.994376
0
ARC
8
DEFAULT_255_2_778
10
14.4646357
20
41.7759276
40
1.2694939
50
328.7691853
51
340.1120733
0
ARC
8
DEFAULT_255_2_778
10
14.9922733
20
41.4492249
40
0.6489533
50
308.240385
51
329.2799976
0
ARC
8
DEFAULT_255_2_778
10
15.1335254
20
41.2803956
40
0.42897
50
290.2149747
51
307.3797345
0
ARC
8
DEFAULT_255_2_778
10
14.8550836
20
41.5430832
40
0.5085768
50
279.0582472
51
335.0254579
0
ARC
8
DEFAULT_255_2_778
10
14.4035606
20
41.7913036
40
1.0232605
50
333.100566
51
347.4967948
0
ARC
8
DEFAULT_255_2_778
10
13.9267879
20
41.9152273
40
1.515659
50
346.8251736
51
349.6433145
0
ARC
8
DEFAULT_255_2_778
10
16.7325297
20
42.1877541
40
0.6340004
50
90.2418805
51
180.4975197
0
ARC
8
DEFAULT_255_2_778
10
16.7271765
20
42.187754
40
0.6340006
50
359.5024881
51
89.7581009
0
ARC
8
DEFAULT_255_2_778
10
16.7271768
20
42.1767436
40
0.6340003
50
270.2418684
51
0.4975336
0
ARC
8
DEFAULT_255_2_778
10
16.7325299
20
42.1767437
40
0.6340005
50
179.5024805
51
269.758104
0
ARC
8
DEFAULT_255_2_778
10
17.1189581
20
42.2021235
40
0.5748535
50
158.6224664
51
180.7450103
0
ARC
8
DEFAULT_255_2_778
10
16.8143054
20
42.3291995
40
0.2449488
50
125.6968143
51
160.3264119
0
ARC
8
DEFAULT_255_2_778
10
16.7310393
20
42.4359868
40
0.1097683
50
90.6191325
51
122.9231799
0
ARC
8
DEFAULT_255_2_778
10
16.7161984
20
42.3978461
40
0.1485318
50
26.6299238
51
84.7252528
0
ARC
8
DEFAULT_255_2_778
10
16.4561415
20
42.232402
40
0.4562354
50
6.9672199
51
30.5675002
0
ARC
8
DEFAULT_255_2_778
10
16.261361
20
42.1954325
40
0.6541928
50
359.9313724
51
8.1119436
0
ARC
8
DEFAULT_255_2_778
10
16.3407903
20
42.1872075
40
0.5748111
50
338.6217917
51
0.7417631
0
ARC
8
DEFAULT_255_2_778
10
16.6452775
20
42.0601776
40
0.2450776
50
305.7107467
51
340.3279893
0
ARC
8
DEFAULT_255_2_778
10
16.7286626
20
41.9532757
40
0.1097331
50
270.6216799
51
302.9378787
0
ARC
8
DEFAULT_255_2_778
10
16.7435343
20
41.9914636
40
0.148546
50
206.6181959
51
264.7155805
0
ARC
8
DEFAULT_255_2_778
10
17.0037331
20
42.1569852
40
0.456409
50
186.9714802
51
210.5628916
0
ARC
8
DEFAULT_255_2_778
10
17.1979553
20
42.1938721
40
0.6538026
50
179.9319269
51
188.1143536
0
ARC
8
DEFAULT_255_2_778
10
14.2076298
20
42.1877541
40
0.6340005
50
90.2418914
51
180.4975151
0
ARC
8
DEFAULT_255_2_778
10
14.2022765
20
42.187754
40
0.6340006
50
359.5024881
51
89.7581009
0
ARC
8
DEFAULT_255_2_778
10
14.2022768
20
42.1767436
40
0.6340003
50
270.2418684
51
0.4975336
0
ARC
8
DEFAULT_255_2_778
10
14.2076299
20
42.1767437
40
0.6340005
50
179.5024805
51
269.758104
0
ARC
8
DEFAULT_255_2_778
10
14.5935296
20
42.2021068
40
0.5744248
50
158.6039448
51
180.7439081
0
ARC
8
DEFAULT_255_2_778
10
14.2894145
20
42.329083
40
0.2450547
50
125.6846154
51
160.3063409
0
ARC
8
DEFAULT_255_2_778
10
14.2061439
20
42.435937
40
0.1098183
50
90.6212609
51
122.9155624
0
ARC
8
DEFAULT_255_2_778
10
14.1912984
20
42.3978461
40
0.1485318
50
26.6299238
51
84.7252528
0
ARC
8
DEFAULT_255_2_778
10
13.9312415
20
42.232402
40
0.4562354
50
6.9672199
51
30.5675002
0
ARC
8
DEFAULT_255_2_778
10
13.736461
20
42.1954325
40
0.6541928
50
359.9313724
51
8.1119436
0
ARC
8
DEFAULT_255_2_778
10
13.8158903
20
42.1872075
40
0.5748111
50
338.6217917
51
0.7417631
0
ARC
8
DEFAULT_255_2_778
10
14.1203775
20
42.0601776
40
0.2450776
50
305.7107467
51
340.3279893
0
ARC
8
DEFAULT_255_2_778
10
14.2037626
20
41.9532757
40
0.1097331
50
270.6216799
51
302.9378787
0
ARC
8
DEFAULT_255_2_778
10
14.2183015
20
41.9907507
40
0.1478058
50
207.0367178
51
264.8185874
0
ARC
8
DEFAULT_255_2_778
10
14.4731143
20
42.1549943
40
0.4504617
50
187.4901111
51
210.9147812
0
ARC
8
DEFAULT_255_2_778
10
14.6699142
20
42.1937625
40
0.6507616
50
179.9219565
51
188.6157011
0
LINE
8
DEFAULT_255_2_778
10
14.8857532
20
42.7966489
11
15.3807532
21
42.7966489
0
LINE
8
DEFAULT_255_2_778
10
15.3807532
20
42.7966489
11
15.5540532
21
42.1319489
0
LINE
8
DEFAULT_255_2_778
10
15.5540532
20
42.1319489
11
15.7397532
21
42.8090489
0
LINE
8
DEFAULT_255_2_778
10
15.7397532
20
42.8090489
11
16.0369532
21
42.7212489
0
LINE
8
DEFAULT_255_2_778
10
16.0369532
20
42.7212489
11
15.7397532
21
41.6176489
0
LINE
8
DEFAULT_255_2_778
10
15.2817532
20
40.8778489
11
14.9351532
21
41.0408489
0
LINE
8
DEFAULT_255_2_778
10
15.4177532
20
41.6427489
11
15.2074532
21
41.6427489
0
LINE
8
DEFAULT_255_2_778
10
15.2074532
20
41.6427489
11
14.8857532
21
42.7966489
0
LINE
8
DEFAULT_255_2_778
10
16.0985532
20
42.1822489
11
16.0985532
21
42.1822489
0
LINE
8
DEFAULT_255_2_778
10
16.5441532
20
42.1946489
11
16.5441532
21
42.1946489
0
LINE
8
DEFAULT_255_2_778
10
13.5736532
20
42.1822489
11
13.5736532
21
42.1822489
0
LINE
8
DEFAULT_255_2_778
10
14.0191532
20
42.1946489
11
14.0191532
21
42.1946489
0
LINE
8
DEFAULT_255_2_778
10
12.0390532
20
43.5239489
11
12.5835532
21
43.5239489
0
LINE
8
DEFAULT_255_2_778
10
12.5835532
20
43.5239489
11
12.5835532
21
42.7966489
0
LINE
8
DEFAULT_255_2_778
10
12.5835532
20
42.7966489
11
13.0291532
21
43.5239489
0
LINE
8
DEFAULT_255_2_778
10
13.0291532
20
43.5239489
11
13.4992532
21
43.5239489
0
LINE
8
DEFAULT_255_2_778
10
13.4992532
20
43.5239489
11
12.9793532
21
42.6711489
0
LINE
8
DEFAULT_255_2_778
10
12.9793532
20
42.6711489
11
13.5982532
21
41.6178489
0
LINE
8
DEFAULT_255_2_778
10
13.5982532
20
41.6178489
11
13.0288532
21
41.6178489
0
LINE
8
DEFAULT_255_2_778
10
13.0288532
20
41.6178489
11
12.5584532
21
42.4203489
0
LINE
8
DEFAULT_255_2_778
10
12.5584532
20
42.4203489
11
12.5584532
21
41.6178489
0
LINE
8
DEFAULT_255_2_778
10
12.5584532
20
41.6178489
11
12.0390532
21
41.6178489
0
LINE
8
DEFAULT_255_2_778
10
12.0390532
20
41.6178489
11
12.0390532
21
43.5239489
0
LINE
8
DEFAULT_255_2_778
10
9.3932417
20
28.9719082
11
10.7161417
21
28.9719082
0
LINE
8
DEFAULT_255_2_778
10
10.7161417
20
28.9719082
11
10.7161417
21
19.7115082
0
LINE
8
DEFAULT_255_2_778
10
9.3932834
20
19.7114333
11
12.0390834
21
19.7114333
0
LINE
8
DEFAULT_255_2_778
10
12.0390834
20
19.7114333
11
12.0390834
21
14.4197333
0
LINE
8
DEFAULT_255_2_778
10
12.0390834
20
14.4197333
11
9.3932834
21
14.4197333
0
LINE
8
DEFAULT_255_2_778
10
9.3932834
20
14.4197333
11
9.3932834
21
19.7114333
0
ARC
8
DEFAULT_255_2_778_1
10
13.1928591
20
14.522177
40
4.816461
50
120.9442904
51
122.351755
0
ARC
8
DEFAULT_255_2_778_1
10
12.7462523
20
15.2258039
40
3.9830657
50
122.3407904
51
124.1946752
0
ARC
8
DEFAULT_255_2_778_1
10
12.3063464
20
15.8723306
40
3.2010724
50
124.1855758
51
126.4338849
0
ARC
8
DEFAULT_255_2_778_1
10
11.9204129
20
16.3950611
40
2.5513094
50
126.4326926
51
128.8877368
0
ARC
8
DEFAULT_255_2_778_1
10
11.5855968
20
16.8094658
40
2.0185498
50
128.8749205
51
131.8726567
0
ARC
8
DEFAULT_255_2_778_1
10
11.2884677
20
17.1404854
40
1.5737356
50
131.8616166
51
135.4168838
0
ARC
8
DEFAULT_255_2_778_1
10
11.025668
20
17.3986765
40
1.2053256
50
135.3893975
51
139.9687014
0
ARC
8
DEFAULT_255_2_778_1
10
10.7927889
20
17.5935102
40
0.9016937
50
139.9301659
51
145.9260426
0
ARC
8
DEFAULT_255_2_778_1
10
10.596654
20
17.7255104
40
0.6652776
50
145.8787362
51
153.8146208
0
ARC
8
DEFAULT_255_2_778_1
10
10.4445553
20
17.7998797
40
0.4959714
50
153.770634
51
164.3484794
0
ARC
8
DEFAULT_255_2_778_1
10
10.3432387
20
17.8280786
40
0.3908039
50
164.3220276
51
179.8083066
0
ARC
8
DEFAULT_255_2_778_1
10
10.3642789
20
17.836215
40
0.4118985
50
180.9499449
51
213.8111542
0
ARC
8
DEFAULT_255_2_778_1
10
10.6401828
20
18.0057896
40
0.73561
50
212.8271214
51
224.258472
0
ARC
8
DEFAULT_255_2_778_1
10
11.0230335
20
18.3751236
40
1.267567
50
224.1376218
51
231.4508261
0
ARC
8
DEFAULT_255_2_778_1
10
11.6657195
20
19.1781168
40
2.2960809
50
231.3955893
51
236.1256478
0
ARC
8
DEFAULT_255_2_778_1
10
13.4980223
20
21.9246293
40
5.5976905
50
236.2233172
51
239.1314682
0
ARC
8
DEFAULT_255_2_778_1
10
25.447927
20
41.6523568
40
28.6623793
50
238.8606853
51
239.0711101
0
ARC
8
DEFAULT_255_2_778_1
10
6.2757281
20
9.5552653
40
8.7248518
50
57.2420924
51
59.4062964
0
ARC
8
DEFAULT_255_2_778_1
10
9.5034241
20
14.5862102
40
2.747542
50
52.8289294
51
57.079028
0
ARC
8
DEFAULT_255_2_778_1
10
10.2780783
20
15.6065488
40
1.466457
50
46.3041868
51
52.8596521
0
ARC
8
DEFAULT_255_2_778_1
10
10.7103073
20
16.0566842
40
0.8424061
50
36.2174211
51
46.4090895
0
ARC
8
DEFAULT_255_2_778_1
10
10.9948088
20
16.2615128
40
0.4918609
50
17.400375
51
36.5489745
0
ARC
8
DEFAULT_255_2_778_1
10
11.1088994
20
16.3013754
40
0.3710912
50
0.0676858
51
16.7951297
0
ARC
8
DEFAULT_255_2_778_1
10
11.0878613
20
16.3032428
40
0.3921317
50
343.8035191
51
359.7912046
0
ARC
8
DEFAULT_255_2_778_1
10
10.9815912
20
16.3337167
40
0.5026844
50
333.2506233
51
343.8465691
0
ARC
8
DEFAULT_255_2_778_1
10
10.8277757
20
16.4104313
40
0.6745679
50
325.6600948
51
333.3122657
0
ARC
8
DEFAULT_255_2_778_1
10
10.6323344
20
16.5432296
40
0.9108568
50
319.7560915
51
325.6976089
0
ARC
8
DEFAULT_255_2_778_1
10
10.404199
20
16.7350002
40
1.2088854
50
315.4577584
51
319.8037947
0
ARC
8
DEFAULT_255_2_778_1
10
10.1408127
20
16.9938507
40
1.5781764
50
311.7298824
51
315.4670864
0
ARC
8
DEFAULT_255_2_778_1
10
9.8317879
20
17.3394074
40
2.0417554
50
308.723055
51
311.7470879
0
ARC
8
DEFAULT_255_2_778_1
10
9.477589
20
17.7806492
40
2.6075745
50
306.1165163
51
308.7300151
0
ARC
8
DEFAULT_255_2_778_1
10
9.0746091
20
18.3319523
40
3.2904564
50
303.9559446
51
306.1266333
0
ARC
8
DEFAULT_255_2_778_1
10
8.6630432
20
18.941215
40
4.0257023
50
302.3733397
51
303.9712246
0
ARC
8
DEFAULT_255_2_778_1
10
8.2434347
20
19.6027058
40
4.8090549
50
300.9434827
51
302.3758078
0
LINE
8
DEFAULT_255_2_778
10
10.7161417
20
14.4198082
11
10.7161417
21
5.1594082
0
LINE
8
DEFAULT_255_2_778
10
10.7161417
20
5.1594082
11
9.3932417
21
5.1594082
0
LINE
8
DEFAULT_255_1_388
10
4.8809318
20
36.5383382
11
4.8809318
21
36.4019
0
LINE
8
DEFAULT_255_1_388
10
4.8809318
20
36.4019
11
4.0189313
21
36.4019
0
LINE
8
DEFAULT_255_1_388
10
4.0189313
20
36.4019
11
4.0189313
21
36.5220741
0
LINE
8
DEFAULT_255_1_388
10
4.0189313
20
36.5220741
11
4.4743278
21
37.0280702
0
LINE
8
DEFAULT_255_1_388
10
4.1607909
20
37.3298607
11
3.9936315
21
37.3298607
0
LINE
8
DEFAULT_255_1_388
10
4.5728163
20
36.920546
11
4.2204262
21
36.5383382
0
LINE
8
DEFAULT_255_1_388
10
4.2204262
20
36.5383382
11
4.8809318
21
36.5383382
0
ARC
8
DEFAULT_255_1_388
10
2.9567337
20
38.3700983
40
2.0258655
50
318.5132526
51
320.7829045
0
ARC
8
DEFAULT_255_1_388
10
3.5515294
20
37.8859929
40
1.2589638
50
320.7372878
51
323.9739031
0
ARC
8
DEFAULT_255_1_388
10
3.9924226
20
37.5665554
40
0.7145141
50
323.8962701
51
328.64194
0
ARC
8
DEFAULT_255_1_388
10
4.2226484
20
37.4245545
40
0.4440242
50
328.8294576
51
331.7891185
0
ARC
8
DEFAULT_255_1_388
10
4.3348804
20
37.3666374
40
0.3177517
50
331.4254512
51
352.9365785
0
ARC
8
DEFAULT_255_1_388
10
4.3501804
20
37.363205
40
0.3021496
50
353.2257659
51
0.0166158
0
ARC
8
DEFAULT_255_1_388
10
4.3738564
20
37.3657894
40
0.2784847
50
359.486299
51
15.9343185
0
ARC
8
DEFAULT_255_1_388
10
4.4308831
20
37.3811269
40
0.2194403
50
16.1712913
51
43.5286088
0
ARC
8
DEFAULT_255_1_388
10
4.4395776
20
37.3898191
40
0.2071504
50
43.4417391
51
83.1661095
0
ARC
8
DEFAULT_255_1_388
10
4.4244937
20
37.3069316
40
0.2912888
50
82.160179
51
90.1505708
0
ARC
8
DEFAULT_255_1_388
10
4.4209418
20
37.2465279
40
0.3517025
50
89.5460741
51
102.5418361
0
ARC
8
DEFAULT_255_1_388
10
4.3936138
20
37.3624933
40
0.2325748
50
102.1738499
51
129.206123
0
ARC
8
DEFAULT_255_1_388
10
4.3847592
20
37.3764664
40
0.2161591
50
129.72865
51
135.753947
0
ARC
8
DEFAULT_255_1_388
10
4.3984074
20
37.3655728
40
0.2335433
50
136.1757367
51
166.3673339
0
ARC
8
DEFAULT_255_1_388
10
4.5116762
20
37.3352148
40
0.3507873
50
165.9090694
51
178.8684636
0
ARC
8
DEFAULT_255_1_388
10
4.6092534
20
37.3299263
40
0.4484624
50
178.4391136
51
180.0083808
0
ARC
8
DEFAULT_255_1_388
10
4.4513235
20
37.3343197
40
0.4577138
50
163.2878482
51
180.5581842
0
ARC
8
DEFAULT_255_1_388
10
4.3611276
20
37.3591393
40
0.3641968
50
133.4540601
51
162.947111
0
ARC
8
DEFAULT_255_1_388
10
4.3812158
20
37.3377789
40
0.3935189
50
100.7869829
51
133.4382499
0
ARC
8
DEFAULT_255_1_388
10
4.4203403
20
37.1635399
40
0.5720313
50
89.660664
51
101.3702276
0
ARC
8
DEFAULT_255_1_388
10
4.4278012
20
37.1704263
40
0.5651495
50
78.2172678
51
90.412935
0
ARC
8
DEFAULT_255_1_388
10
4.4677478
20
37.3531511
40
0.378122
50
55.9269121
51
78.4888449
0
ARC
8
DEFAULT_255_1_388
10
4.4898193
20
37.3912187
40
0.3342379
50
47.929771
51
55.4049217
0
ARC
8
DEFAULT_255_1_388
10
4.5012723
20
37.4028618
40
0.3179217
50
4.334829
51
48.0560205
0
ARC
8
DEFAULT_255_1_388
10
4.3780525
20
37.3837487
40
0.442341
50
359.9251713
51
5.5971671
0
ARC
8
DEFAULT_255_1_388
10
4.426268
20
37.3900728
40
0.3941854
50
337.8914027
51
358.9967534
0
ARC
8
DEFAULT_255_1_388
10
4.121025
20
37.5078295
40
0.7213271
50
326.9132501
51
338.3508308
0
ARC
8
DEFAULT_255_1_388
10
3.6726362
20
37.7952105
40
1.2538973
50
319.6471833
51
327.0959558
0
ARC
8
DEFAULT_255_1_388
10
3.241302
20
38.151005
40
1.8129975
50
317.2588228
51
319.9045804
0
LINE
8
DEFAULT_255_1_388
10
5.7637143
20
37.7174898
11
5.7637143
21
36.843743
0
LINE
8
DEFAULT_255_1_388
10
5.7637143
20
36.843743
11
5.9462343
21
36.843743
0
LINE
8
DEFAULT_255_1_388
10
5.9462343
20
36.843743
11
5.9462343
21
36.7073048
0
LINE
8
DEFAULT_255_1_388
10
5.9462343
20
36.7073048
11
5.7637143
21
36.7073048
0
LINE
8
DEFAULT_255_1_388
10
5.7637143
20
36.7073048
11
5.7637143
21
36.4019
0
LINE
8
DEFAULT_255_1_388
10
5.7637143
20
36.4019
11
5.5956513
21
36.4019
0
LINE
8
DEFAULT_255_1_388
10
5.5956513
20
36.4019
11
5.5956513
21
36.7073048
0
LINE
8
DEFAULT_255_1_388
10
5.5956513
20
36.7073048
11
4.996588
21
36.7073048
0
LINE
8
DEFAULT_255_1_388
10
4.996588
20
36.7073048
11
4.996588
21
36.8057933
0
LINE
8
DEFAULT_255_1_388
10
4.996588
20
36.8057933
11
5.5857121
21
37.7174898
0
LINE
8
DEFAULT_255_1_388
10
5.5857121
20
37.7174898
11
5.7637143
21
37.7174898
0
LINE
8
DEFAULT_255_1_388
10
5.5757729
20
37.4527455
11
5.1863366
21
36.843743
0
LINE
8
DEFAULT_255_1_388
10
5.1863366
20
36.843743
11
5.5956513
21
36.843743
0
LINE
8
DEFAULT_255_1_388
10
5.5956513
20
36.843743
11
5.5956513
21
37.488888
0
LINE
8
DEFAULT_255_1_388
10
5.5956513
20
37.488888
11
5.5757729
21
37.4527455
0
LINE
8
DEFAULT_255_1_388
10
6.201943
20
37.7174898
11
6.5760187
21
36.6323089
0
LINE
8
DEFAULT_255_1_388
10
6.5760187
20
36.6323089
11
6.9519015
21
37.7174898
0
LINE
8
DEFAULT_255_1_388
10
6.9519015
20
37.7174898
11
7.14165
21
37.7174898
0
LINE
8
DEFAULT_255_1_388
10
7.14165
20
37.7174898
11
6.6537252
21
36.4019
0
LINE
8
DEFAULT_255_1_388
10
6.6537252
20
36.4019
11
6.5001193
21
36.4019
0
LINE
8
DEFAULT_255_1_388
10
6.5001193
20
36.4019
11
6.013098
21
37.7174898
0
LINE
8
DEFAULT_255_1_388
10
6.013098
20
37.7174898
11
6.201943
21
37.7174898
0
LINE
8
DEFAULT_255_1_388
10
4.925532
20
5.0693468
11
5.0999199
21
5.0693468
0
LINE
8
DEFAULT_255_1_388
10
4.0870242
20
5.2482525
11
4.0870242
21
5.3747516
0
LINE
8
DEFAULT_255_1_388
10
5.0999199
20
5.5446217
11
4.925532
21
5.5446217
0
LINE
8
DEFAULT_255_1_388
10
4.2614121
20
5.3702337
11
4.2614121
21
5.2428312
0
ARC
8
DEFAULT_255_1_388
10
4.4833433
20
5.1365329
40
0.6202263
50
340.1774904
51
353.7812217
0
ARC
8
DEFAULT_255_1_388
10
4.6601286
20
5.0706893
40
0.4315926
50
311.4560052
51
340.4420756
0
ARC
8
DEFAULT_255_1_388
10
4.6563826
20
5.0831665
40
0.4434573
50
282.4332229
51
310.7514507
0
ARC
8
DEFAULT_255_1_388
10
4.6069644
20
5.2873703
40
0.6535262
50
269.9358869
51
282.8096729
0
ARC
8
DEFAULT_255_1_388
10
4.6011583
20
5.4386329
40
0.8048043
50
269.9995752
51
270.3612856
0
ARC
8
DEFAULT_255_1_388
10
4.5952073
20
5.1587781
40
0.5249831
50
250.7885263
51
270.6488451
0
ARC
8
DEFAULT_255_1_388
10
4.5762898
20
5.0870853
40
0.4510942
50
219.3628377
51
250.0611024
0
ARC
8
DEFAULT_255_1_388
10
4.6695772
20
5.1663653
40
0.5735046
50
193.5480293
51
219.5755675
0
ARC
8
DEFAULT_255_1_388
10
4.9363981
20
5.235652
40
0.849146
50
181.1220183
51
193.8754971
0
ARC
8
DEFAULT_255_1_388
10
5.1687214
20
5.2480914
40
1.0816971
50
179.9914644
51
181.5398227
0
ARC
8
DEFAULT_255_1_388
10
4.9610525
20
5.3789586
40
0.8740384
50
169.5837606
51
180.275782
0
ARC
8
DEFAULT_255_1_388
10
4.7543873
20
5.4171439
40
0.6638751
50
155.0367033
51
169.6002779
0
ARC
8
DEFAULT_255_1_388
10
4.6266331
20
5.4787336
40
0.5220662
50
136.7831557
51
155.2472983
0
ARC
8
DEFAULT_255_1_388
10
4.5828122
20
5.5159577
40
0.4646502
50
121.7633063
51
136.4281161
0
ARC
8
DEFAULT_255_1_388
10
4.5979962
20
5.4879049
40
0.4964979
50
95.6460018
51
121.5489589
0
ARC
8
DEFAULT_255_1_388
10
4.6156936
20
5.3631704
40
0.6223912
50
89.9245727
51
96.1375919
0
ARC
8
DEFAULT_255_1_388
10
4.6213641
20
5.3765721
40
0.6090084
50
76.6779212
51
90.456405
0
ARC
8
DEFAULT_255_1_388
10
4.6656454
20
5.555506
40
0.42469
50
47.4858803
51
76.9287069
0
ARC
8
DEFAULT_255_1_388
10
4.6491068
20
5.5442623
40
0.4441778
50
16.5424081
51
46.8934505
0
ARC
8
DEFAULT_255_1_388
10
4.4682118
20
5.4848265
40
0.6345318
50
5.4072971
51
17.0363711
0
ARC
8
DEFAULT_255_1_388
10
4.3063843
20
5.4588304
40
0.6250632
50
7.8888693
51
15.9242022
0
ARC
8
DEFAULT_255_1_388
10
4.5298828
20
5.5237309
40
0.3923364
50
15.7650676
51
27.9410069
0
ARC
8
DEFAULT_255_1_388
10
4.6540997
20
5.5902317
40
0.2514401
50
27.8167196
51
46.4007942
0
ARC
8
DEFAULT_255_1_388
10
4.6596839
20
5.5895882
40
0.2480958
50
47.4372362
51
75.0695672
0
ARC
8
DEFAULT_255_1_388
10
4.6249675
20
5.4687277
40
0.3738281
50
74.7009379
51
87.8124314
0
ARC
8
DEFAULT_255_1_388
10
4.6167292
20
5.3503659
40
0.4924321
50
87.3802571
51
90.0251599
0
ARC
8
DEFAULT_255_1_388
10
4.6123939
20
5.4823997
40
0.3604218
50
89.3451886
51
108.5744412
0
ARC
8
DEFAULT_255_1_388
10
4.5969931
20
5.5401836
40
0.3007661
50
109.2998307
51
143.3037387
0
ARC
8
DEFAULT_255_1_388
10
4.6827221
20
5.4742584
40
0.4089031
50
143.075267
51
163.1918576
0
ARC
8
DEFAULT_255_1_388
10
4.9023055
20
5.4049652
40
0.6391492
50
162.9375929
51
174.6208776
0
ARC
8
DEFAULT_255_1_388
10
5.1977437
20
5.3725711
40
0.9363344
50
174.342123
51
180.1430283
0
ARC
8
DEFAULT_255_1_388
10
5.0929978
20
5.2382117
40
0.8315986
50
179.6817261
51
189.150555
0
ARC
8
DEFAULT_255_1_388
10
4.8116727
20
5.1913559
40
0.5464044
50
188.9911061
51
203.5772363
0
ARC
8
DEFAULT_255_1_388
10
4.6902019
20
5.1409539
40
0.4149206
50
203.9075402
51
215.1312435
0
ARC
8
DEFAULT_255_1_388
10
4.5863817
20
5.0604907
40
0.2837747
50
213.9071511
51
263.8848919
0
ARC
8
DEFAULT_255_1_388
10
4.600481
20
5.1487519
40
0.3730641
50
263.1757928
51
270.1031044
0
ARC
8
DEFAULT_255_1_388
10
4.604089
20
5.2890511
40
0.5133712
50
269.6722503
51
279.0606936
0
ARC
8
DEFAULT_255_1_388
10
4.6341045
20
5.107615
40
0.3294739
50
278.8749101
51
293.6349581
0
ARC
8
DEFAULT_255_1_388
10
4.6701249
20
5.0230251
40
0.2375405
50
293.8553806
51
310.0518171
0
ARC
8
DEFAULT_255_1_388
10
4.6706758
20
5.0160021
40
0.2318463
50
311.0644687
51
332.0111037
0
ARC
8
DEFAULT_255_1_388
10
4.5365431
20
5.0899702
40
0.3850112
50
331.6586806
51
343.2877423
0
ARC
8
DEFAULT_255_1_388
10
4.3044896
20
5.1612806
40
0.6277712
50
343.1446576
51
351.0103568
0
ARC
8
DEFAULT_255_1_388
10
4.141222
20
5.1912873
40
0.7937327
50
350.71248
51
351.1626997
0
LINE
8
DEFAULT_255_1_388
10
6.3477424
20
5.9674898
11
6.3477424
21
4.6519
0
LINE
8
DEFAULT_255_1_388
10
6.3477424
20
4.6519
11
6.1733545
21
4.6519
0
LINE
8
DEFAULT_255_1_388
10
6.1733545
20
4.6519
11
6.1733545
21
5.2599989
0
LINE
8
DEFAULT_255_1_388
10
6.1733545
20
5.2599989
11
5.5101382
21
5.2599989
0
LINE
8
DEFAULT_255_1_388
10
5.5101382
20
5.2599989
11
5.5101382
21
4.6519
0
LINE
8
DEFAULT_255_1_388
10
5.5101382
20
4.6519
11
5.3366538
21
4.6519
0
LINE
8
DEFAULT_255_1_388
10
5.3366538
20
4.6519
11
5.3366538
21
5.9674898
0
LINE
8
DEFAULT_255_1_388
10
5.3366538
20
5.9674898
11
5.5101382
21
5.9674898
0
LINE
8
DEFAULT_255_1_388
10
5.5101382
20
5.9674898
11
5.5101382
21
5.4018585
0
LINE
8
DEFAULT_255_1_388
10
5.5101382
20
5.4018585
11
6.1733545
21
5.4018585
0
LINE
8
DEFAULT_255_1_388
10
6.1733545
20
5.4018585
11
6.1733545
21
5.9674898
0
LINE
8
DEFAULT_255_1_388
10
6.1733545
20
5.9674898
11
6.3477424
21
5.9674898
0
LINE
8
DEFAULT_255_1_388
10
7.3181707
20
5.9674898
11
7.3181707
21
5.093743
0
LINE
8
DEFAULT_255_1_388
10
7.3181707
20
5.093743
11
7.5006907
21
5.093743
0
LINE
8
DEFAULT_255_1_388
10
7.5006907
20
5.093743
11
7.5006907
21
4.9573048
0
LINE
8
DEFAULT_255_1_388
10
7.5006907
20
4.9573048
11
7.3181707
21
4.9573048
0
LINE
8
DEFAULT_255_1_388
10
7.3181707
20
4.9573048
11
7.3181707
21
4.6519
0
LINE
8
DEFAULT_255_1_388
10
7.3181707
20
4.6519
11
7.1501077
21
4.6519
0
LINE
8
DEFAULT_255_1_388
10
7.1501077
20
4.6519
11
7.1501077
21
4.9573048
0
LINE
8
DEFAULT_255_1_388
10
7.1501077
20
4.9573048
11
6.5510444
21
4.9573048
0
LINE
8
DEFAULT_255_1_388
10
6.5510444
20
4.9573048
11
6.5510444
21
5.0557933
0
LINE
8
DEFAULT_255_1_388
10
6.5510444
20
5.0557933
11
7.1401685
21
5.9674898
0
LINE
8
DEFAULT_255_1_388
10
7.1401685
20
5.9674898
11
7.3181707
21
5.9674898
0
LINE
8
DEFAULT_255_1_388
10
7.1302292
20
5.7027455
11
6.740793
21
5.093743
0
LINE
8
DEFAULT_255_1_388
10
6.740793
20
5.093743
11
7.1501077
21
5.093743
0
LINE
8
DEFAULT_255_1_388
10
7.1501077
20
5.093743
11
7.1501077
21
5.738888
0
LINE
8
DEFAULT_255_1_388
10
7.1501077
20
5.738888
11
7.1302292
21
5.7027455
0
LINE
8
DEFAULT_255_1_388
10
4.793232
20
13.0068468
11
4.9676199
21
13.0068468
0
LINE
8
DEFAULT_255_1_388
10
3.9547242
20
13.1857525
11
3.9547242
21
13.3122516
0
LINE
8
DEFAULT_255_1_388
10
4.9676199
20
13.4821217
11
4.793232
21
13.4821217
0
LINE
8
DEFAULT_255_1_388
10
4.1291121
20
13.3077337
11
4.1291121
21
13.1803312
0
ARC
8
DEFAULT_255_1_388
10
4.3510433
20
13.0740329
40
0.6202263
50
340.1774904
51
353.7812217
0
ARC
8
DEFAULT_255_1_388
10
4.5278286
20
13.0081893
40
0.4315926
50
311.4560052
51
340.4420756
0
ARC
8
DEFAULT_255_1_388
10
4.5240826
20
13.0206665
40
0.4434573
50
282.4332229
51
310.7514507
0
ARC
8
DEFAULT_255_1_388
10
4.4746644
20
13.2248703
40
0.6535262
50
269.9358869
51
282.8096729
0
ARC
8
DEFAULT_255_1_388
10
4.4688583
20
13.3761329
40
0.8048043
50
269.9995752
51
270.3612856
0
ARC
8
DEFAULT_255_1_388
10
4.4629073
20
13.0962781
40
0.5249831
50
250.7885263
51
270.6488451
0
ARC
8
DEFAULT_255_1_388
10
4.4439898
20
13.0245853
40
0.4510942
50
219.3628377
51
250.0611024
0
ARC
8
DEFAULT_255_1_388
10
4.5372772
20
13.1038653
40
0.5735046
50
193.5480293
51
219.5755675
0
ARC
8
DEFAULT_255_1_388
10
4.8040981
20
13.173152
40
0.849146
50
181.1220183
51
193.8754971
0
ARC
8
DEFAULT_255_1_388
10
5.0364214
20
13.1855914
40
1.0816971
50
179.9914644
51
181.5398227
0
ARC
8
DEFAULT_255_1_388
10
4.8287525
20
13.3164586
40
0.8740384
50
169.5837606
51
180.275782
0
ARC
8
DEFAULT_255_1_388
10
4.6220873
20
13.3546439
40
0.6638751
50
155.0367033
51
169.6002779
0
ARC
8
DEFAULT_255_1_388
10
4.4943331
20
13.4162336
40
0.5220662
50
136.7831557
51
155.2472983
0
ARC
8
DEFAULT_255_1_388
10
4.4505122
20
13.4534577
40
0.4646502
50
121.7633063
51
136.4281161
0
ARC
8
DEFAULT_255_1_388
10
4.4656962
20
13.4254049
40
0.4964979
50
95.6460018
51
121.5489589
0
ARC
8
DEFAULT_255_1_388
10
4.4833936
20
13.3006704
40
0.6223912
50
89.9245727
51
96.1375919
0
ARC
8
DEFAULT_255_1_388
10
4.4890641
20
13.3140721
40
0.6090084
50
76.6779212
51
90.456405
0
ARC
8
DEFAULT_255_1_388
10
4.5333454
20
13.493006
40
0.42469
50
47.4858803
51
76.9287069
0
ARC
8
DEFAULT_255_1_388
10
4.5168068
20
13.4817623
40
0.4441778
50
16.5424081
51
46.8934505
0
ARC
8
DEFAULT_255_1_388
10
4.3359118
20
13.4223265
40
0.6345318
50
5.4072971
51
17.0363711
0
ARC
8
DEFAULT_255_1_388
10
4.1740843
20
13.3963304
40
0.6250632
50
7.8888693
51
15.9242022
0
ARC
8
DEFAULT_255_1_388
10
4.3975828
20
13.4612309
40
0.3923364
50
15.7650676
51
27.9410069
0
ARC
8
DEFAULT_255_1_388
10
4.5217997
20
13.5277317
40
0.2514401
50
27.8167196
51
46.4007942
0
ARC
8
DEFAULT_255_1_388
10
4.5273839
20
13.5270882
40
0.2480958
50
47.4372362
51
75.0695672
0
ARC
8
DEFAULT_255_1_388
10
4.4926675
20
13.4062277
40
0.3738281
50
74.7009379
51
87.8124314
0
ARC
8
DEFAULT_255_1_388
10
4.4844292
20
13.2878659
40
0.4924321
50
87.3802571
51
90.0251599
0
ARC
8
DEFAULT_255_1_388
10
4.4800939
20
13.4198997
40
0.3604218
50
89.3451886
51
108.5744412
0
ARC
8
DEFAULT_255_1_388
10
4.4646931
20
13.4776836
40
0.3007661
50
109.2998307
51
143.3037387
0
ARC
8
DEFAULT_255_1_388
10
4.5504221
20
13.4117584
40
0.4089031
50
143.075267
51
163.1918576
0
ARC
8
DEFAULT_255_1_388
10
4.7700055
20
13.3424652
40
0.6391492
50
162.9375929
51
174.6208776
0
ARC
8
DEFAULT_255_1_388
10
5.0654437
20
13.3100711
40
0.9363344
50
174.342123
51
180.1430283
0
ARC
8
DEFAULT_255_1_388
10
4.9606978
20
13.1757117
40
0.8315986
50
179.6817261
51
189.150555
0
ARC
8
DEFAULT_255_1_388
10
4.6793727
20
13.1288559
40
0.5464044
50
188.9911061
51
203.5772363
0
ARC
8
DEFAULT_255_1_388
10
4.5579019
20
13.0784539
40
0.4149206
50
203.9075402
51
215.1312435
0
ARC
8
DEFAULT_255_1_388
10
4.4540817
20
12.9979907
40
0.2837747
50
213.9071511
51
263.8848919
0
ARC
8
DEFAULT_255_1_388
10
4.468181
20
13.0862519
40
0.3730641
50
263.1757928
51
270.1031044
0
ARC
8
DEFAULT_255_1_388
10
4.471789
20
13.2265511
40
0.5133712
50
269.6722503
51
279.0606936
0
ARC
8
DEFAULT_255_1_388
10
4.5018045
20
13.045115
40
0.3294739
50
278.8749101
51
293.6349581
0
ARC
8
DEFAULT_255_1_388
10
4.5378249
20
12.9605251
40
0.2375405
50
293.8553806
51
310.0518171
0
ARC
8
DEFAULT_255_1_388
10
4.5383758
20
12.9535021
40
0.2318463
50
311.0644687
51
332.0111037
0
ARC
8
DEFAULT_255_1_388
10
4.4042431
20
13.0274702
40
0.3850112
50
331.6586806
51
343.2877423
0
ARC
8
DEFAULT_255_1_388
10
4.1721896
20
13.0987806
40
0.6277712
50
343.1446576
51
351.0103568
0
ARC
8
DEFAULT_255_1_388
10
4.008922
20
13.1287873
40
0.7937327
50
350.71248
51
351.1626997
0
LINE
8
DEFAULT_255_1_388
10
6.2154424
20
13.9049898
11
6.2154424
21
12.5894
0
LINE
8
DEFAULT_255_1_388
10
6.2154424
20
12.5894
11
6.0410545
21
12.5894
0
LINE
8
DEFAULT_255_1_388
10
6.0410545
20
12.5894
11
6.0410545
21
13.1974989
0
LINE
8
DEFAULT_255_1_388
10
6.0410545
20
13.1974989
11
5.3778382
21
13.1974989
0
LINE
8
DEFAULT_255_1_388
10
5.3778382
20
13.1974989
11
5.3778382
21
12.5894
0
LINE
8
DEFAULT_255_1_388
10
5.3778382
20
12.5894
11
5.2043538
21
12.5894
0
LINE
8
DEFAULT_255_1_388
10
5.2043538
20
12.5894
11
5.2043538
21
13.9049898
0
LINE
8
DEFAULT_255_1_388
10
5.2043538
20
13.9049898
11
5.3778382
21
13.9049898
0
LINE
8
DEFAULT_255_1_388
10
5.3778382
20
13.9049898
11
5.3778382
21
13.3393585
0
LINE
8
DEFAULT_255_1_388
10
5.3778382
20
13.3393585
11
6.0410545
21
13.3393585
0
LINE
8
DEFAULT_255_1_388
10
6.0410545
20
13.3393585
11
6.0410545
21
13.9049898
0
LINE
8
DEFAULT_255_1_388
10
6.0410545
20
13.9049898
11
6.2154424
21
13.9049898
0
LINE
8
DEFAULT_255_1_388
10
6.7232457
20
13.1920775
11
6.7232457
21
13.3285157
0
LINE
8
DEFAULT_255_1_388
10
6.7232457
20
13.3285157
11
6.8488411
21
13.3285157
0
LINE
8
DEFAULT_255_1_388
10
6.6346963
20
13.5598282
11
6.4675369
21
13.5598282
0
LINE
8
DEFAULT_255_1_388
10
6.4557906
20
12.9363687
11
6.6238536
21
12.9363687
0
LINE
8
DEFAULT_255_1_388
10
6.8488411
20
13.1920775
11
6.7232457
21
13.1920775
0
ARC
8
DEFAULT_255_1_388
10
6.8455638
20
13.7101922
40
0.3816905
50
270.491971
51
281.8953028
0
ARC
8
DEFAULT_255_1_388
10
6.8727065
20
13.5862199
40
0.2547877
50
281.6690378
51
301.2943765
0
ARC
8
DEFAULT_255_1_388
10
6.8918516
20
13.5511926
40
0.2149197
50
301.7834992
51
311.754567
0
ARC
8
DEFAULT_255_1_388
10
6.9021557
20
13.539765
40
0.1995326
50
311.7325027
51
354.2803031
0
ARC
8
DEFAULT_255_1_388
10
6.8203973
20
13.553828
40
0.2823461
50
353.0941646
51
0.1174696
0
ARC
8
DEFAULT_255_1_388
10
6.7685531
20
13.5591874
40
0.3342238
50
359.1804452
51
15.0452323
0
ARC
8
DEFAULT_255_1_388
10
6.9199589
20
13.6033546
40
0.1765747
50
13.957816
51
77.6713812
0
ARC
8
DEFAULT_255_1_388
10
6.8764825
20
13.4475464
40
0.3381982
50
76.111571
51
90.7028736
0
ARC
8
DEFAULT_255_1_388
10
6.8698237
20
13.478325
40
0.3074046
50
89.5321574
51
103.5319393
0
ARC
8
DEFAULT_255_1_388
10
6.8472621
20
13.5682443
40
0.2147041
50
103.2930114
51
133.5619756
0
ARC
8
DEFAULT_255_1_388
10
6.8422563
20
13.5749351
40
0.2064084
50
133.8349761
51
173.5343225
0
ARC
8
DEFAULT_255_1_388
10
6.923622
20
13.5605144
40
0.2889266
50
172.5097183
51
180.1360699
0
ARC
8
DEFAULT_255_1_388
10
6.8165984
20
13.564388
40
0.3490913
50
155.3483706
51
180.7484035
0
ARC
8
DEFAULT_255_1_388
10
6.811096
20
13.5611519
40
0.3454798
50
131.5745177
51
154.4799474
0
ARC
8
DEFAULT_255_1_388
10
6.8463242
20
13.5255422
40
0.3955058
50
96.9874487
51
131.9690874
0
ARC
8
DEFAULT_255_1_388
10
6.8710135
20
13.3854407
40
0.537622
50
89.8592909
51
97.7827481
0
ARC
8
DEFAULT_255_1_388
10
6.8764244
20
13.355936
40
0.5671399
50
78.3654493
51
90.4132586
0
ARC
8
DEFAULT_255_1_388
10
6.9166885
20
13.5425918
40
0.3762034
50
56.6229818
51
78.6387103
0
ARC
8
DEFAULT_255_1_388
10
6.9408714
20
13.5848846
40
0.3275964
50
47.0254604
51
56.085558
0
ARC
8
DEFAULT_255_1_388
10
6.9430965
20
13.5893189
40
0.3228382
50
10.9207523
51
46.777927
0
ARC
8
DEFAULT_255_1_388
10
6.7896559
20
13.5538401
40
0.4802559
50
359.6364235
51
11.6087615
0
ARC
8
DEFAULT_255_1_388
10
6.9960725
20
13.5521404
40
0.273833
50
332.3549969
51
359.7179765
0
ARC
8
DEFAULT_255_1_388
10
6.9229125
20
13.5868285
40
0.3547505
50
325.2332381
51
332.8746682
0
ARC
8
DEFAULT_255_1_388
10
6.9400708
20
13.5748763
40
0.3338396
50
292.9803892
51
325.2391113
0
ARC
8
DEFAULT_255_1_388
10
6.9089904
20
13.6353679
40
0.4016959
50
292.542178
51
293.6931461
0
ARC
8
DEFAULT_255_1_388
10
6.9533476
20
12.9088036
40
0.372079
50
57.643292
51
72.8626085
0
ARC
8
DEFAULT_255_1_388
10
6.9932311
20
12.9734273
40
0.2961455
50
36.7246661
51
57.4701329
0
ARC
8
DEFAULT_255_1_388
10
6.9919467
20
12.974847
40
0.2963321
50
8.054535
51
36.3561529
0
ARC
8
DEFAULT_255_1_388
10
6.894914
20
12.9574073
40
0.3948682
50
359.8316595
51
8.5873361
0
ARC
8
DEFAULT_255_1_388
10
6.8526614
20
12.951997
40
0.4371398
50
343.9831631
51
0.557075
0
ARC
8
DEFAULT_255_1_388
10
6.9523664
20
12.9246963
40
0.3337749
50
311.6358204
51
343.7652116
0
ARC
8
DEFAULT_255_1_388
10
6.9097917
20
12.9726955
40
0.3979351
50
279.7829743
51
311.625622
0
ARC
8
DEFAULT_255_1_388
10
6.8759053
20
13.1343642
40
0.5630417
50
269.7285092
51
280.3857694
0
ARC
8
DEFAULT_255_1_388
10
6.8689366
20
13.1297241
40
0.5584119
50
256.6827433
51
270.4412869
0
ARC
8
DEFAULT_255_1_388
10
6.8308352
20
12.9739698
40
0.3980715
50
229.4223821
51
256.8554507
0
ARC
8
DEFAULT_255_1_388
10
6.7841905
20
12.9214683
40
0.3278564
50
181.8183354
51
229.6455015
0
ARC
8
DEFAULT_255_1_388
10
6.9011515
20
12.9361825
40
0.4453611
50
179.9760419
51
183.2330638
0
ARC
8
DEFAULT_255_1_388
10
6.8818067
20
12.9338781
40
0.2579652
50
179.4467996
51
196.2871626
0
ARC
8
DEFAULT_255_1_388
10
6.8269521
20
12.9188709
40
0.2011057
50
196.5661293
51
227.7059371
0
ARC
8
DEFAULT_255_1_388
10
6.8454128
20
12.9395155
40
0.2287994
50
227.7653015
51
257.8763321
0
ARC
8
DEFAULT_255_1_388
10
6.8707211
20
13.0455961
40
0.3378385
50
257.4583525
51
270.4267406
0
ARC
8
DEFAULT_255_1_388
10
6.8758461
20
13.078223
40
0.3704652
50
269.5965319
51
280.8788143
0
ARC
8
DEFAULT_255_1_388
10
6.9016689
20
12.9492529
40
0.2389415
50
280.6347277
51
299.8594068
0
ARC
8
DEFAULT_255_1_388
10
6.9231459
20
12.9084736
40
0.19289
50
300.3575552
51
314.5515667
0
ARC
8
DEFAULT_255_1_388
10
6.9138134
20
12.9153025
40
0.204312
50
315.0730962
51
345.0429362
0
ARC
8
DEFAULT_255_1_388
10
6.8099642
20
12.9455539
40
0.31246
50
344.598526
51
357.9270698
0
ARC
8
DEFAULT_255_1_388
10
6.7089947
20
12.9524705
40
0.4136265
50
357.4755098
51
0.0224936
0
ARC
8
DEFAULT_255_1_388
10
6.8242824
20
12.9552099
40
0.2983498
50
359.5051035
51
13.4236939
0
ARC
8
DEFAULT_255_1_388
10
6.9217914
20
12.9801637
40
0.1977186
50
12.9497905
51
48.7550905
0
ARC
8
DEFAULT_255_1_388
10
6.9012836
20
12.9521373
40
0.2323321
50
49.509109
51
72.1832965
0
ARC
8
DEFAULT_255_1_388
10
6.8610304
20
12.8326632
40
0.358397
50
71.9008458
51
84.3555134
0
ARC
8
DEFAULT_255_1_388
10
6.8428699
20
12.6794712
40
0.512641
50
84.019632
51
89.3326067
0
LINE
8
DEFAULT_255_1_388
10
4.793232
20
20.9443468
11
4.9676199
21
20.9443468
0
LINE
8
DEFAULT_255_1_388
10
3.9547242
20
21.1232525
11
3.9547242
21
21.2497516
0
LINE
8
DEFAULT_255_1_388
10
4.9676199
20
21.4196217
11
4.793232
21
21.4196217
0
LINE
8
DEFAULT_255_1_388
10
4.1291121
20
21.2452337
11
4.1291121
21
21.1178312
0
ARC
8
DEFAULT_255_1_388
10
4.3510433
20
21.0115329
40
0.6202263
50
340.1774904
51
353.7812217
0
ARC
8
DEFAULT_255_1_388
10
4.5278286
20
20.9456893
40
0.4315926
50
311.4560052
51
340.4420756
0
ARC
8
DEFAULT_255_1_388
10
4.5240826
20
20.9581665
40
0.4434573
50
282.4332229
51
310.7514507
0
ARC
8
DEFAULT_255_1_388
10
4.4746644
20
21.1623703
40
0.6535262
50
269.9358869
51
282.8096729
0
ARC
8
DEFAULT_255_1_388
10
4.4688583
20
21.3136329
40
0.8048043
50
269.9995752
51
270.3612856
0
ARC
8
DEFAULT_255_1_388
10
4.4629073
20
21.0337781
40
0.5249831
50
250.7885263
51
270.6488451
0
ARC
8
DEFAULT_255_1_388
10
4.4439898
20
20.9620853
40
0.4510942
50
219.3628377
51
250.0611024
0
ARC
8
DEFAULT_255_1_388
10
4.5372772
20
21.0413653
40
0.5735046
50
193.5480293
51
219.5755675
0
ARC
8
DEFAULT_255_1_388
10
4.8040981
20
21.110652
40
0.849146
50
181.1220183
51
193.8754971
0
ARC
8
DEFAULT_255_1_388
10
5.0364214
20
21.1230914
40
1.0816971
50
179.9914644
51
181.5398227
0
ARC
8
DEFAULT_255_1_388
10
4.8287525
20
21.2539586
40
0.8740384
50
169.5837606
51
180.275782
0
ARC
8
DEFAULT_255_1_388
10
4.6220873
20
21.2921439
40
0.6638751
50
155.0367033
51
169.6002779
0
ARC
8
DEFAULT_255_1_388
10
4.4943331
20
21.3537336
40
0.5220662
50
136.7831557
51
155.2472983
0
ARC
8
DEFAULT_255_1_388
10
4.4505122
20
21.3909577
40
0.4646502
50
121.7633063
51
136.4281161
0
ARC
8
DEFAULT_255_1_388
10
4.4656962
20
21.3629049
40
0.4964979
50
95.6460018
51
121.5489589
0
ARC
8
DEFAULT_255_1_388
10
4.4833936
20
21.2381704
40
0.6223912
50
89.9245727
51
96.1375919
0
ARC
8
DEFAULT_255_1_388
10
4.4890641
20
21.2515721
40
0.6090084
50
76.6779212
51
90.456405
0
ARC
8
DEFAULT_255_1_388
10
4.5333454
20
21.430506
40
0.42469
50
47.4858803
51
76.9287069
0
ARC
8
DEFAULT_255_1_388
10
4.5168068
20
21.4192623
40
0.4441778
50
16.5424081
51
46.8934505
0
ARC
8
DEFAULT_255_1_388
10
4.3359118
20
21.3598265
40
0.6345318
50
5.4072971
51
17.0363711
0
ARC
8
DEFAULT_255_1_388
10
4.1740843
20
21.3338304
40
0.6250632
50
7.8888693
51
15.9242022
0
ARC
8
DEFAULT_255_1_388
10
4.3975828
20
21.3987309
40
0.3923364
50
15.7650676
51
27.9410069
0
ARC
8
DEFAULT_255_1_388
10
4.5217997
20
21.4652317
40
0.2514401
50
27.8167196
51
46.4007942
0
ARC
8
DEFAULT_255_1_388
10
4.5273839
20
21.4645882
40
0.2480958
50
47.4372362
51
75.0695672
0
ARC
8
DEFAULT_255_1_388
10
4.4926675
20
21.3437277
40
0.3738281
50
74.7009379
51
87.8124314
0
ARC
8
DEFAULT_255_1_388
10
4.4844292
20
21.2253659
40
0.4924321
50
87.3802571
51
90.0251599
0
ARC
8
DEFAULT_255_1_388
10
4.4800939
20
21.3573997
40
0.3604218
50
89.3451886
51
108.5744412
0
ARC
8
DEFAULT_255_1_388
10
4.4646931
20
21.4151836
40
0.3007661
50
109.2998307
51
143.3037387
0
ARC
8
DEFAULT_255_1_388
10
4.5504221
20
21.3492584
40
0.4089031
50
143.075267
51
163.1918576
0
ARC
8
DEFAULT_255_1_388
10
4.7700055
20
21.2799652
40
0.6391492
50
162.9375929
51
174.6208776
0
ARC
8
DEFAULT_255_1_388
10
5.0654437
20
21.2475711
40
0.9363344
50
174.342123
51
180.1430283
0
ARC
8
DEFAULT_255_1_388
10
4.9606978
20
21.1132117
40
0.8315986
50
179.6817261
51
189.150555
0
ARC
8
DEFAULT_255_1_388
10
4.6793727
20
21.0663559
40
0.5464044
50
188.9911061
51
203.5772363
0
ARC
8
DEFAULT_255_1_388
10
4.5579019
20
21.0159539
40
0.4149206
50
203.9075402
51
215.1312435
0
ARC
8
DEFAULT_255_1_388
10
4.4540817
20
20.9354907
40
0.2837747
50
213.9071511
51
263.8848919
0
ARC
8
DEFAULT_255_1_388
10
4.468181
20
21.0237519
40
0.3730641
50
263.1757928
51
270.1031044
0
ARC
8
DEFAULT_255_1_388
10
4.471789
20
21.1640511
40
0.5133712
50
269.6722503
51
279.0606936
0
ARC
8
DEFAULT_255_1_388
10
4.5018045
20
20.982615
40
0.3294739
50
278.8749101
51
293.6349581
0
ARC
8
DEFAULT_255_1_388
10
4.5378249
20
20.8980251
40
0.2375405
50
293.8553806
51
310.0518171
0
ARC
8
DEFAULT_255_1_388
10
4.5383758
20
20.8910021
40
0.2318463
50
311.0644687
51
332.0111037
0
ARC
8
DEFAULT_255_1_388
10
4.4042431
20
20.9649702
40
0.3850112
50
331.6586806
51
343.2877423
0
ARC
8
DEFAULT_255_1_388
10
4.1721896
20
21.0362806
40
0.6277712
50
343.1446576
51
351.0103568
0
ARC
8
DEFAULT_255_1_388
10
4.008922
20
21.0662873
40
0.7937327
50
350.71248
51
351.1626997
0
LINE
8
DEFAULT_255_1_388
10
6.2154424
20
21.8424898
11
6.2154424
21
20.5269
0
LINE
8
DEFAULT_255_1_388
10
6.2154424
20
20.5269
11
6.0410545
21
20.5269
0
LINE
8
DEFAULT_255_1_388
10
6.0410545
20
20.5269
11
6.0410545
21
21.1349989
0
LINE
8
DEFAULT_255_1_388
10
6.0410545
20
21.1349989
11
5.3778382
21
21.1349989
0
LINE
8
DEFAULT_255_1_388
10
5.3778382
20
21.1349989
11
5.3778382
21
20.5269
0
LINE
8
DEFAULT_255_1_388
10
5.3778382
20
20.5269
11
5.2043538
21
20.5269
0
LINE
8
DEFAULT_255_1_388
10
5.2043538
20
20.5269
11
5.2043538
21
21.8424898
0
LINE
8
DEFAULT_255_1_388
10
5.2043538
20
21.8424898
11
5.3778382
21
21.8424898
0
LINE
8
DEFAULT_255_1_388
10
5.3778382
20
21.8424898
11
5.3778382
21
21.2768585
0
LINE
8
DEFAULT_255_1_388
10
5.3778382
20
21.2768585
11
6.0410545
21
21.2768585
0
LINE
8
DEFAULT_255_1_388
10
6.0410545
20
21.2768585
11
6.0410545
21
21.8424898
0
LINE
8
DEFAULT_255_1_388
10
6.0410545
20
21.8424898
11
6.2154424
21
21.8424898
0
LINE
8
DEFAULT_255_1_388
10
7.3421873
20
20.6633382
11
7.3421873
21
20.5269
0
LINE
8
DEFAULT_255_1_388
10
7.3421873
20
20.5269
11
6.4801868
21
20.5269
0
LINE
8
DEFAULT_255_1_388
10
6.4801868
20
20.5269
11
6.4801868
21
20.6470741
0
LINE
8
DEFAULT_255_1_388
10
6.4801868
20
20.6470741
11
6.9355833
21
21.1530702
0
LINE
8
DEFAULT_255_1_388
10
6.6220464
20
21.4548607
11
6.454887
21
21.4548607
0
LINE
8
DEFAULT_255_1_388
10
7.0340718
20
21.045546
11
6.6816817
21
20.6633382
0
LINE
8
DEFAULT_255_1_388
10
6.6816817
20
20.6633382
11
7.3421873
21
20.6633382
0
ARC
8
DEFAULT_255_1_388
10
5.4179893
20
22.4950983
40
2.0258655
50
318.5132526
51
320.7829045
0
ARC
8
DEFAULT_255_1_388
10
6.0127849
20
22.0109929
40
1.2589638
50
320.7372878
51
323.9739031
0
ARC
8
DEFAULT_255_1_388
10
6.4536781
20
21.6915554
40
0.7145141
50
323.8962701
51
328.64194
0
ARC
8
DEFAULT_255_1_388
10
6.6839039
20
21.5495545
40
0.4440242
50
328.8294576
51
331.7891185
0
ARC
8
DEFAULT_255_1_388
10
6.7961359
20
21.4916374
40
0.3177517
50
331.4254512
51
352.9365785
0
ARC
8
DEFAULT_255_1_388
10
6.8114359
20
21.488205
40
0.3021496
50
353.2257659
51
0.0166158
0
ARC
8
DEFAULT_255_1_388
10
6.8351119
20
21.4907894
40
0.2784847
50
359.486299
51
15.9343185
0
ARC
8
DEFAULT_255_1_388
10
6.8921386
20
21.5061269
40
0.2194403
50
16.1712913
51
43.5286088
0
ARC
8
DEFAULT_255_1_388
10
6.9008331
20
21.5148191
40
0.2071504
50
43.4417391
51
83.1661095
0
ARC
8
DEFAULT_255_1_388
10
6.8857492
20
21.4319316
40
0.2912888
50
82.160179
51
90.1505708
0
ARC
8
DEFAULT_255_1_388
10
6.8821974
20
21.3715279
40
0.3517025
50
89.5460741
51
102.5418361
0
ARC
8
DEFAULT_255_1_388
10
6.8548694
20
21.4874933
40
0.2325748
50
102.1738499
51
129.206123
0
ARC
8
DEFAULT_255_1_388
10
6.8460147
20
21.5014664
40
0.2161591
50
129.72865
51
135.753947
0
ARC
8
DEFAULT_255_1_388
10
6.8596629
20
21.4905728
40
0.2335433
50
136.1757367
51
166.3673339
0
ARC
8
DEFAULT_255_1_388
10
6.9729317
20
21.4602148
40
0.3507873
50
165.9090694
51
178.8684636
0
ARC
8
DEFAULT_255_1_388
10
7.0705089
20
21.4549263
40
0.4484624
50
178.4391136
51
180.0083808
0
ARC
8
DEFAULT_255_1_388
10
6.912579
20
21.4593197
40
0.4577138
50
163.2878482
51
180.5581842
0
ARC
8
DEFAULT_255_1_388
10
6.8223832
20
21.4841393
40
0.3641968
50
133.4540601
51
162.947111
0
ARC
8
DEFAULT_255_1_388
10
6.8424713
20
21.4627789
40
0.3935189
50
100.7869829
51
133.4382499
0
ARC
8
DEFAULT_255_1_388
10
6.8815958
20
21.2885399
40
0.5720313
50
89.660664
51
101.3702276
0
ARC
8
DEFAULT_255_1_388
10
6.8890567
20
21.2954263
40
0.5651495
50
78.2172678
51
90.412935
0
ARC
8
DEFAULT_255_1_388
10
6.9290033
20
21.4781511
40
0.378122
50
55.9269121
51
78.4888449
0
ARC
8
DEFAULT_255_1_388
10
6.9510748
20
21.5162187
40
0.3342379
50
47.929771
51
55.4049217
0
ARC
8
DEFAULT_255_1_388
10
6.9625279
20
21.5278618
40
0.3179217
50
4.334829
51
48.0560205
0
ARC
8
DEFAULT_255_1_388
10
6.839308
20
21.5087487
40
0.442341
50
359.9251713
51
5.5971671
0
ARC
8
DEFAULT_255_1_388
10
6.8875235
20
21.5150728
40
0.3941854
50
337.8914027
51
358.9967534
0
ARC
8
DEFAULT_255_1_388
10
6.5822805
20
21.6328295
40
0.7213271
50
326.9132501
51
338.3508308
0
ARC
8
DEFAULT_255_1_388
10
6.1338917
20
21.9202105
40
1.2538973
50
319.6471833
51
327.0959558
0
ARC
8
DEFAULT_255_1_388
10
5.7025575
20
22.276005
40
1.8129975
50
317.2588228
51
319.9045804
0
LINE
8
DEFAULT_255_1_388
10
4.785032
20
28.8818468
11
4.9594199
21
28.8818468
0
LINE
8
DEFAULT_255_1_388
10
3.9465242
20
29.0607525
11
3.9465242
21
29.1872516
0
LINE
8
DEFAULT_255_1_388
10
4.9594199
20
29.3571217
11
4.785032
21
29.3571217
0
LINE
8
DEFAULT_255_1_388
10
4.1209121
20
29.1827337
11
4.1209121
21
29.0553312
0
ARC
8
DEFAULT_255_1_388
10
4.3428433
20
28.9490329
40
0.6202263
50
340.1774904
51
353.7812217
0
ARC
8
DEFAULT_255_1_388
10
4.5196286
20
28.8831893
40
0.4315926
50
311.4560052
51
340.4420756
0
ARC
8
DEFAULT_255_1_388
10
4.5158826
20
28.8956665
40
0.4434573
50
282.4332229
51
310.7514507
0
ARC
8
DEFAULT_255_1_388
10
4.4664644
20
29.0998703
40
0.6535262
50
269.9358869
51
282.8096729
0
ARC
8
DEFAULT_255_1_388
10
4.4606583
20
29.2511329
40
0.8048043
50
269.9995752
51
270.3612856
0
ARC
8
DEFAULT_255_1_388
10
4.4547073
20
28.9712781
40
0.5249831
50
250.7885263
51
270.6488451
0
ARC
8
DEFAULT_255_1_388
10
4.4357898
20
28.8995853
40
0.4510942
50
219.3628377
51
250.0611024
0
ARC
8
DEFAULT_255_1_388
10
4.5290772
20
28.9788653
40
0.5735046
50
193.5480293
51
219.5755675
0
ARC
8
DEFAULT_255_1_388
10
4.7958981
20
29.048152
40
0.849146
50
181.1220183
51
193.8754971
0
ARC
8
DEFAULT_255_1_388
10
5.0282214
20
29.0605914
40
1.0816971
50
179.9914644
51
181.5398227
0
ARC
8
DEFAULT_255_1_388
10
4.8205525
20
29.1914586
40
0.8740384
50
169.5837606
51
180.275782
0
ARC
8
DEFAULT_255_1_388
10
4.6138873
20
29.2296439
40
0.6638751
50
155.0367033
51
169.6002779
0
ARC
8
DEFAULT_255_1_388
10
4.4861331
20
29.2912336
40
0.5220662
50
136.7831557
51
155.2472983
0
ARC
8
DEFAULT_255_1_388
10
4.4423122
20
29.3284577
40
0.4646502
50
121.7633063
51
136.4281161
0
ARC
8
DEFAULT_255_1_388
10
4.4574962
20
29.3004049
40
0.4964979
50
95.6460018
51
121.5489589
0
ARC
8
DEFAULT_255_1_388
10
4.4751936
20
29.1756704
40
0.6223912
50
89.9245727
51
96.1375919
0
ARC
8
DEFAULT_255_1_388
10
4.4808641
20
29.1890721
40
0.6090084
50
76.6779212
51
90.456405
0
ARC
8
DEFAULT_255_1_388
10
4.5251454
20
29.368006
40
0.42469
50
47.4858803
51
76.9287069
0
ARC
8
DEFAULT_255_1_388
10
4.5086068
20
29.3567623
40
0.4441778
50
16.5424081
51
46.8934505
0
ARC
8
DEFAULT_255_1_388
10
4.3277118
20
29.2973265
40
0.6345318
50
5.4072971
51
17.0363711
0
ARC
8
DEFAULT_255_1_388
10
4.1658843
20
29.2713304
40
0.6250632
50
7.8888693
51
15.9242022
0
ARC
8
DEFAULT_255_1_388
10
4.3893828
20
29.3362309
40
0.3923364
50
15.7650676
51
27.9410069
0
ARC
8
DEFAULT_255_1_388
10
4.5135997
20
29.4027317
40
0.2514401
50
27.8167196
51
46.4007942
0
ARC
8
DEFAULT_255_1_388
10
4.5191839
20
29.4020882
40
0.2480958
50
47.4372362
51
75.0695672
0
ARC
8
DEFAULT_255_1_388
10
4.4844675
20
29.2812277
40
0.3738281
50
74.7009379
51
87.8124314
0
ARC
8
DEFAULT_255_1_388
10
4.4762292
20
29.1628659
40
0.4924321
50
87.3802571
51
90.0251599
0
ARC
8
DEFAULT_255_1_388
10
4.4718939
20
29.2948997
40
0.3604218
50
89.3451886
51
108.5744412
0
ARC
8
DEFAULT_255_1_388
10
4.4564931
20
29.3526836
40
0.3007661
50
109.2998307
51
143.3037387
0
ARC
8
DEFAULT_255_1_388
10
4.5422221
20
29.2867584
40
0.4089031
50
143.075267
51
163.1918576
0
ARC
8
DEFAULT_255_1_388
10
4.7618055
20
29.2174652
40
0.6391492
50
162.9375929
51
174.6208776
0
ARC
8
DEFAULT_255_1_388
10
5.0572437
20
29.1850711
40
0.9363344
50
174.342123
51
180.1430283
0
ARC
8
DEFAULT_255_1_388
10
4.9524978
20
29.0507117
40
0.8315986
50
179.6817261
51
189.150555
0
ARC
8
DEFAULT_255_1_388
10
4.6711727
20
29.0038559
40
0.5464044
50
188.9911061
51
203.5772363
0
ARC
8
DEFAULT_255_1_388
10
4.5497019
20
28.9534539
40
0.4149206
50
203.9075402
51
215.1312435
0
ARC
8
DEFAULT_255_1_388
10
4.4458817
20
28.8729907
40
0.2837747
50
213.9071511
51
263.8848919
0
ARC
8
DEFAULT_255_1_388
10
4.459981
20
28.9612519
40
0.3730641
50
263.1757928
51
270.1031044
0
ARC
8
DEFAULT_255_1_388
10
4.463589
20
29.1015511
40
0.5133712
50
269.6722503
51
279.0606936
0
ARC
8
DEFAULT_255_1_388
10
4.4936045
20
28.920115
40
0.3294739
50
278.8749101
51
293.6349581
0
ARC
8
DEFAULT_255_1_388
10
4.5296249
20
28.8355251
40
0.2375405
50
293.8553806
51
310.0518171
0
ARC
8
DEFAULT_255_1_388
10
4.5301758
20
28.8285021
40
0.2318463
50
311.0644687
51
332.0111037
0
ARC
8
DEFAULT_255_1_388
10
4.3960431
20
28.9024702
40
0.3850112
50
331.6586806
51
343.2877423
0
ARC
8
DEFAULT_255_1_388
10
4.1639896
20
28.9737806
40
0.6277712
50
343.1446576
51
351.0103568
0
ARC
8
DEFAULT_255_1_388
10
4.000722
20
29.0037873
40
0.7937327
50
350.71248
51
351.1626997
0
LINE
8
DEFAULT_255_1_388
10
6.2072424
20
29.7799898
11
6.2072424
21
28.4644
0
LINE
8
DEFAULT_255_1_388
10
6.2072424
20
28.4644
11
6.0328545
21
28.4644
0
LINE
8
DEFAULT_255_1_388
10
6.0328545
20
28.4644
11
6.0328545
21
29.0724989
0
LINE
8
DEFAULT_255_1_388
10
6.0328545
20
29.0724989
11
5.3696382
21
29.0724989
0
LINE
8
DEFAULT_255_1_388
10
5.3696382
20
29.0724989
11
5.3696382
21
28.4644
0
LINE
8
DEFAULT_255_1_388
10
5.3696382
20
28.4644
11
5.1961538
21
28.4644
0
LINE
8
DEFAULT_255_1_388
10
5.1961538
20
28.4644
11
5.1961538
21
29.7799898
0
LINE
8
DEFAULT_255_1_388
10
5.1961538
20
29.7799898
11
5.3696382
21
29.7799898
0
LINE
8
DEFAULT_255_1_388
10
5.3696382
20
29.7799898
11
5.3696382
21
29.2143585
0
LINE
8
DEFAULT_255_1_388
10
5.3696382
20
29.2143585
11
6.0328545
21
29.2143585
0
LINE
8
DEFAULT_255_1_388
10
6.0328545
20
29.2143585
11
6.0328545
21
29.7799898
0
LINE
8
DEFAULT_255_1_388
10
6.0328545
20
29.7799898
11
6.2072424
21
29.7799898
0
LINE
8
DEFAULT_255_1_388
10
7.021354
20
29.7863148
11
7.021354
21
28.4644
0
LINE
8
DEFAULT_255_1_388
10
7.021354
20
28.4644
11
6.853291
21
28.4644
0
LINE
8
DEFAULT_255_1_388
10
6.853291
20
28.4644
11
6.853291
21
29.578495
0
LINE
8
DEFAULT_255_1_388
10
6.853291
20
29.578495
11
6.5162615
21
29.4547066
0
LINE
8
DEFAULT_255_1_388
10
6.5162615
20
29.4547066
11
6.5162615
21
29.6065055
0
LINE
8
DEFAULT_255_1_388
10
6.5162615
20
29.6065055
11
6.9951506
21
29.7863148
0
LINE
8
DEFAULT_255_1_388
10
6.9951506
20
29.7863148
11
7.021354
21
29.7863148
0
LINE
8
DEFAULT_255_1_388
10
23.1203856
20
37.179869
11
23.1203856
21
36.9630135
0
LINE
8
DEFAULT_255_1_388
10
22.2900099
20
36.9404244
11
22.2900099
21
37.1636048
0
LINE
8
DEFAULT_255_1_388
10
22.9532262
20
36.9178353
11
22.9532262
21
37.1916153
0
LINE
8
DEFAULT_255_1_388
10
22.4571693
20
37.2042652
11
22.4571693
21
36.9368102
0
ARC
8
DEFAULT_255_1_388
10
21.742619
20
36.9575118
40
1.3777776
50
353.8440855
51
0.2287917
0
ARC
8
DEFAULT_255_1_388
10
22.2645208
20
36.8992414
40
0.852639
50
344.4934746
51
353.9763743
0
ARC
8
DEFAULT_255_1_388
10
22.6012015
20
36.8035191
40
0.5026273
50
329.2803599
51
344.7473406
0
ARC
8
DEFAULT_255_1_388
10
22.7127511
20
36.7423038
40
0.3754848
50
324.9361395
51
328.6153007
0
ARC
8
DEFAULT_255_1_388
10
22.7553161
20
36.7125586
40
0.3235566
50
280.5801797
51
324.9173226
0
ARC
8
DEFAULT_255_1_388
10
22.7101789
20
36.9005236
40
0.5167077
50
269.5979457
51
281.6732777
0
ARC
8
DEFAULT_255_1_388
10
22.7020693
20
36.8870113
40
0.5032026
50
256.6228565
51
270.5105488
0
ARC
8
DEFAULT_255_1_388
10
22.6568435
20
36.7128345
40
0.3233092
50
215.8618351
51
257.2787793
0
ARC
8
DEFAULT_255_1_388
10
22.7717142
20
36.7899106
40
0.4615831
50
197.9695203
51
215.2622745
0
ARC
8
DEFAULT_255_1_388
10
23.0512818
20
36.8842641
40
0.7566307
50
187.8816486
51
198.2346584
0
ARC
8
DEFAULT_255_1_388
10
23.4966056
20
36.9485453
40
1.2065653
50
180.8977266
51
188.0054894
0
ARC
8
DEFAULT_255_1_388
10
23.801627
20
36.96004
40
1.5117443
50
180.7434591
51
181.152202
0
ARC
8
DEFAULT_255_1_388
10
23.6341266
20
37.1690371
40
1.3441277
50
173.7674302
51
180.2315596
0
ARC
8
DEFAULT_255_1_388
10
23.1259135
20
37.2264779
40
0.8326847
50
164.3058537
51
173.9000553
0
ARC
8
DEFAULT_255_1_388
10
22.7983135
20
37.3208652
40
0.4917711
50
148.7922028
51
164.5682288
0
ARC
8
DEFAULT_255_1_388
10
22.6913872
20
37.3805457
40
0.3694204
50
144.5883979
51
148.1161588
0
ARC
8
DEFAULT_255_1_388
10
22.6526618
20
37.4075667
40
0.322202
50
101.6440149
51
144.5142619
0
ARC
8
DEFAULT_255_1_388
10
22.700481
20
37.2175337
40
0.5180451
50
89.528284
51
102.5820197
0
ARC
8
DEFAULT_255_1_388
10
22.7093802
20
37.2131376
40
0.5224441
50
77.0437914
51
90.508231
0
ARC
8
DEFAULT_255_1_388
10
22.7546055
20
37.3979272
40
0.3322297
50
48.2777708
51
77.4996087
0
ARC
8
DEFAULT_255_1_388
10
22.7627795
20
37.4124557
40
0.315966
50
36.3141586
51
47.6307332
0
ARC
8
DEFAULT_255_1_388
10
22.6650518
20
37.3466159
40
0.4337313
50
18.2931065
51
35.6770203
0
ARC
8
DEFAULT_255_1_388
10
22.3789358
20
37.2484107
40
0.7362203
50
8.0246996
51
18.5605636
0
ARC
8
DEFAULT_255_1_388
10
21.9105714
20
37.1792432
40
1.2096583
50
1.127539
51
8.1718423
0
ARC
8
DEFAULT_255_1_388
10
21.5456847
20
37.1649374
40
1.5747719
50
0.5432713
51
1.38669
0
ARC
8
DEFAULT_255_1_388
10
21.7514226
20
37.1956163
40
1.2018103
50
359.8092569
51
4.9408001
0
ARC
8
DEFAULT_255_1_388
10
22.2250807
20
37.23789
40
0.7262727
50
4.8364937
51
12.2906017
0
ARC
8
DEFAULT_255_1_388
10
22.5350272
20
37.3069485
40
0.4087324
50
12.0806994
51
23.8171225
0
ARC
8
DEFAULT_255_1_388
10
22.6670668
20
37.3628508
40
0.2653719
50
24.2874621
51
31.3934353
0
ARC
8
DEFAULT_255_1_388
10
22.7261104
20
37.4014822
40
0.1948607
50
30.7407708
51
82.4658033
0
ARC
8
DEFAULT_255_1_388
10
22.7058765
20
37.3021017
40
0.2961198
50
81.1057101
51
90.2187368
0
ARC
8
DEFAULT_255_1_388
10
22.7018577
20
37.3311421
40
0.2670929
50
89.380395
51
105.6763916
0
ARC
8
DEFAULT_255_1_388
10
22.6812299
20
37.406132
40
0.1893189
50
105.7980655
51
149.7387869
0
ARC
8
DEFAULT_255_1_388
10
22.8009439
20
37.3341719
40
0.3289892
50
149.4208441
51
163.628295
0
ARC
8
DEFAULT_255_1_388
10
23.0361668
20
37.2624345
40
0.5749004
50
163.3764549
51
172.141138
0
ARC
8
DEFAULT_255_1_388
10
23.407439
20
37.2092582
40
0.9499585
50
172.0258462
51
178.0705453
0
ARC
8
DEFAULT_255_1_388
10
23.7495943
20
37.1930682
40
1.2924734
50
177.8639301
51
179.5036263
0
ARC
8
DEFAULT_255_1_388
10
23.6276961
20
36.9327151
40
1.170534
50
179.7995545
51
185.246089
0
ARC
8
DEFAULT_255_1_388
10
23.1728554
20
36.8896404
40
0.7136613
50
185.1411911
51
193.0082205
0
ARC
8
DEFAULT_255_1_388
10
22.8754815
20
36.8193441
40
0.4080987
50
192.7897338
51
205.2507384
0
ARC
8
DEFAULT_255_1_388
10
22.7577025
20
36.7667538
40
0.2791522
50
205.8001921
51
211.2545876
0
ARC
8
DEFAULT_255_1_388
10
22.6988564
20
36.7273132
40
0.2084074
50
210.3789935
51
238.4007996
0
ARC
8
DEFAULT_255_1_388
10
22.696665
20
36.7325786
40
0.2117943
50
239.6521916
51
265.9793852
0
ARC
8
DEFAULT_255_1_388
10
22.7062499
20
36.8082358
40
0.2879689
50
265.1324455
51
270.0603288
0
ARC
8
DEFAULT_255_1_388
10
22.7094876
20
36.7717418
40
0.2514919
50
269.3314378
51
287.2180039
0
ARC
8
DEFAULT_255_1_388
10
22.7249958
20
36.7151291
40
0.1928357
50
287.7957942
51
329.0808983
0
ARC
8
DEFAULT_255_1_388
10
22.6172715
20
36.7823651
40
0.319808
50
328.6635261
51
343.3325043
0
ARC
8
DEFAULT_255_1_388
10
22.3728174
20
36.8585195
40
0.5758408
50
343.0498092
51
351.9392499
0
ARC
8
DEFAULT_255_1_388
10
21.9827496
20
36.9160205
40
0.9701202
50
351.8071632
51
357.7957897
0
ARC
8
DEFAULT_255_1_388
10
21.6192973
20
36.9348724
40
1.3340376
50
357.5870923
51
359.2682493
0
LINE
8
DEFAULT_255_1_388
10
23.4393439
20
37.7174898
11
23.8134196
21
36.6323089
0
LINE
8
DEFAULT_255_1_388
10
23.8134196
20
36.6323089
11
24.1893024
21
37.7174898
0
LINE
8
DEFAULT_255_1_388
10
24.1893024
20
37.7174898
11
24.3790509
21
37.7174898
0
LINE
8
DEFAULT_255_1_388
10
24.3790509
20
37.7174898
11
23.8911261
21
36.4019
0
LINE
8
DEFAULT_255_1_388
10
23.8911261
20
36.4019
11
23.7375202
21
36.4019
0
LINE
8
DEFAULT_255_1_388
10
23.7375202
20
36.4019
11
23.2504989
21
37.7174898
0
LINE
8
DEFAULT_255_1_388
10
23.2504989
20
37.7174898
11
23.4393439
21
37.7174898
0
ENDSEC
0
EOF