0
SECTION
2
HEADER
9
$MEASUREMENT
70
1
0
ENDSEC
0
SECTION
2
TABLES
0
TABLE
2
LTYPE
0
LTYPE
72
65
70
64
2
CONTINUOUS
3
______
73
0
40
0
0
ENDTAB
0
TABLE
2
LAYER
0
LAYER
2
DEFAULT_255_2_778
70
0
62
255
6
CONTINUOUS
0
ENDTAB
0
ENDSEC
0
SECTION
2
ENTITIES
0
ARC
8
DEFAULT_255_2_778
10
67.6117535
20
81.0708822
40
0.9997468
50
224.9934394
51
270.0109632
0
ARC
8
DEFAULT_255_2_778
10
67.6117623
20
81.0712561
40
1.0000175
50
180.0011895
51
225.0082334
0
ARC
8
DEFAULT_255_2_778
10
67.6049434
20
81.0688594
40
1.9933
50
179.9317062
51
204.3119945
0
ARC
8
DEFAULT_255_2_778
10
67.6134288
20
81.0737024
40
2.0030269
50
204.3383105
51
260.196385
0
ARC
8
DEFAULT_255_2_778
10
67.6110284
20
81.084345
40
2.0131097
50
260.3152812
51
270.0175439
0
ARC
8
DEFAULT_255_2_778
10
67.6120607
20
90.2793626
40
1.0005159
50
180.0072863
51
224.9883116
0
ARC
8
DEFAULT_255_2_778
10
67.6117721
20
90.2796517
40
1.0005163
50
225.0117023
51
269.9927088
0
ARC
8
DEFAULT_255_2_778
10
67.6115977
20
83.8628403
40
1.000095
50
89.9973023
51
134.9982952
0
ARC
8
DEFAULT_255_2_778
10
67.6117118
20
83.8628526
40
1.000167
50
135.0034126
51
180.0009903
0
ARC
8
DEFAULT_255_2_778
10
67.6078975
20
14.2775495
40
0.9963538
50
179.9145538
51
221.6422128
0
ARC
8
DEFAULT_255_2_778
10
67.6104324
20
14.2765462
40
0.9975846
50
221.5024107
51
268.2721781
0
ARC
8
DEFAULT_255_2_778
10
67.6116349
20
14.298036
40
1.0191008
50
268.2410304
51
270.000554
0
ARC
8
DEFAULT_255_2_778
10
67.6101844
20
7.8664173
40
0.9963191
50
89.916016
51
131.6459452
0
ARC
8
DEFAULT_255_2_778
10
67.6092035
20
7.8637898
40
0.9976339
50
131.5035703
51
178.2692494
0
ARC
8
DEFAULT_255_2_778
10
67.6303039
20
7.862645
40
1.0187593
50
178.2407389
51
180.0005447
0
ARC
8
DEFAULT_255_2_778
10
5.3595372
20
89.9584516
40
4.1169477
50
158.3024339
51
174.3141323
0
ARC
8
DEFAULT_255_2_778
10
5.3621766
20
89.9517249
40
4.1218902
50
124.5023899
51
158.2291199
0
ARC
8
DEFAULT_255_2_778
10
5.3549816
20
89.9693597
40
4.1032838
50
100.5482678
51
124.5590749
0
ARC
8
DEFAULT_255_2_778
10
5.356314
20
89.95049
40
4.122079
50
89.9812592
51
100.5184603
0
ARC
8
DEFAULT_255_2_778
10
5.3576119
20
89.8909937
40
4.1815751
50
88.4482974
51
89.9993099
0
ARC
8
DEFAULT_255_2_778
10
5.3574969
20
89.9238293
40
2.1487465
50
87.8303591
51
89.9988193
0
ARC
8
DEFAULT_255_2_778
10
5.3558178
20
89.9656437
40
2.1069328
50
89.953136
51
115.8028397
0
ARC
8
DEFAULT_255_2_778
10
5.3603
20
89.9544294
40
2.1189802
50
115.7799644
51
163.8136748
0
ARC
8
DEFAULT_255_2_778
10
5.3681901
20
89.9557095
40
2.1262034
50
163.9060737
51
174.2877639
0
ARC
8
DEFAULT_255_2_778
10
6.1001636
20
9.3352951
40
3.2800033
50
243.1451836
51
264.330726
0
ARC
8
DEFAULT_255_2_778
10
6.104087
20
9.3424697
40
3.2881765
50
198.0374515
51
243.1406662
0
ARC
8
DEFAULT_255_2_778
10
6.1119575
20
9.3422677
40
3.2955986
50
189.8809937
51
197.9917421
0
ARC
8
DEFAULT_255_2_778
10
6.1005825
20
9.3387534
40
5.2839046
50
188.6547018
51
203.932943
0
ARC
8
DEFAULT_255_2_778
10
6.1071166
20
9.3464096
40
5.2929845
50
203.9800008
51
250.7249892
0
ARC
8
DEFAULT_255_2_778
10
6.1001307
20
9.34025
40
5.2848662
50
250.7744376
51
265.5332758
0
ARC
8
DEFAULT_255_2_778
10
67.6086629
20
5.0692749
40
0.9963191
50
179.916016
51
221.6459452
0
ARC
8
DEFAULT_255_2_778
10
67.6112904
20
5.068294
40
0.9976339
50
221.5035703
51
268.2692494
0
ARC
8
DEFAULT_255_2_778
10
67.6124351
20
5.0893944
40
1.0187593
50
268.2407389
51
270.0005447
0
ARC
8
DEFAULT_255_2_778
10
67.5665139
20
6.7664614
40
2.6921679
50
250.8652324
51
262.1634815
0
ARC
8
DEFAULT_255_2_778
10
67.3832123
20
6.2667673
40
2.1600175
50
236.9070386
51
251.1140122
0
ARC
8
DEFAULT_255_2_778
10
67.0091931
20
5.7132738
40
1.492136
50
215.9944471
51
237.3348416
0
ARC
8
DEFAULT_255_2_778
10
66.6208052
20
5.4299965
40
1.0114178
50
186.5992509
51
215.9415342
0
ARC
8
DEFAULT_255_2_778
10
66.4947245
20
5.4042184
40
0.8832798
50
180.0053872
51
185.8780645
0
ARC
8
DEFAULT_255_2_778
10
66.5211491
20
92.7368436
40
0.9097046
50
160.2709207
51
179.9564317
0
ARC
8
DEFAULT_255_2_778
10
66.6878677
20
92.6753413
40
1.0873994
50
144.6139587
51
160.1859635
0
ARC
8
DEFAULT_255_2_778
10
67.0071762
20
92.4302601
40
1.4897184
50
122.6600332
51
144.0408382
0
ARC
8
DEFAULT_255_2_778
10
67.3798198
20
91.8831407
40
2.151509
50
108.8849075
51
123.1518865
0
ARC
8
DEFAULT_255_2_778
10
67.5668274
20
91.370707
40
2.6969099
50
97.8358099
51
109.1203566
0
ARC
8
DEFAULT_255_2_778
10
67.6085919
20
17.0782211
40
1.9929158
50
89.926605
51
114.3113989
0
ARC
8
DEFAULT_255_2_778
10
67.6136451
20
17.0693779
40
2.0030556
50
114.3389823
51
170.1972101
0
ARC
8
DEFAULT_255_2_778
10
67.6243063
20
17.0717503
40
2.0131615
50
170.3154071
51
180.0175033
0
ARC
8
DEFAULT_255_2_778
10
67.6077207
20
17.0725799
40
0.996477
50
138.3575081
51
180.0830578
0
ARC
8
DEFAULT_255_2_778
10
67.6102234
20
17.0737154
40
0.9975959
50
91.7327121
51
138.5017548
0
ARC
8
DEFAULT_255_2_778
10
67.6113351
20
17.0525761
40
1.0187592
50
89.9994554
51
91.7592612
0
ARC
8
DEFAULT_255_2_778
10
67.6118933
20
93.0711924
40
0.999843
50
89.9970476
51
135.0123802
0
ARC
8
DEFAULT_255_2_778
10
67.6115878
20
93.0708869
40
0.999843
50
134.9876198
51
180.0029524
0
LINE
8
DEFAULT_255_2_778
10
65.3619448
20
30.8210353
11
65.3619448
21
32.0891353
0
LINE
8
DEFAULT_255_2_778
10
67.3618448
20
30.8210353
11
67.3618448
21
32.0891353
0
LINE
8
DEFAULT_255_2_778
10
61.8619448
20
60.9523353
11
56.1120448
21
60.9523353
0
LINE
8
DEFAULT_255_2_778
10
56.1120448
20
60.9523353
11
56.1120448
21
60.2228353
0
LINE
8
DEFAULT_255_2_778
10
56.1120448
20
60.2228353
11
61.8619448
21
60.2228353
0
LINE
8
DEFAULT_255_2_778
10
56.1120448
20
60.2228353
11
56.1120448
21
59.3870353
0
LINE
8
DEFAULT_255_2_778
10
56.1120448
20
59.3870353
11
61.8619448
21
59.3870353
0
LINE
8
DEFAULT_255_2_778
10
56.1120448
20
59.3664353
11
56.1120448
21
57.1296353
0
LINE
8
DEFAULT_255_2_778
10
56.1120448
20
57.1296353
11
61.8619448
21
57.1296353
0
LINE
8
DEFAULT_255_2_778
10
56.1120448
20
57.1296353
11
56.1120448
21
56.4001353
0
LINE
8
DEFAULT_255_2_778
10
56.1120448
20
56.4001353
11
61.8619448
21
56.4001353
0
LINE
8
DEFAULT_255_2_778
10
56.1120448
20
56.4001353
11
56.1120448
21
55.5643353
0
LINE
8
DEFAULT_255_2_778
10
56.1120448
20
55.5643353
11
61.8619448
21
55.5643353
0
LINE
8
DEFAULT_255_2_778
10
75.1120448
20
4.0711353
11
75.1120448
21
3.9489353
0
LINE
8
DEFAULT_255_2_778
10
75.1120448
20
3.9489353
11
71.6121448
21
3.9489353
0
LINE
8
DEFAULT_255_2_778
10
71.6121448
20
3.9489353
11
71.6121448
21
4.0711353
0
LINE
8
DEFAULT_255_2_778
10
75.1120448
20
3.9489353
11
75.1120448
21
0.9487353
0
LINE
8
DEFAULT_255_2_778
10
75.1120448
20
0.9487353
11
71.6121448
21
0.9487353
0
LINE
8
DEFAULT_255_2_778
10
71.6121448
20
0.9487353
11
71.6121448
21
3.9489353
0
LINE
8
DEFAULT_255_2_778
10
75.1120448
20
0.9487353
11
75.1120448
21
-0.0513647
0
LINE
8
DEFAULT_255_2_778
10
75.1120448
20
-0.0513647
11
71.6121448
21
-0.0513647
0
LINE
8
DEFAULT_255_2_778
10
71.6121448
20
-0.0513647
11
71.6121448
21
0.9487353
0
LINE
8
DEFAULT_255_2_778
10
75.1120448
20
-0.0513647
11
75.1120448
21
-0.1455647
0
LINE
8
DEFAULT_255_2_778
10
75.1120448
20
-0.1455647
11
71.6121448
21
-0.1455647
0
LINE
8
DEFAULT_255_2_778
10
71.6121448
20
-0.1455647
11
71.6121448
21
-0.0513647
0
LINE
8
DEFAULT_255_2_778
10
17.6120448
20
89.0709353
11
13.8178448
21
89.0709353
0
LINE
8
DEFAULT_255_2_778
10
13.8178448
20
89.0709353
11
13.8178448
21
91.8209353
0
LINE
8
DEFAULT_255_2_778
10
13.8178448
20
91.8209353
11
17.6120448
21
91.8209353
0
LINE
8
DEFAULT_255_2_778
10
13.8178448
20
89.0709353
11
12.8177448
21
89.0709353
0
LINE
8
DEFAULT_255_2_778
10
12.8177448
20
89.0709353
11
12.8177448
21
91.8209353
0
LINE
8
DEFAULT_255_2_778
10
12.8177448
20
91.8209353
11
13.8178448
21
91.8209353
0
LINE
8
DEFAULT_255_2_778
10
25.1118448
20
6.3208353
11
20.0723448
21
6.3208353
0
LINE
8
DEFAULT_255_2_778
10
20.0723448
20
6.3208353
11
20.0723448
21
9.0709353
0
LINE
8
DEFAULT_255_2_778
10
20.0723448
20
9.0709353
11
25.1118448
21
9.0709353
0
LINE
8
DEFAULT_255_2_778
10
20.0723448
20
9.0709353
11
19.0722448
21
9.0709353
0
LINE
8
DEFAULT_255_2_778
10
19.0722448
20
9.0709353
11
19.0722448
21
6.3208353
0
LINE
8
DEFAULT_255_2_778
10
19.0722448
20
6.3208353
11
20.0723448
21
6.3208353
0
LINE
8
DEFAULT_255_2_778
10
75.1120448
20
30.1744353
11
75.1120448
21
30.9028353
0
LINE
8
DEFAULT_255_2_778
10
75.1120448
20
30.9028353
11
71.6121448
21
30.9028353
0
LINE
8
DEFAULT_255_2_778
10
75.1120448
20
30.9028353
11
75.1120448
21
31.0374353
0
LINE
8
DEFAULT_255_2_778
10
75.1120448
20
31.0374353
11
71.6121448
21
31.0374353
0
LINE
8
DEFAULT_255_2_778
10
71.6121448
20
15.5709353
11
73.1120448
21
15.5709353
0
LINE
8
DEFAULT_255_2_778
10
73.1120448
20
15.5709353
11
73.1120448
21
7.3030353
0
LINE
8
DEFAULT_255_2_778
10
73.1120448
20
7.9486353
11
71.6121448
21
7.9486353
0
LINE
8
DEFAULT_255_2_778
10
71.6121448
20
9.2556353
11
73.1120448
21
9.2556353
0
LINE
8
DEFAULT_255_2_778
10
68.6120448
20
79.0709353
11
67.6119448
21
79.0709353
0
LINE
8
DEFAULT_255_2_778
10
67.6119448
20
79.0709353
11
67.6119448
21
80.0711353
0
LINE
8
DEFAULT_255_2_778
10
75.6115448
20
92.0712353
11
75.6115448
21
94.0710353
0
LINE
8
DEFAULT_255_2_778
10
75.6115448
20
94.0710353
11
67.6116448
21
94.0710353
0
LINE
8
DEFAULT_255_2_778
10
67.6116448
20
94.0710353
11
67.6116448
21
92.0710353
0
LINE
8
DEFAULT_255_2_778
10
67.6116448
20
92.0710353
11
66.6115448
21
92.0710353
0
LINE
8
DEFAULT_255_2_778
10
66.6115448
20
92.0710353
11
66.6115448
21
90.2792353
0
LINE
8
DEFAULT_255_2_778
10
67.6116448
20
89.2791353
11
67.6116448
21
84.8629353
0
LINE
8
DEFAULT_255_2_778
10
66.6115448
20
83.8628353
11
66.6115448
21
82.0711353
0
LINE
8
DEFAULT_255_2_778
10
66.6115448
20
82.0711353
11
67.6116448
21
82.0711353
0
LINE
8
DEFAULT_255_2_778
10
67.6116448
20
82.0711353
11
67.6116448
21
80.0711353
0
LINE
8
DEFAULT_255_2_778
10
67.6116448
20
80.0711353
11
71.6116448
21
80.0711353
0
LINE
8
DEFAULT_255_2_778
10
71.6116448
20
80.0711353
11
71.6116448
21
82.0711353
0
LINE
8
DEFAULT_255_2_778
10
66.6115448
20
83.8628353
11
66.6115448
21
90.2790353
0
LINE
8
DEFAULT_255_2_778
10
71.6116448
20
16.0707353
11
71.6116448
21
13.2789353
0
LINE
8
DEFAULT_255_2_778
10
71.6116448
20
13.2789353
11
67.6116448
21
13.2789353
0
LINE
8
DEFAULT_255_2_778
10
67.6116448
20
13.2789353
11
67.6116448
21
16.0707353
0
LINE
8
DEFAULT_255_2_778
10
67.6116448
20
16.0707353
11
71.6116448
21
16.0707353
0
LINE
8
DEFAULT_255_2_778
10
71.6116448
20
16.0707353
11
71.6116448
21
18.0707353
0
LINE
8
DEFAULT_255_2_778
10
71.6116448
20
18.0707353
11
67.6116448
21
18.0707353
0
LINE
8
DEFAULT_255_2_778
10
67.6116448
20
18.0707353
11
67.6116448
21
16.0707353
0
LINE
8
DEFAULT_255_2_778
10
67.6116448
20
16.0707353
11
66.6115448
21
16.0707353
0
LINE
8
DEFAULT_255_2_778
10
66.6115448
20
16.0707353
11
66.6115448
21
14.2790353
0
LINE
8
DEFAULT_255_2_778
10
67.6116448
20
13.2789353
11
67.6116448
21
8.8627353
0
LINE
8
DEFAULT_255_2_778
10
66.6115448
20
7.8626353
11
66.6115448
21
6.0708353
0
LINE
8
DEFAULT_255_2_778
10
66.6115448
20
6.0708353
11
67.6116448
21
6.0708353
0
LINE
8
DEFAULT_255_2_778
10
67.6116448
20
6.0708353
11
67.6116448
21
4.0708353
0
LINE
8
DEFAULT_255_2_778
10
67.6116448
20
4.0708353
11
75.6115448
21
4.0708353
0
LINE
8
DEFAULT_255_2_778
10
75.6115448
20
4.0708353
11
75.6115448
21
7.3030353
0
LINE
8
DEFAULT_255_2_778
10
75.6115448
20
7.3030353
11
71.6116448
21
7.3030353
0
LINE
8
DEFAULT_255_2_778
10
71.6116448
20
7.3030353
11
71.6116448
21
8.8627353
0
LINE
8
DEFAULT_255_2_778
10
71.6116448
20
8.8627353
11
67.6116448
21
8.8627353
0
LINE
8
DEFAULT_255_2_778
10
67.6116448
20
8.8627353
11
67.6116448
21
6.0708353
0
LINE
8
DEFAULT_255_2_778
10
67.6116448
20
6.0708353
11
75.6115448
21
6.0708353
0
LINE
8
DEFAULT_255_2_778
10
71.6116448
20
8.8627353
11
71.6116448
21
13.2789353
0
LINE
8
DEFAULT_255_2_778
10
66.6115448
20
7.8626353
11
66.6115448
21
14.2787353
0
LINE
8
DEFAULT_255_2_778
10
68.1114448
20
30.8205353
11
68.1114448
21
71.3210353
0
LINE
8
DEFAULT_255_2_778
10
68.1114448
20
71.3210353
11
61.2113448
21
71.3210353
0
LINE
8
DEFAULT_255_2_778
10
61.2113448
20
71.3210353
11
61.2113448
21
68.7210353
0
LINE
8
DEFAULT_255_2_778
10
61.2113448
20
68.7210353
11
52.7113448
21
68.7210353
0
LINE
8
DEFAULT_255_2_778
10
52.7113448
20
68.7210353
11
52.7113448
21
63.7209353
0
LINE
8
DEFAULT_255_2_778
10
52.7113448
20
63.7209353
11
48.7114448
21
63.7209353
0
LINE
8
DEFAULT_255_2_778
10
48.7114448
20
63.7209353
11
48.7114448
21
32.7210353
0
LINE
8
DEFAULT_255_2_778
10
48.7114448
20
32.7210353
11
55.1114448
21
32.7210353
0
LINE
8
DEFAULT_255_2_778
10
55.1114448
20
32.7210353
11
55.1114448
21
30.8210353
0
LINE
8
DEFAULT_255_2_778
10
55.1114448
20
30.8210353
11
68.1114448
21
30.8205353
0
LINE
8
DEFAULT_255_2_778
10
69.8614448
20
73.0705353
11
59.4614448
21
73.0705353
0
LINE
8
DEFAULT_255_2_778
10
59.4614448
20
73.0705353
11
59.4614448
21
70.4704353
0
LINE
8
DEFAULT_255_2_778
10
59.4614448
20
70.4704353
11
50.9614448
21
70.4704353
0
LINE
8
DEFAULT_255_2_778
10
50.9614448
20
70.4704353
11
50.9614448
21
65.4711353
0
LINE
8
DEFAULT_255_2_778
10
50.9614448
20
65.4711353
11
46.9614448
21
65.4711353
0
LINE
8
DEFAULT_255_2_778
10
46.9614448
20
65.4711353
11
46.9614448
21
30.9710353
0
LINE
8
DEFAULT_255_2_778
10
46.9614448
20
30.9710353
11
53.3614448
21
30.9710353
0
LINE
8
DEFAULT_255_2_778
10
53.3614448
20
30.9710353
11
53.3614448
21
29.0710353
0
LINE
8
DEFAULT_255_2_778
10
53.3614448
20
29.0710353
11
69.8614448
21
29.0710353
0
LINE
8
DEFAULT_255_2_778
10
69.8614448
20
29.0710353
11
69.8614448
21
73.0705353
0
LINE
8
DEFAULT_255_2_778
10
61.8614448
20
56.4390353
11
61.8614448
21
53.4389353
0
LINE
8
DEFAULT_255_2_778
10
61.8614448
20
53.4389353
11
65.3613448
21
53.4389353
0
LINE
8
DEFAULT_255_2_778
10
56.1112448
20
60.9517353
11
56.1112448
21
68.7210353
0
LINE
8
DEFAULT_255_2_778
10
61.8612448
20
71.3210353
11
61.8612448
21
56.4395353
0
LINE
8
DEFAULT_255_2_778
10
61.8612448
20
56.4395353
11
65.3611448
21
56.4395353
0
LINE
8
DEFAULT_255_2_778
10
65.3611448
20
68.0891353
11
65.3611448
21
71.3210353
0
LINE
8
DEFAULT_255_2_778
10
67.3610448
20
71.3210353
11
67.3610448
21
68.0891353
0
LINE
8
DEFAULT_255_2_778
10
67.3610448
20
68.0891353
11
65.3611448
21
68.0891353
0
LINE
8
DEFAULT_255_2_778
10
65.3611448
20
68.0891353
11
65.3611448
21
32.0891353
0
LINE
8
DEFAULT_255_2_778
10
65.3611448
20
32.0891353
11
67.3610448
21
32.0891353
0
LINE
8
DEFAULT_255_2_778
10
67.3610448
20
32.0891353
11
67.3610448
21
68.0891353
0
LINE
8
DEFAULT_255_2_778
10
56.1110448
20
62.0630353
11
55.3609448
21
62.0630353
0
LINE
8
DEFAULT_255_2_778
10
55.3609448
20
62.0630353
11
55.3609448
21
68.7210353
0
LINE
8
DEFAULT_255_2_778
10
0.1119448
20
19.0158353
11
0.1119448
21
78.8677353
0
LINE
8
DEFAULT_255_2_778
10
2.1119448
20
78.7680353
11
0.1119448
21
78.8677353
0
LINE
8
DEFAULT_255_2_778
10
0.1119448
20
78.8677353
11
1.2626448
21
90.3663353
0
LINE
8
DEFAULT_255_2_778
10
3.2528448
20
90.1670353
11
1.2628448
21
90.3663353
0
LINE
8
DEFAULT_255_2_778
10
17.6117448
20
94.0710353
11
5.4708448
21
94.0710353
0
LINE
8
DEFAULT_255_2_778
10
5.4708448
20
94.0710353
11
5.4702448
21
94.0326353
0
LINE
8
DEFAULT_255_2_778
10
5.4702448
20
94.0326353
11
5.4687448
21
93.9186353
0
LINE
8
DEFAULT_255_2_778
10
5.4687448
20
93.9186353
11
5.4660448
21
93.7344353
0
LINE
8
DEFAULT_255_2_778
10
5.4660448
20
93.7344353
11
5.4623448
21
93.4854353
0
LINE
8
DEFAULT_255_2_778
10
5.4623448
20
93.4854353
11
5.4522448
21
92.8377353
0
LINE
8
DEFAULT_255_2_778
10
5.4522448
20
92.8377353
11
5.4388448
21
92.0710353
0
LINE
8
DEFAULT_255_2_778
10
3.2525448
20
90.1673353
11
2.1119448
21
78.7680353
0
LINE
8
DEFAULT_255_2_778
10
2.1119448
20
78.7680353
11
2.1119448
21
19.0888353
0
LINE
8
DEFAULT_255_2_778
10
0.8768448
20
8.5433353
11
0.1119448
21
19.0158353
0
LINE
8
DEFAULT_255_2_778
10
0.1119448
20
19.0158353
11
2.1119448
21
19.0888353
0
LINE
8
DEFAULT_255_2_778
10
2.1119448
20
19.0888353
11
2.8652448
21
8.7767353
0
LINE
8
DEFAULT_255_2_778
10
25.1118448
20
4.0714353
11
5.6885448
21
4.0714353
0
LINE
8
DEFAULT_255_2_778
10
5.6885448
20
4.0714353
11
5.6901448
21
4.1097353
0
LINE
8
DEFAULT_255_2_778
10
5.6901448
20
4.1097353
11
5.6946448
21
4.2238353
0
LINE
8
DEFAULT_255_2_778
10
5.6946448
20
4.2238353
11
5.7020448
21
4.4079353
0
LINE
8
DEFAULT_255_2_778
10
5.7020448
20
4.4079353
11
5.7123448
21
4.6571353
0
LINE
8
DEFAULT_255_2_778
10
5.7123448
20
4.6571353
11
5.7401448
21
5.3048353
0
LINE
8
DEFAULT_255_2_778
10
5.7401448
20
5.3048353
11
5.7761448
21
6.0713353
0
LINE
8
DEFAULT_255_2_778
10
2.8652448
20
8.7767353
11
2.1032448
21
8.6849353
0
LINE
8
DEFAULT_255_2_778
10
2.1032448
20
8.6849353
11
1.4592448
21
8.6098353
0
LINE
8
DEFAULT_255_2_778
10
1.4592448
20
8.6098353
11
1.2115448
21
8.5814353
0
LINE
8
DEFAULT_255_2_778
10
1.2115448
20
8.5814353
11
1.0284448
21
8.5605353
0
LINE
8
DEFAULT_255_2_778
10
1.0284448
20
8.5605353
11
0.9149448
21
8.5478353
0
LINE
8
DEFAULT_255_2_778
10
0.9149448
20
8.5478353
11
0.8768448
21
8.5436353
0
LINE
8
DEFAULT_255_2_778
10
5.4390448
20
92.0710353
11
17.6120448
21
92.0710353
0
LINE
8
DEFAULT_255_2_778
10
17.6120448
20
92.0710353
11
17.6120448
21
74.5709353
0
LINE
8
DEFAULT_255_2_778
10
17.6120448
20
74.5709353
11
25.1118448
21
67.5708353
0
LINE
8
DEFAULT_255_2_778
10
25.1118448
20
67.5708353
11
25.1118448
21
6.0708353
0
LINE
8
DEFAULT_255_2_778
10
25.1118448
20
6.0708353
11
5.7761448
21
6.0708353
0
LINE
8
DEFAULT_255_2_778
10
66.6120448
20
5.0707353
11
66.5927448
21
5.1358353
0
LINE
8
DEFAULT_255_2_778
10
66.5927448
20
5.1358353
11
66.5358448
21
5.1982353
0
LINE
8
DEFAULT_255_2_778
10
66.5358448
20
5.1982353
11
66.4435448
21
5.2559353
0
LINE
8
DEFAULT_255_2_778
10
66.4435448
20
5.2559353
11
66.3191448
21
5.3064353
0
LINE
8
DEFAULT_255_2_778
10
66.3191448
20
5.3064353
11
66.1675448
21
5.3480353
0
LINE
8
DEFAULT_255_2_778
10
66.1675448
20
5.3480353
11
65.9947448
21
5.3787353
0
LINE
8
DEFAULT_255_2_778
10
65.9947448
20
5.3787353
11
65.8071448
21
5.3977353
0
LINE
8
DEFAULT_255_2_778
10
65.8071448
20
5.3977353
11
65.6121448
21
5.4041353
0
LINE
8
DEFAULT_255_2_778
10
65.6121448
20
5.4041353
11
65.6121448
21
6.0708353
0
LINE
8
DEFAULT_255_2_778
10
65.6121448
20
6.0708353
11
66.6123448
21
6.0708353
0
LINE
8
DEFAULT_255_2_778
10
66.6123448
20
6.0708353
11
66.6123448
21
5.0707353
0
LINE
8
DEFAULT_255_2_778
10
67.6124448
20
4.0706353
11
25.1118448
21
4.0706353
0
LINE
8
DEFAULT_255_2_778
10
25.1118448
20
4.0706353
11
25.1118448
21
6.0706353
0
LINE
8
DEFAULT_255_2_778
10
25.1118448
20
6.0706353
11
65.6119448
21
6.0706353
0
LINE
8
DEFAULT_255_2_778
10
65.6119448
20
6.0706353
11
65.6119448
21
17.0709353
0
LINE
8
DEFAULT_255_2_778
10
73.1118448
20
31.0374353
11
73.1118448
21
66.9181353
0
LINE
8
DEFAULT_255_2_778
10
73.1118448
20
66.9181353
11
75.6118448
21
66.9181353
0
LINE
8
DEFAULT_255_2_778
10
75.6118448
20
66.9181353
11
75.6118448
21
69.0226353
0
LINE
8
DEFAULT_255_2_778
10
75.6118448
20
69.0226353
11
73.1118448
21
69.0226353
0
LINE
8
DEFAULT_255_2_778
10
75.6118448
20
19.0709353
11
75.6118448
21
29.8775353
0
LINE
8
DEFAULT_255_2_778
10
75.6118448
20
29.8775353
11
74.6278448
21
30.4620353
0
LINE
8
DEFAULT_255_2_778
10
74.6278448
20
30.4620353
11
73.1118448
21
30.4620353
0
LINE
8
DEFAULT_255_2_778
10
67.4452448
20
4.0849353
11
67.3298448
21
4.0962353
0
LINE
8
DEFAULT_255_2_778
10
67.3298448
20
4.0962353
11
67.1994448
21
4.0994353
0
LINE
8
DEFAULT_255_2_778
10
67.1991448
20
94.0424353
11
67.3293448
21
94.0456353
0
LINE
8
DEFAULT_255_2_778
10
67.3293448
20
94.0456353
11
67.4447448
21
94.0572353
0
LINE
8
DEFAULT_255_2_778
10
65.6111448
20
17.0711353
11
66.6112448
21
17.0711353
0
LINE
8
DEFAULT_255_2_778
10
71.6113448
20
80.0711353
11
71.6113448
21
79.7324353
0
LINE
8
DEFAULT_255_2_778
10
71.6113448
20
79.7324353
11
68.6112448
21
79.7324353
0
LINE
8
DEFAULT_255_2_778
10
68.6112448
20
79.7324353
11
68.6112448
21
73.0710353
0
LINE
8
DEFAULT_255_2_778
10
68.6112448
20
29.0710353
11
68.6112448
21
18.4097353
0
LINE
8
DEFAULT_255_2_778
10
68.6112448
20
18.4097353
11
73.1112448
21
18.4097353
0
LINE
8
DEFAULT_255_2_778
10
73.1112448
20
18.4097353
11
73.1112448
21
30.4622353
0
LINE
8
DEFAULT_255_2_778
10
73.1112448
20
30.4622353
11
71.6113448
21
30.4622353
0
LINE
8
DEFAULT_255_2_778
10
71.6113448
20
30.4622353
11
71.6113448
21
66.9181353
0
LINE
8
DEFAULT_255_2_778
10
71.6113448
20
66.9181353
11
73.1112448
21
66.9181353
0
LINE
8
DEFAULT_255_2_778
10
73.1112448
20
66.9181353
11
73.1112448
21
69.0226353
0
LINE
8
DEFAULT_255_2_778
10
73.1112448
20
69.0226353
11
71.6113448
21
69.0226353
0
LINE
8
DEFAULT_255_2_778
10
71.6113448
20
69.0226353
11
71.6113448
21
79.7324353
0
LINE
8
DEFAULT_255_2_778
10
73.1112448
20
19.0709353
11
75.6113448
21
19.0709353
0
LINE
8
DEFAULT_255_2_778
10
75.6113448
20
19.0709353
11
75.6113448
21
18.0707353
0
LINE
8
DEFAULT_255_2_778
10
75.6113448
20
7.3030353
11
75.6113448
21
18.0710353
0
LINE
8
DEFAULT_255_2_778
10
75.6113448
20
18.0710353
11
71.6113448
21
18.0710353
0
LINE
8
DEFAULT_255_2_778
10
66.6112448
20
16.0710353
11
66.6112448
21
17.0711353
0
LINE
8
DEFAULT_255_2_778
10
67.6113448
20
18.0713353
11
67.6113448
21
19.0714353
0
LINE
8
DEFAULT_255_2_778
10
67.6113448
20
19.0714353
11
68.6115448
21
19.0714353
0
LINE
8
DEFAULT_255_2_778
10
66.6120448
20
93.0711353
11
66.5927448
21
93.0060353
0
LINE
8
DEFAULT_255_2_778
10
66.5927448
20
93.0060353
11
66.5358448
21
92.9436353
0
LINE
8
DEFAULT_255_2_778
10
66.5358448
20
92.9436353
11
66.4435448
21
92.8859353
0
LINE
8
DEFAULT_255_2_778
10
66.4435448
20
92.8859353
11
66.3191448
21
92.8354353
0
LINE
8
DEFAULT_255_2_778
10
66.3191448
20
92.8354353
11
66.1675448
21
92.7938353
0
LINE
8
DEFAULT_255_2_778
10
66.1675448
20
92.7938353
11
65.9947448
21
92.7631353
0
LINE
8
DEFAULT_255_2_778
10
65.9947448
20
92.7631353
11
65.8071448
21
92.7441353
0
LINE
8
DEFAULT_255_2_778
10
65.8071448
20
92.7441353
11
65.6121448
21
92.7377353
0
LINE
8
DEFAULT_255_2_778
10
65.6121448
20
92.7377353
11
65.6121448
21
92.0710353
0
LINE
8
DEFAULT_255_2_778
10
65.6121448
20
92.0710353
11
17.6120448
21
92.0710353
0
LINE
8
DEFAULT_255_2_778
10
17.6120448
20
92.0710353
11
17.6120448
21
94.0710353
0
LINE
8
DEFAULT_255_2_778
10
17.6120448
20
94.0710353
11
67.6119448
21
94.0710353
0
LINE
8
DEFAULT_255_2_778
10
66.6117448
20
93.0708353
11
66.6117448
21
92.0707353
0
LINE
8
DEFAULT_255_2_778
10
66.6117448
20
92.0707353
11
65.6116448
21
92.0707353
0
LINE
8
DEFAULT_255_2_778
10
65.6116448
20
92.0707353
11
65.6116448
21
81.0709353
0
LINE
8
DEFAULT_255_2_778
10
65.6116448
20
81.0709353
11
66.6117448
21
81.0709353
0
LINE
8
DEFAULT_255_2_778
10
66.6117448
20
81.0709353
11
66.6117448
21
82.0711353
0
LINE
8
DEFAULT_255_2_778
10
71.6118448
20
89.2791353
11
71.6118448
21
84.8629353
0
LINE
8
DEFAULT_255_2_778
10
71.6118448
20
84.8629353
11
67.6119448
21
84.8629353
0
LINE
8
DEFAULT_255_2_778
10
67.6119448
20
84.8629353
11
67.6119448
21
82.0711353
0
LINE
8
DEFAULT_255_2_778
10
67.6119448
20
82.0711353
11
71.6118448
21
82.0711353
0
LINE
8
DEFAULT_255_2_778
10
71.6118448
20
82.0711353
11
71.6118448
21
84.8629353
0
LINE
8
DEFAULT_255_2_778
10
75.6118448
20
69.0226353
11
75.6118448
21
91.0973353
0
LINE
8
DEFAULT_255_2_778
10
75.6118448
20
91.0973353
11
71.6118448
21
91.0973353
0
LINE
8
DEFAULT_255_2_778
10
71.6118448
20
91.0973353
11
71.6118448
21
89.2791353
0
LINE
8
DEFAULT_255_2_778
10
71.6118448
20
89.2791353
11
67.6119448
21
89.2791353
0
LINE
8
DEFAULT_255_2_778
10
67.6119448
20
89.2791353
11
67.6119448
21
92.0710353
0
LINE
8
DEFAULT_255_2_778
10
67.6119448
20
92.0710353
11
75.6118448
21
92.0710353
0
LINE
8
DEFAULT_255_2_778
10
75.6118448
20
92.0710353
11
75.6118448
21
91.0973353
0
ENDSEC
0
EOF