0
SECTION
2
HEADER
9
$MEASUREMENT
70
1
0
ENDSEC
0
SECTION
2
TABLES
0
TABLE
2
LTYPE
0
LTYPE
72
65
70
64
2
CONTINUOUS
3
______
73
0
40
0
0
ENDTAB
0
TABLE
2
LAYER
0
LAYER
2
DEFAULT_255_2_778
70
0
62
255
6
CONTINUOUS
0
LAYER
2
DEFAULT_255_1_388
70
0
62
255
6
CONTINUOUS
0
ENDTAB
0
ENDSEC
0
SECTION
2
ENTITIES
0
ARC
8
DEFAULT_255_2_778
10
3.5700693
20
36.1176536
40
0.7914215
50
129.1312896
51
180.1450914
0
ARC
8
DEFAULT_255_2_778
10
3.5703345
20
36.1181407
40
0.7912112
50
89.854026
51
129.1684493
0
ARC
8
DEFAULT_255_2_778
10
25.7993937
20
36.1178272
40
0.7915249
50
39.4792447
51
90.147911
0
ARC
8
DEFAULT_255_2_778
10
25.7999935
20
36.1176739
40
0.7911595
50
359.8533901
51
39.5154338
0
ARC
8
DEFAULT_255_2_778
10
25.7996693
20
-1.9863987
40
0.7914836
50
309.4761667
51
0.1482649
0
ARC
8
DEFAULT_255_2_778
10
25.799398
20
-1.9868298
40
0.7913235
50
269.8517415
51
309.511178
0
ARC
8
DEFAULT_255_2_778
10
3.570342
20
-1.9867716
40
0.7913815
50
219.1282118
51
270.1454017
0
ARC
8
DEFAULT_255_2_778
10
3.5700247
20
-1.9863891
40
0.7913769
50
179.8524075
51
219.1641908
0
LINE
8
DEFAULT_255_2_778
10
3.5723503
20
36.9093494
11
25.7973503
21
36.9093494
0
LINE
8
DEFAULT_255_2_778
10
26.5911503
20
36.1156494
11
26.5911503
21
-1.9843506
0
LINE
8
DEFAULT_255_2_778
10
25.7973503
20
-2.7781506
11
3.5723503
21
-2.7781506
0
LINE
8
DEFAULT_255_2_778
10
2.7786503
20
-1.9843506
11
2.7786503
21
36.1156494
0
LINE
8
DEFAULT_255_1_388
10
11.7330389
20
-0.6398
11
11.3689024
21
-0.6398
0
LINE
8
DEFAULT_255_1_388
10
11.3689024
20
-0.6398
11
11.3689024
21
0.6757898
0
LINE
8
DEFAULT_255_1_388
10
11.3689024
20
0.6757898
11
11.7402674
21
0.6757898
0
LINE
8
DEFAULT_255_1_388
10
12.3203558
20
0.0622696
11
12.3203558
21
-0.0217619
0
LINE
8
DEFAULT_255_1_388
10
11.7447852
20
0.5330267
11
11.5423868
21
0.5330267
0
LINE
8
DEFAULT_255_1_388
10
11.5423868
20
0.5330267
11
11.5423868
21
-0.4979404
0
LINE
8
DEFAULT_255_1_388
10
11.5423868
20
-0.4979404
11
11.7249068
21
-0.4979404
0
LINE
8
DEFAULT_255_1_388
10
12.1486785
20
-0.0181477
11
12.1486785
21
0.0586553
0
ARC
8
DEFAULT_255_1_388
10
11.7446469
20
0.0159436
40
0.6598608
50
75.4100343
51
90.3802731
0
ARC
8
DEFAULT_255_1_388
10
11.7704714
20
0.1235691
40
0.5492049
50
60.1455157
51
75.1889627
0
ARC
8
DEFAULT_255_1_388
10
11.7883306
20
0.1546914
40
0.5133226
50
26.525419
51
60.1451222
0
ARC
8
DEFAULT_255_1_388
10
11.6623092
20
0.0878642
40
0.6559324
50
7.4029944
51
26.832209
0
ARC
8
DEFAULT_255_1_388
10
11.4829489
20
0.0599229
40
0.8374103
50
0.1605597
51
7.7176135
0
ARC
8
DEFAULT_255_1_388
10
11.5013889
20
-0.0260679
40
0.8189782
50
348.7289744
51
0.30125
0
ARC
8
DEFAULT_255_1_388
10
11.6877353
20
-0.0630844
40
0.628991
50
333.0706936
51
348.7181455
0
ARC
8
DEFAULT_255_1_388
10
11.7964981
20
-0.1221551
40
0.5052808
50
299.2531435
51
333.4571133
0
ARC
8
DEFAULT_255_1_388
10
11.7559012
20
-0.0450371
40
0.5924066
50
278.1072193
51
299.0340218
0
ARC
8
DEFAULT_255_1_388
10
11.7271061
20
0.1245979
40
0.7644209
50
270.4446841
51
278.4508355
0
ARC
8
DEFAULT_255_1_388
10
11.7294545
20
0.02003
40
0.5179903
50
269.4969684
51
284.0204874
0
ARC
8
DEFAULT_255_1_388
10
11.7694263
20
-0.1335585
40
0.3592968
50
283.7699076
51
318.1557121
0
ARC
8
DEFAULT_255_1_388
10
11.7314808
20
-0.1051601
40
0.4065308
50
318.7417595
51
343.687252
0
ARC
8
DEFAULT_255_1_388
10
11.5285387
20
-0.0417725
40
0.6191194
50
343.3324891
51
355.8548594
0
ARC
8
DEFAULT_255_1_388
10
11.2924424
20
-0.0193281
40
0.856237
50
355.4988754
51
0.0789913
0
ARC
8
DEFAULT_255_1_388
10
11.3805224
20
0.063408
40
0.7681709
50
359.6455047
51
9.8607559
0
ARC
8
DEFAULT_255_1_388
10
11.6460947
20
0.1113664
40
0.498312
50
9.6573037
51
26.1931522
0
ARC
8
DEFAULT_255_1_388
10
11.7505022
20
0.1598587
40
0.3832303
50
26.5777895
51
40.1533752
0
ARC
8
DEFAULT_255_1_388
10
11.7792687
20
0.182302
40
0.3467742
50
40.3839958
51
80.1430923
0
ARC
8
DEFAULT_255_1_388
10
11.7424942
20
0.0192486
40
0.5137832
50
79.2153636
51
89.7445174
0
LINE
8
DEFAULT_255_1_388
10
13.4010188
20
-0.5033618
11
13.4010188
21
-0.6398
0
LINE
8
DEFAULT_255_1_388
10
13.4010188
20
-0.6398
11
12.5390184
21
-0.6398
0
LINE
8
DEFAULT_255_1_388
10
12.5390184
20
-0.6398
11
12.5390184
21
-0.5196259
0
LINE
8
DEFAULT_255_1_388
10
12.5390184
20
-0.5196259
11
12.9944148
21
-0.0136298
0
LINE
8
DEFAULT_255_1_388
10
12.680878
20
0.2881607
11
12.5137186
21
0.2881607
0
LINE
8
DEFAULT_255_1_388
10
13.0929034
20
-0.121154
11
12.7405132
21
-0.5033618
0
LINE
8
DEFAULT_255_1_388
10
12.7405132
20
-0.5033618
11
13.4010188
21
-0.5033618
0
ARC
8
DEFAULT_255_1_388
10
11.4768208
20
1.3283983
40
2.0258655
50
318.5132526
51
320.7829045
0
ARC
8
DEFAULT_255_1_388
10
12.0716165
20
0.8442929
40
1.2589638
50
320.7372878
51
323.9739031
0
ARC
8
DEFAULT_255_1_388
10
12.5125097
20
0.5248554
40
0.7145141
50
323.8962701
51
328.64194
0
ARC
8
DEFAULT_255_1_388
10
12.7427354
20
0.3828545
40
0.4440242
50
328.8294576
51
331.7891185
0
ARC
8
DEFAULT_255_1_388
10
12.8549674
20
0.3249374
40
0.3177517
50
331.4254512
51
352.9365785
0
ARC
8
DEFAULT_255_1_388
10
12.8702674
20
0.321505
40
0.3021496
50
353.2257659
51
0.0166158
0
ARC
8
DEFAULT_255_1_388
10
12.8939435
20
0.3240894
40
0.2784847
50
359.486299
51
15.9343185
0
ARC
8
DEFAULT_255_1_388
10
12.9509702
20
0.3394269
40
0.2194403
50
16.1712913
51
43.5286088
0
ARC
8
DEFAULT_255_1_388
10
12.9596646
20
0.3481191
40
0.2071504
50
43.4417391
51
83.1661095
0
ARC
8
DEFAULT_255_1_388
10
12.9445807
20
0.2652316
40
0.2912888
50
82.160179
51
90.1505708
0
ARC
8
DEFAULT_255_1_388
10
12.9410289
20
0.2048279
40
0.3517025
50
89.5460741
51
102.5418361
0
ARC
8
DEFAULT_255_1_388
10
12.9137009
20
0.3207933
40
0.2325748
50
102.1738499
51
129.206123
0
ARC
8
DEFAULT_255_1_388
10
12.9048462
20
0.3347664
40
0.2161591
50
129.72865
51
135.753947
0
ARC
8
DEFAULT_255_1_388
10
12.9184944
20
0.3238728
40
0.2335433
50
136.1757367
51
166.3673339
0
ARC
8
DEFAULT_255_1_388
10
13.0317633
20
0.2935148
40
0.3507873
50
165.9090694
51
178.8684636
0
ARC
8
DEFAULT_255_1_388
10
13.1293404
20
0.2882263
40
0.4484624
50
178.4391136
51
180.0083808
0
ARC
8
DEFAULT_255_1_388
10
12.9714106
20
0.2926197
40
0.4577138
50
163.2878482
51
180.5581842
0
ARC
8
DEFAULT_255_1_388
10
12.8812147
20
0.3174393
40
0.3641968
50
133.4540601
51
162.947111
0
ARC
8
DEFAULT_255_1_388
10
12.9013029
20
0.2960789
40
0.3935189
50
100.7869829
51
133.4382499
0
ARC
8
DEFAULT_255_1_388
10
12.9404274
20
0.1218399
40
0.5720313
50
89.660664
51
101.3702276
0
ARC
8
DEFAULT_255_1_388
10
12.9478883
20
0.1287263
40
0.5651495
50
78.2172678
51
90.412935
0
ARC
8
DEFAULT_255_1_388
10
12.9878348
20
0.3114511
40
0.378122
50
55.9269121
51
78.4888449
0
ARC
8
DEFAULT_255_1_388
10
13.0099064
20
0.3495187
40
0.3342379
50
47.929771
51
55.4049217
0
ARC
8
DEFAULT_255_1_388
10
13.0213594
20
0.3611618
40
0.3179217
50
4.334829
51
48.0560205
0
ARC
8
DEFAULT_255_1_388
10
12.8981396
20
0.3420487
40
0.442341
50
359.9251713
51
5.5971671
0
ARC
8
DEFAULT_255_1_388
10
12.946355
20
0.3483728
40
0.3941854
50
337.8914027
51
358.9967534
0
ARC
8
DEFAULT_255_1_388
10
12.641112
20
0.4661295
40
0.7213271
50
326.9132501
51
338.3508308
0
ARC
8
DEFAULT_255_1_388
10
12.1927232
20
0.7535105
40
1.2538973
50
319.6471833
51
327.0959558
0
ARC
8
DEFAULT_255_1_388
10
11.761389
20
1.109305
40
1.8129975
50
317.2588228
51
319.9045804
0
LINE
8
DEFAULT_255_1_388
10
13.9431575
20
-0.0127263
11
13.9431575
21
-0.1491645
0
LINE
8
DEFAULT_255_1_388
10
13.9431575
20
-0.1491645
11
13.5022181
21
-0.1491645
0
LINE
8
DEFAULT_255_1_388
10
13.5022181
20
-0.1491645
11
13.5022181
21
-0.0127263
0
LINE
8
DEFAULT_255_1_388
10
13.5022181
20
-0.0127263
11
13.9431575
21
-0.0127263
0
LINE
8
DEFAULT_255_1_388
10
14.9506319
20
-0.5033618
11
14.9506319
21
-0.6398
0
LINE
8
DEFAULT_255_1_388
10
14.9506319
20
-0.6398
11
14.0886314
21
-0.6398
0
LINE
8
DEFAULT_255_1_388
10
14.0886314
20
-0.6398
11
14.0886314
21
-0.5196259
0
LINE
8
DEFAULT_255_1_388
10
14.0886314
20
-0.5196259
11
14.5440279
21
-0.0136298
0
LINE
8
DEFAULT_255_1_388
10
14.230491
20
0.2881607
11
14.0633316
21
0.2881607
0
LINE
8
DEFAULT_255_1_388
10
14.6425164
20
-0.121154
11
14.2901263
21
-0.5033618
0
LINE
8
DEFAULT_255_1_388
10
14.2901263
20
-0.5033618
11
14.9506319
21
-0.5033618
0
ARC
8
DEFAULT_255_1_388
10
13.0264338
20
1.3283983
40
2.0258655
50
318.5132526
51
320.7829045
0
ARC
8
DEFAULT_255_1_388
10
13.6212295
20
0.8442929
40
1.2589638
50
320.7372878
51
323.9739031
0
ARC
8
DEFAULT_255_1_388
10
14.0621227
20
0.5248554
40
0.7145141
50
323.8962701
51
328.64194
0
ARC
8
DEFAULT_255_1_388
10
14.2923484
20
0.3828545
40
0.4440242
50
328.8294576
51
331.7891185
0
ARC
8
DEFAULT_255_1_388
10
14.4045805
20
0.3249374
40
0.3177517
50
331.4254512
51
352.9365785
0
ARC
8
DEFAULT_255_1_388
10
14.4198805
20
0.321505
40
0.3021496
50
353.2257659
51
0.0166158
0
ARC
8
DEFAULT_255_1_388
10
14.4435565
20
0.3240894
40
0.2784847
50
359.486299
51
15.9343185
0
ARC
8
DEFAULT_255_1_388
10
14.5005832
20
0.3394269
40
0.2194403
50
16.1712913
51
43.5286088
0
ARC
8
DEFAULT_255_1_388
10
14.5092777
20
0.3481191
40
0.2071504
50
43.4417391
51
83.1661095
0
ARC
8
DEFAULT_255_1_388
10
14.4941938
20
0.2652316
40
0.2912888
50
82.160179
51
90.1505708
0
ARC
8
DEFAULT_255_1_388
10
14.4906419
20
0.2048279
40
0.3517025
50
89.5460741
51
102.5418361
0
ARC
8
DEFAULT_255_1_388
10
14.4633139
20
0.3207933
40
0.2325748
50
102.1738499
51
129.206123
0
ARC
8
DEFAULT_255_1_388
10
14.4544593
20
0.3347664
40
0.2161591
50
129.72865
51
135.753947
0
ARC
8
DEFAULT_255_1_388
10
14.4681075
20
0.3238728
40
0.2335433
50
136.1757367
51
166.3673339
0
ARC
8
DEFAULT_255_1_388
10
14.5813763
20
0.2935148
40
0.3507873
50
165.9090694
51
178.8684636
0
ARC
8
DEFAULT_255_1_388
10
14.6789535
20
0.2882263
40
0.4484624
50
178.4391136
51
180.0083808
0
ARC
8
DEFAULT_255_1_388
10
14.5210236
20
0.2926197
40
0.4577138
50
163.2878482
51
180.5581842
0
ARC
8
DEFAULT_255_1_388
10
14.4308277
20
0.3174393
40
0.3641968
50
133.4540601
51
162.947111
0
ARC
8
DEFAULT_255_1_388
10
14.4509159
20
0.2960789
40
0.3935189
50
100.7869829
51
133.4382499
0
ARC
8
DEFAULT_255_1_388
10
14.4900404
20
0.1218399
40
0.5720313
50
89.660664
51
101.3702276
0
ARC
8
DEFAULT_255_1_388
10
14.4975013
20
0.1287263
40
0.5651495
50
78.2172678
51
90.412935
0
ARC
8
DEFAULT_255_1_388
10
14.5374479
20
0.3114511
40
0.378122
50
55.9269121
51
78.4888449
0
ARC
8
DEFAULT_255_1_388
10
14.5595194
20
0.3495187
40
0.3342379
50
47.929771
51
55.4049217
0
ARC
8
DEFAULT_255_1_388
10
14.5709724
20
0.3611618
40
0.3179217
50
4.334829
51
48.0560205
0
ARC
8
DEFAULT_255_1_388
10
14.4477526
20
0.3420487
40
0.442341
50
359.9251713
51
5.5971671
0
ARC
8
DEFAULT_255_1_388
10
14.4959681
20
0.3483728
40
0.3941854
50
337.8914027
51
358.9967534
0
ARC
8
DEFAULT_255_1_388
10
14.1907251
20
0.4661295
40
0.7213271
50
326.9132501
51
338.3508308
0
ARC
8
DEFAULT_255_1_388
10
13.7423363
20
0.7535105
40
1.2538973
50
319.6471833
51
327.0959558
0
ARC
8
DEFAULT_255_1_388
10
13.3110021
20
1.109305
40
1.8129975
50
317.2588228
51
319.9045804
0
LINE
8
DEFAULT_255_1_388
10
15.7539007
20
0.6766934
11
15.7837183
21
0.6766934
0
LINE
8
DEFAULT_255_1_388
10
15.7837183
20
0.6766934
11
15.7837183
21
0.5348338
0
LINE
8
DEFAULT_255_1_388
10
15.7837183
20
0.5348338
11
15.7529971
21
0.5348338
0
LINE
8
DEFAULT_255_1_388
10
15.1376697
20
-0.1392253
11
15.1376697
21
-0.0750722
0
LINE
8
DEFAULT_255_1_388
10
15.3057327
20
-0.0967578
11
15.3057327
21
-0.1582001
0
ARC
8
DEFAULT_255_1_388
10
15.7588863
20
-0.0274174
40
0.562282
50
90.6001079
51
104.5146616
0
ARC
8
DEFAULT_255_1_388
10
15.7151822
20
0.13511
40
0.3939917
50
104.2855758
51
133.8630124
0
ARC
8
DEFAULT_255_1_388
10
15.7336075
20
0.1229243
40
0.4155734
50
134.5304124
51
161.6210222
0
ARC
8
DEFAULT_255_1_388
10
15.9196007
20
0.0573421
40
0.6127682
50
161.2850533
51
174.2074364
0
ARC
8
DEFAULT_255_1_388
10
16.0785574
20
0.0354437
40
0.7731446
50
173.7817938
51
174.9251711
0
ARC
8
DEFAULT_255_1_388
10
15.5659768
20
-0.120073
40
0.3412588
50
95.8332067
51
138.995412
0
ARC
8
DEFAULT_255_1_388
10
15.5911048
20
-0.2639305
40
0.4870358
50
89.8755506
51
97.0540979
0
ARC
8
DEFAULT_255_1_388
10
15.5964437
20
-0.1699159
40
0.3930432
50
71.6407016
51
90.6240821
0
ARC
8
DEFAULT_255_1_388
10
15.613383
20
-0.1075567
40
0.3285421
50
39.6368051
51
71.0190743
0
ARC
8
DEFAULT_255_1_388
10
15.5417738
20
-0.1694414
40
0.4231706
50
10.6588054
51
39.9044509
0
ARC
8
DEFAULT_255_1_388
10
15.3676284
20
-0.2072777
40
0.60133
50
359.6827842
51
11.1326896
0
ARC
8
DEFAULT_255_1_388
10
15.3631619
20
-0.2152285
40
0.6058047
50
347.2485908
51
0.4371098
0
ARC
8
DEFAULT_255_1_388
10
15.5507405
20
-0.2603621
40
0.4128987
50
318.1408565
51
347.6118497
0
ARC
8
DEFAULT_255_1_388
10
15.5873002
20
-0.2904097
40
0.3656244
50
275.6342406
51
317.824739
0
ARC
8
DEFAULT_255_1_388
10
15.5624522
20
-0.1442173
40
0.513655
50
269.8872513
51
276.7916069
0
ARC
8
DEFAULT_255_1_388
10
15.5562715
20
-0.2595819
40
0.398323
50
246.9139443
51
270.7436787
0
ARC
8
DEFAULT_255_1_388
10
15.5569911
20
-0.2755956
40
0.3839368
50
218.1665534
51
245.8780431
0
ARC
8
DEFAULT_255_1_388
10
15.6559283
20
-0.1928097
40
0.5128958
50
191.4115343
51
218.6077624
0
ARC
8
DEFAULT_255_1_388
10
15.8739599
20
-0.1439223
40
0.7363054
50
179.6344971
51
191.7836758
0
ARC
8
DEFAULT_255_1_388
10
16.5019474
20
-0.0675505
40
1.3642984
50
171.4523743
51
180.3158856
0
ARC
8
DEFAULT_255_1_388
10
16.0075201
20
0.0093895
40
0.8639311
50
157.9802296
51
171.6246761
0
ARC
8
DEFAULT_255_1_388
10
15.7584551
20
0.1087038
40
0.5958004
50
141.4299236
51
157.8541251
0
ARC
8
DEFAULT_255_1_388
10
15.6862635
20
0.1597746
40
0.5075416
50
102.871586
51
140.8564533
0
ARC
8
DEFAULT_255_1_388
10
15.7591188
20
-0.1147057
40
0.7914163
50
90.377773
51
103.5868422
0
ARC
8
DEFAULT_255_1_388
10
15.5635709
20
-0.1827457
40
0.2667015
50
89.8751238
51
126.2072139
0
ARC
8
DEFAULT_255_1_388
10
15.568718
20
-0.2001153
40
0.2838229
50
124.9742447
51
144.8960197
0
ARC
8
DEFAULT_255_1_388
10
15.5489425
20
-0.1840019
40
0.2583845
50
145.2974778
51
160.2660922
0
ARC
8
DEFAULT_255_1_388
10
15.8945913
20
-0.1617849
40
0.5888695
50
179.6512124
51
190.285571
0
ARC
8
DEFAULT_255_1_388
10
15.7040393
20
-0.1977032
40
0.3949683
50
190.0944895
51
207.5099647
0
ARC
8
DEFAULT_255_1_388
10
15.6403974
20
-0.2279823
40
0.3245464
50
207.9585471
51
216.325377
0
ARC
8
DEFAULT_255_1_388
10
15.6021612
20
-0.2594288
40
0.2751259
50
215.7661336
51
232.5457193
0
ARC
8
DEFAULT_255_1_388
10
15.5590727
20
-0.3141727
40
0.2054668
50
232.8005815
51
270.6605497
0
ARC
8
DEFAULT_255_1_388
10
15.5642152
20
-0.2732147
40
0.2464268
50
269.3550767
51
288.474612
0
ARC
8
DEFAULT_255_1_388
10
15.5746659
20
-0.3125279
40
0.2058436
50
289.1831976
51
322.9685307
0
ARC
8
DEFAULT_255_1_388
10
15.505876
20
-0.2582721
40
0.2934408
50
322.6007085
51
346.5183319
0
ARC
8
DEFAULT_255_1_388
10
15.3756517
20
-0.2250566
40
0.4278249
50
346.2584622
51
358.7739592
0
ARC
8
DEFAULT_255_1_388
10
15.2605092
20
-0.2188171
40
0.5430876
50
358.3757628
51
0.0082477
0
ARC
8
DEFAULT_255_1_388
10
15.346191
20
-0.2157144
40
0.4574157
50
359.6211417
51
11.28403
0
ARC
8
DEFAULT_255_1_388
10
15.4898517
20
-0.1857465
40
0.3106708
50
11.0483152
51
31.8145585
0
ARC
8
DEFAULT_255_1_388
10
15.5246222
20
-0.1668955
40
0.2711963
50
32.3028554
51
38.0820598
0
ARC
8
DEFAULT_255_1_388
10
15.5719455
20
-0.1240283
40
0.2075566
50
36.8249851
51
85.741667
0
ARC
8
DEFAULT_255_1_388
10
15.5643867
20
-0.1803935
40
0.2643487
50
85.0150021
51
90.050843
0
LINE
8
DEFAULT_255_1_388
10
16.3773602
20
-0.0145334
11
16.2436326
21
0.0198021
0
LINE
8
DEFAULT_255_1_388
10
16.2436326
20
0.0198021
11
16.3104964
21
0.6757898
0
LINE
8
DEFAULT_255_1_388
10
16.3104964
20
0.6757898
11
16.9845555
21
0.6757898
0
LINE
8
DEFAULT_255_1_388
10
16.9845555
20
0.6757898
11
16.9845555
21
0.5212803
0
LINE
8
DEFAULT_255_1_388
10
16.9845555
20
0.5212803
11
16.452356
21
0.5212803
0
LINE
8
DEFAULT_255_1_388
10
16.452356
20
0.5212803
11
16.4125992
21
0.1625652
0
LINE
8
DEFAULT_255_1_388
10
16.1966473
20
-0.2937348
11
16.354771
21
-0.2937348
0
LINE
8
DEFAULT_255_1_388
10
16.4216348
20
0.0216092
11
16.3773602
21
-0.0145334
0
ARC
8
DEFAULT_255_1_388
10
16.6212605
20
-0.1951759
40
0.4141476
50
93.7181681
51
120.253934
0
ARC
8
DEFAULT_255_1_388
10
16.6318657
20
-0.2860716
40
0.5055616
50
89.9660471
51
94.2495185
0
ARC
8
DEFAULT_255_1_388
10
16.6364479
20
-0.2197846
40
0.4392953
50
73.8045384
51
90.5585736
0
ARC
8
DEFAULT_255_1_388
10
16.6628737
20
-0.123248
40
0.3392225
50
41.3071072
51
73.543002
0
ARC
8
DEFAULT_255_1_388
10
16.6160557
20
-0.1635539
40
0.4009977
50
13.5075837
51
41.2174839
0
ARC
8
DEFAULT_255_1_388
10
16.4313654
20
-0.2119093
40
0.5918864
50
1.1330171
51
13.8830737
0
ARC
8
DEFAULT_255_1_388
10
16.27173
20
-0.2204478
40
0.7516787
50
359.9925091
51
1.5431298
0
ARC
8
DEFAULT_255_1_388
10
16.4161915
20
-0.2250973
40
0.6072343
50
347.8572712
51
0.4294349
0
ARC
8
DEFAULT_255_1_388
10
16.613105
20
-0.2697102
40
0.4053482
50
323.6727442
51
348.1674594
0
ARC
8
DEFAULT_255_1_388
10
16.6462014
20
-0.2898825
40
0.3667495
50
316.8171818
51
323.1486802
0
ARC
8
DEFAULT_255_1_388
10
16.6531138
20
-0.2940388
40
0.358869
50
281.839603
51
316.5458142
0
ARC
8
DEFAULT_255_1_388
10
16.6108426
20
-0.1190637
40
0.5388223
50
269.5770964
51
282.4214641
0
ARC
8
DEFAULT_255_1_388
10
16.6028346
20
-0.143107
40
0.5147801
50
256.2425863
51
270.4486481
0
ARC
8
DEFAULT_255_1_388
10
16.5691874
20
-0.2780876
40
0.3756708
50
228.9024379
51
256.33135
0
ARC
8
DEFAULT_255_1_388
10
16.5608854
20
-0.2911946
40
0.360344
50
193.7536029
51
228.5272638
0
ARC
8
DEFAULT_255_1_388
10
16.7001419
20
-0.2503537
40
0.5053599
50
184.9244437
51
194.4976052
0
ARC
8
DEFAULT_255_1_388
10
16.7218061
20
-0.2463278
40
0.3700839
50
187.3596909
51
198.6733728
0
ARC
8
DEFAULT_255_1_388
10
16.6037304
20
-0.2872627
40
0.2451195
50
198.4453795
51
217.7945479
0
ARC
8
DEFAULT_255_1_388
10
16.5704477
20
-0.3108437
40
0.2043754
50
218.2887146
51
228.5613203
0
ARC
8
DEFAULT_255_1_388
10
16.5814483
20
-0.2960098
40
0.2227819
50
228.9652423
51
258.1237049
0
ARC
8
DEFAULT_255_1_388
10
16.6045921
20
-0.1969036
40
0.3245374
50
257.7260585
51
270.4013717
0
ARC
8
DEFAULT_255_1_388
10
16.6096419
20
-0.2469745
40
0.2744726
50
269.4204315
51
286.420998
0
ARC
8
DEFAULT_255_1_388
10
16.6263475
20
-0.3076295
40
0.2115721
50
286.7250065
51
320.6004665
0
ARC
8
DEFAULT_255_1_388
10
16.583239
20
-0.2726473
40
0.2670878
50
320.6712228
51
344.5440474
0
ARC
8
DEFAULT_255_1_388
10
16.4531104
20
-0.2344606
40
0.4026927
50
344.241448
51
356.735803
0
ARC
8
DEFAULT_255_1_388
10
16.3127411
20
-0.2228344
40
0.5435085
50
356.3547471
51
0.0507222
0
ARC
8
DEFAULT_255_1_388
10
16.4629676
20
-0.2193188
40
0.3932934
50
359.5579289
51
12.9534322
0
ARC
8
DEFAULT_255_1_388
10
16.5816516
20
-0.1905414
40
0.2711827
50
12.6489751
51
41.608121
0
ARC
8
DEFAULT_255_1_388
10
16.6075676
20
-0.1685054
40
0.2371737
50
41.7851122
51
85.9892156
0
ARC
8
DEFAULT_255_1_388
10
16.5936986
20
-0.2600262
40
0.3295244
50
84.6965848
51
90.0672125
0
ARC
8
DEFAULT_255_1_388
10
16.5910554
20
-0.3351882
40
0.4046926
50
89.6804991
51
99.161352
0
ARC
8
DEFAULT_255_1_388
10
16.5679563
20
-0.1971152
40
0.2647044
50
98.9836248
51
113.8905702
0
ARC
8
DEFAULT_255_1_388
10
16.5421238
20
-0.1361882
40
0.1985386
50
114.195234
51
127.3641866
0
LINE
8
DEFAULT_255_1_388
10
7.8857389
20
30.4488
11
7.5216024
21
30.4488
0
LINE
8
DEFAULT_255_1_388
10
7.5216024
20
30.4488
11
7.5216024
21
31.7643898
0
LINE
8
DEFAULT_255_1_388
10
7.5216024
20
31.7643898
11
7.8929674
21
31.7643898
0
LINE
8
DEFAULT_255_1_388
10
8.4730558
20
31.1508696
11
8.4730558
21
31.0668381
0
LINE
8
DEFAULT_255_1_388
10
7.8974852
20
31.6216267
11
7.6950868
21
31.6216267
0
LINE
8
DEFAULT_255_1_388
10
7.6950868
20
31.6216267
11
7.6950868
21
30.5906596
0
LINE
8
DEFAULT_255_1_388
10
7.6950868
20
30.5906596
11
7.8776068
21
30.5906596
0
LINE
8
DEFAULT_255_1_388
10
8.3013785
20
31.0704523
11
8.3013785
21
31.1472553
0
ARC
8
DEFAULT_255_1_388
10
7.8973469
20
31.1045436
40
0.6598608
50
75.4100343
51
90.3802731
0
ARC
8
DEFAULT_255_1_388
10
7.9231714
20
31.2121691
40
0.5492049
50
60.1455157
51
75.1889627
0
ARC
8
DEFAULT_255_1_388
10
7.9410306
20
31.2432914
40
0.5133226
50
26.525419
51
60.1451222
0
ARC
8
DEFAULT_255_1_388
10
7.8150092
20
31.1764642
40
0.6559324
50
7.4029944
51
26.832209
0
ARC
8
DEFAULT_255_1_388
10
7.6356489
20
31.1485229
40
0.8374103
50
0.1605597
51
7.7176135
0
ARC
8
DEFAULT_255_1_388
10
7.6540889
20
31.0625321
40
0.8189782
50
348.7289744
51
0.30125
0
ARC
8
DEFAULT_255_1_388
10
7.8404353
20
31.0255156
40
0.628991
50
333.0706936
51
348.7181455
0
ARC
8
DEFAULT_255_1_388
10
7.9491981
20
30.9664449
40
0.5052808
50
299.2531435
51
333.4571133
0
ARC
8
DEFAULT_255_1_388
10
7.9086012
20
31.0435629
40
0.5924066
50
278.1072193
51
299.0340218
0
ARC
8
DEFAULT_255_1_388
10
7.8798061
20
31.2131979
40
0.7644209
50
270.4446841
51
278.4508355
0
ARC
8
DEFAULT_255_1_388
10
7.8821545
20
31.10863
40
0.5179903
50
269.4969684
51
284.0204874
0
ARC
8
DEFAULT_255_1_388
10
7.9221263
20
30.9550415
40
0.3592968
50
283.7699076
51
318.1557121
0
ARC
8
DEFAULT_255_1_388
10
7.8841808
20
30.9834399
40
0.4065308
50
318.7417595
51
343.687252
0
ARC
8
DEFAULT_255_1_388
10
7.6812387
20
31.0468275
40
0.6191194
50
343.3324891
51
355.8548594
0
ARC
8
DEFAULT_255_1_388
10
7.4451424
20
31.0692719
40
0.856237
50
355.4988754
51
0.0789913
0
ARC
8
DEFAULT_255_1_388
10
7.5332224
20
31.152008
40
0.7681709
50
359.6455047
51
9.8607559
0
ARC
8
DEFAULT_255_1_388
10
7.7987947
20
31.1999664
40
0.498312
50
9.6573037
51
26.1931522
0
ARC
8
DEFAULT_255_1_388
10
7.9032022
20
31.2484587
40
0.3832303
50
26.5777895
51
40.1533752
0
ARC
8
DEFAULT_255_1_388
10
7.9319687
20
31.270902
40
0.3467742
50
40.3839958
51
80.1430923
0
ARC
8
DEFAULT_255_1_388
10
7.8951942
20
31.1078486
40
0.5137832
50
79.2153636
51
89.7445174
0
LINE
8
DEFAULT_255_1_388
10
8.8905025
20
31.4264567
11
8.8905025
21
30.4488
0
LINE
8
DEFAULT_255_1_388
10
8.8905025
20
30.4488
11
8.7233431
21
30.4488
0
LINE
8
DEFAULT_255_1_388
10
8.7233431
20
30.4488
11
8.7233431
21
31.4264567
0
LINE
8
DEFAULT_255_1_388
10
8.7233431
20
31.4264567
11
8.8905025
21
31.4264567
0
ARC
8
DEFAULT_255_1_388
10
8.8198793
20
31.6868428
40
0.1100948
50
161.4148232
51
180.5532607
0
ARC
8
DEFAULT_255_1_388
10
8.8059103
20
31.6906875
40
0.0956324
50
138.1830164
51
160.9307633
0
ARC
8
DEFAULT_255_1_388
10
8.793529
20
31.7014313
40
0.0792417
50
104.6371663
51
138.0036136
0
ARC
8
DEFAULT_255_1_388
10
8.8055829
20
31.6601963
40
0.1221906
50
92.0601206
51
105.2198859
0
ARC
8
DEFAULT_255_1_388
10
8.8082193
20
31.6213583
40
0.161103
50
89.9790681
51
92.5006086
0
ARC
8
DEFAULT_255_1_388
10
8.8093369
20
31.6469998
40
0.1354654
50
78.0234649
51
90.4478111
0
ARC
8
DEFAULT_255_1_388
10
8.8196954
20
31.6935203
40
0.0878096
50
55.0521508
51
78.336297
0
ARC
8
DEFAULT_255_1_388
10
8.8253488
20
31.7030168
40
0.0767913
50
42.0506198
51
54.4508489
0
ARC
8
DEFAULT_255_1_388
10
8.8101521
20
31.6890821
40
0.0974091
50
1.7493657
51
42.1498724
0
ARC
8
DEFAULT_255_1_388
10
8.7815427
20
31.6858166
40
0.1261276
50
359.9832635
51
2.8353994
0
ARC
8
DEFAULT_255_1_388
10
8.8001837
20
31.6847412
40
0.1074916
50
342.1062453
51
0.5535864
0
ARC
8
DEFAULT_255_1_388
10
8.8162261
20
31.6803197
40
0.0908695
50
316.7110111
51
341.6513114
0
ARC
8
DEFAULT_255_1_388
10
8.8237693
20
31.6735607
40
0.0807447
50
285.4398289
51
316.5320129
0
ARC
8
DEFAULT_255_1_388
10
8.8113863
20
31.7147023
40
0.1237022
50
272.3543902
51
285.8951677
0
ARC
8
DEFAULT_255_1_388
10
8.8083573
20
31.7562742
40
0.1653687
50
269.9725761
51
272.8112722
0
ARC
8
DEFAULT_255_1_388
10
8.8072625
20
31.7311727
40
0.1402709
50
258.8433431
51
270.4148607
0
ARC
8
DEFAULT_255_1_388
10
8.7971405
20
31.6821739
40
0.0902407
50
238.54281
51
259.1289544
0
ARC
8
DEFAULT_255_1_388
10
8.7894727
20
31.6682694
40
0.0743817
50
222.5056676
51
237.9918132
0
ARC
8
DEFAULT_255_1_388
10
8.803832
20
31.6813295
40
0.0937918
50
184.1070774
51
222.4604165
0
ARC
8
DEFAULT_255_1_388
10
8.8340734
20
31.6856538
40
0.1242838
50
179.9419581
51
185.0970785
0
LINE
8
DEFAULT_255_1_388
10
9.6305218
20
31.4318781
11
9.6305218
21
31.276465
0
LINE
8
DEFAULT_255_1_388
10
9.325117
20
31.1427375
11
9.325117
21
30.4488
0
LINE
8
DEFAULT_255_1_388
10
9.325117
20
30.4488
11
9.1579576
21
30.4488
0
LINE
8
DEFAULT_255_1_388
10
9.1579576
20
30.4488
11
9.1579576
21
31.4264567
0
LINE
8
DEFAULT_255_1_388
10
9.1579576
20
31.4264567
11
9.3205992
21
31.4264567
0
LINE
8
DEFAULT_255_1_388
10
9.3205992
20
31.4264567
11
9.3233099
21
31.3135112
0
ARC
8
DEFAULT_255_1_388
10
9.5555378
20
30.8198068
40
0.4627735
50
80.6751522
51
86.893806
0
ARC
8
DEFAULT_255_1_388
10
9.5487208
20
30.7106103
40
0.5721798
50
86.8046851
51
90.0423898
0
ARC
8
DEFAULT_255_1_388
10
9.5445628
20
30.9873197
40
0.2954939
50
89.2758283
51
106.6212906
0
ARC
8
DEFAULT_255_1_388
10
9.5215652
20
31.0709009
40
0.2088351
50
107.1347109
51
157.6456887
0
ARC
8
DEFAULT_255_1_388
10
9.5983714
20
31.0281908
40
0.296292
50
155.6557383
51
157.256838
0
ARC
8
DEFAULT_255_1_388
10
9.5763329
20
31.1592472
40
0.296341
50
127.8167201
51
148.6300223
0
ARC
8
DEFAULT_255_1_388
10
9.5478076
20
31.1885066
40
0.2557782
50
91.3329934
51
126.7875218
0
ARC
8
DEFAULT_255_1_388
10
9.5563463
20
31.1081718
40
0.3363561
50
89.9858247
51
92.4688453
0
ARC
8
DEFAULT_255_1_388
10
9.5572956
20
31.1390114
40
0.3055179
50
85.3587643
51
90.1624243
0
ARC
8
DEFAULT_255_1_388
10
9.5668021
20
31.2519458
40
0.1921848
50
78.4019195
51
85.4592653
0
ARC
8
DEFAULT_255_1_388
10
9.5831082
20
31.3297142
40
0.1127267
50
67.7849217
51
78.573798
0
ARC
8
DEFAULT_255_1_388
10
9.5952717
20
31.3612374
40
0.0789473
50
63.4805074
51
67.3074739
0
LINE
8
DEFAULT_255_1_388
10
9.7244925
20
30.9105214
11
9.7244925
21
30.9412426
0
LINE
8
DEFAULT_255_1_388
10
10.5539647
20
30.9593139
11
10.5539647
21
30.8897395
0
LINE
8
DEFAULT_255_1_388
10
10.5539647
20
30.8897395
11
9.891652
21
30.8897395
0
LINE
8
DEFAULT_255_1_388
10
10.439212
20
30.6990874
11
10.5413148
21
30.6195737
0
LINE
8
DEFAULT_255_1_388
10
9.8970733
20
31.0270813
11
10.3868053
21
31.0270813
0
LINE
8
DEFAULT_255_1_388
10
10.3868053
20
31.0270813
11
10.3868053
21
31.0397312
0
ARC
8
DEFAULT_255_1_388
10
10.1676686
20
30.923021
40
0.4923176
50
252.326534
51
270.5809615
0
ARC
8
DEFAULT_255_1_388
10
10.1446151
20
30.839694
40
0.4059384
50
223.3000488
51
251.8562489
0
ARC
8
DEFAULT_255_1_388
10
10.1683931
20
30.8627898
40
0.4390832
50
190.9374369
51
223.3654369
0
ARC
8
DEFAULT_255_1_388
10
10.3624609
20
30.9066598
40
0.63798
50
179.6531919
51
191.4988561
0
ARC
8
DEFAULT_255_1_388
10
10.3761636
20
30.9448571
40
0.6516811
50
167.4005523
51
180.3177836
0
ARC
8
DEFAULT_255_1_388
10
10.2578307
20
30.9698853
40
0.5307402
50
154.1835149
51
167.2508278
0
ARC
8
DEFAULT_255_1_388
10
10.1867898
20
31.0072925
40
0.4505076
50
134.3150225
51
154.5315008
0
ARC
8
DEFAULT_255_1_388
10
10.1623233
20
31.028755
40
0.4180662
50
122.8617482
51
133.9707159
0
ARC
8
DEFAULT_255_1_388
10
10.150684
20
31.0537882
40
0.3907416
50
89.8248474
51
123.4199325
0
ARC
8
DEFAULT_255_1_388
10
10.1563138
20
30.9810352
40
0.4635141
50
74.7874349
51
90.5482648
0
ARC
8
DEFAULT_255_1_388
10
10.1893602
20
31.1030987
40
0.3370565
50
39.8178888
51
74.7634383
0
ARC
8
DEFAULT_255_1_388
10
10.1316844
20
31.0581356
40
0.4101553
50
16.8990848
51
39.4830125
0
ARC
8
DEFAULT_255_1_388
10
9.9185459
20
30.9898711
40
0.6339427
50
4.9634768
51
17.2027767
0
ARC
8
DEFAULT_255_1_388
10
9.6464863
20
30.96116
40
0.9074803
50
359.8834402
51
5.2832409
0
ARC
8
DEFAULT_255_1_388
10
10.3257221
20
30.8971981
40
0.4341343
50
180.9844233
51
194.9402766
0
ARC
8
DEFAULT_255_1_388
10
10.2076387
20
30.864917
40
0.3117211
50
194.8030557
51
222.0412897
0
ARC
8
DEFAULT_255_1_388
10
10.1734259
20
30.8309715
40
0.2635903
50
221.541578
51
268.8616004
0
ARC
8
DEFAULT_255_1_388
10
10.181638
20
30.907028
40
0.3398611
50
267.7321071
51
270.009808
0
ARC
8
DEFAULT_255_1_388
10
10.1836443
20
30.9297178
40
0.3625561
50
269.6921218
51
280.4122297
0
ARC
8
DEFAULT_255_1_388
10
10.2034855
20
30.8263767
40
0.2573323
50
280.2257165
51
298.633539
0
ARC
8
DEFAULT_255_1_388
10
10.2160268
20
30.7999578
40
0.2281403
50
299.0485543
51
300.4624141
0
ARC
8
DEFAULT_255_1_388
10
10.1401249
20
30.9264796
40
0.3756797
50
300.6578578
51
322.037749
0
ARC
8
DEFAULT_255_1_388
10
10.103077
20
30.9588266
40
0.4247956
50
321.671786
51
322.3059078
0
ARC
8
DEFAULT_255_1_388
10
10.2054333
20
30.8294267
40
0.3960488
50
276.9729088
51
328.0035579
0
ARC
8
DEFAULT_255_1_388
10
10.1742804
20
30.9959609
40
0.5652345
50
269.8358003
51
278.0581296
0
ARC
8
DEFAULT_255_1_388
10
10.1487103
20
31.079782
40
0.2274263
50
89.2017936
51
117.2852353
0
ARC
8
DEFAULT_255_1_388
10
10.1546853
20
31.0750637
40
0.2343798
50
118.0546404
51
137.4544511
0
ARC
8
DEFAULT_255_1_388
10
10.1968497
20
31.0367556
40
0.2913471
50
137.5109688
51
158.8516701
0
ARC
8
DEFAULT_255_1_388
10
10.3248597
20
30.9850902
40
0.4293804
50
158.5845496
51
170.1719753
0
ARC
8
DEFAULT_255_1_388
10
10.4564933
20
30.9589519
40
0.5635533
50
169.8378964
51
173.0563877
0
ARC
8
DEFAULT_255_1_388
10
9.9280217
20
31.0164187
40
0.4593755
50
2.9089079
51
12.88469
0
ARC
8
DEFAULT_255_1_388
10
10.0822136
20
31.0527082
40
0.3009753
50
12.6957404
51
28.6405841
0
ARC
8
DEFAULT_255_1_388
10
10.1431633
20
31.0842577
40
0.232366
50
29.016559
51
41.1492981
0
ARC
8
DEFAULT_255_1_388
10
10.1659612
20
31.104108
40
0.2021373
50
41.1646967
51
85.001362
0
ARC
8
DEFAULT_255_1_388
10
10.1523616
20
31.0214775
40
0.2857091
50
83.728216
51
90.0968824
0
LINE
8
DEFAULT_255_1_388
10
11.3698834
20
30.7569155
11
11.5280072
21
30.7569155
0
LINE
8
DEFAULT_255_1_388
10
10.7039564
20
30.9285927
11
10.7039564
21
30.9566032
0
LINE
8
DEFAULT_255_1_388
10
11.5280072
20
31.0903308
11
11.3698834
21
31.0903308
0
LINE
8
DEFAULT_255_1_388
10
10.8711158
20
30.9502783
11
10.8711158
21
30.9186535
0
ARC
8
DEFAULT_255_1_388
10
11.1435391
20
30.8079109
40
0.2407783
50
269.0327343
51
309.2224588
0
ARC
8
DEFAULT_255_1_388
10
11.1671395
20
30.783719
40
0.207135
50
308.3965377
51
329.6987678
0
ARC
8
DEFAULT_255_1_388
10
11.1826453
20
30.7719899
40
0.1878439
50
330.4013397
51
355.3970937
0
ARC
8
DEFAULT_255_1_388
10
11.2340437
20
30.7739312
40
0.2944555
50
329.2357424
51
356.6872018
0
ARC
8
DEFAULT_255_1_388
10
11.1722332
20
30.8066153
40
0.3643032
50
324.8702872
51
329.7911998
0
ARC
8
DEFAULT_255_1_388
10
11.1633614
20
30.8142113
40
0.3759315
50
298.8769973
51
324.7015261
0
ARC
8
DEFAULT_255_1_388
10
11.1260158
20
30.873729
40
0.4461015
50
296.902888
51
299.3854973
0
ARC
8
DEFAULT_255_1_388
10
11.1406155
20
30.8413595
40
0.4106323
50
269.8407861
51
297.1298875
0
ARC
8
DEFAULT_255_1_388
10
11.1346151
20
30.9131354
40
0.4824312
50
253.3156606
51
270.5771301
0
ARC
8
DEFAULT_255_1_388
10
11.1068329
20
30.8125943
40
0.3781531
50
221.1002518
51
252.9743523
0
ARC
8
DEFAULT_255_1_388
10
11.1585799
20
30.8570131
40
0.4463481
50
194.5394284
51
221.0302764
0
ARC
8
DEFAULT_255_1_388
10
11.366562
20
30.9149897
40
0.6622359
50
182.0498004
51
194.8774376
0
ARC
8
DEFAULT_255_1_388
10
11.565871
20
30.9282778
40
0.8619146
50
179.9790673
51
182.4586753
0
ARC
8
DEFAULT_255_1_388
10
11.3702024
20
30.9599412
40
0.6662543
50
168.615001
51
180.2870547
0
ARC
8
DEFAULT_255_1_388
10
11.2349932
20
30.9864636
40
0.5284705
50
154.9162417
51
168.5402053
0
ARC
8
DEFAULT_255_1_388
10
11.1313208
20
31.0376942
40
0.4128641
50
133.5745308
51
155.2559538
0
ARC
8
DEFAULT_255_1_388
10
11.1130051
20
31.0533116
40
0.3889328
50
122.0165845
51
133.2056002
0
ARC
8
DEFAULT_255_1_388
10
11.1170375
20
31.0433977
40
0.3994808
50
97.8732516
51
121.753124
0
ARC
8
DEFAULT_255_1_388
10
11.1371833
20
30.924459
40
0.5200708
50
89.8471322
51
98.2768545
0
ARC
8
DEFAULT_255_1_388
10
11.1426681
20
30.9930809
40
0.4514657
50
73.3760755
51
90.5199878
0
ARC
8
DEFAULT_255_1_388
10
11.1647597
20
31.074355
40
0.3672743
50
47.7085939
51
73.0510707
0
ARC
8
DEFAULT_255_1_388
10
11.17937
20
31.0870231
40
0.3480795
50
3.7442743
51
48.0844373
0
ARC
8
DEFAULT_255_1_388
10
11.0681694
20
31.0692946
40
0.4603187
50
2.6192831
51
5.0424684
0
ARC
8
DEFAULT_255_1_388
10
11.1197165
20
31.0737986
40
0.2507126
50
3.78087
51
23.9354314
0
ARC
8
DEFAULT_255_1_388
10
11.1454424
20
31.0828644
40
0.2235311
50
24.4867863
51
46.9439952
0
ARC
8
DEFAULT_255_1_388
10
11.145537
20
31.0854874
40
0.2215567
50
46.4987715
51
89.3298168
0
ARC
8
DEFAULT_255_1_388
10
11.1386029
20
31.0188742
40
0.2883121
50
88.1066411
51
90.0063536
0
ARC
8
DEFAULT_255_1_388
10
11.1355005
20
31.0246548
40
0.2825481
50
89.3773571
51
107.2070287
0
ARC
8
DEFAULT_255_1_388
10
11.1194273
20
31.0828667
40
0.2221946
50
107.688418
51
143.3582986
0
ARC
8
DEFAULT_255_1_388
10
11.1832567
20
31.0349064
40
0.3020337
50
143.2845866
51
162.9352432
0
ARC
8
DEFAULT_255_1_388
10
11.3526583
20
30.9805401
40
0.4799362
50
162.6652705
51
174.0802646
0
ARC
8
DEFAULT_255_1_388
10
11.5937064
20
30.9525287
40
0.7225942
50
173.8422673
51
180.1784414
0
ARC
8
DEFAULT_255_1_388
10
11.5320735
20
30.9152276
40
0.6609665
50
179.7030218
51
188.2277356
0
ARC
8
DEFAULT_255_1_388
10
11.2956342
20
30.8798143
40
0.4218948
50
188.0630838
51
201.115837
0
ARC
8
DEFAULT_255_1_388
10
11.1721227
20
30.832673
40
0.2896941
50
201.2186162
51
216.9761863
0
ARC
8
DEFAULT_255_1_388
10
11.1213384
20
30.7946225
40
0.2262366
50
217.0136373
51
265.2055518
0
ARC
8
DEFAULT_255_1_388
10
11.1388721
20
30.8983503
40
0.3311837
50
263.6824874
51
270.1042034
0
LINE
8
DEFAULT_255_1_388
10
11.7755838
20
31.6631906
11
11.9427433
21
31.6631906
0
LINE
8
DEFAULT_255_1_388
10
11.9427433
20
31.6631906
11
11.9427433
21
31.4264567
0
LINE
8
DEFAULT_255_1_388
10
11.9427433
20
31.4264567
11
12.1252633
21
31.4264567
0
LINE
8
DEFAULT_255_1_388
10
12.1252633
20
31.4264567
11
12.1252633
21
31.297247
0
LINE
8
DEFAULT_255_1_388
10
12.1252633
20
31.297247
11
11.9427433
21
31.297247
0
LINE
8
DEFAULT_255_1_388
10
11.9427433
20
31.297247
11
11.9427433
21
30.6909553
0
LINE
8
DEFAULT_255_1_388
10
12.1297811
20
30.5843347
11
12.1297811
21
30.4488
0
LINE
8
DEFAULT_255_1_388
10
11.7755838
20
30.6909553
11
11.7755838
21
31.297247
0
LINE
8
DEFAULT_255_1_388
10
11.7755838
20
31.297247
11
11.5975816
21
31.297247
0
LINE
8
DEFAULT_255_1_388
10
11.5975816
20
31.297247
11
11.5975816
21
31.4264567
0
LINE
8
DEFAULT_255_1_388
10
11.5975816
20
31.4264567
11
11.7755838
21
31.4264567
0
LINE
8
DEFAULT_255_1_388
10
11.7755838
20
31.4264567
11
11.7755838
21
31.6631906
0
ARC
8
DEFAULT_255_1_388
10
12.168594
20
30.6897842
40
0.2258538
50
179.7029045
51
187.9180047
0
ARC
8
DEFAULT_255_1_388
10
12.0846514
20
30.6777019
40
0.1410477
50
187.7540838
51
200.2454047
0
ARC
8
DEFAULT_255_1_388
10
12.037342
20
30.6600591
40
0.0905561
50
200.1304287
51
219.1733455
0
ARC
8
DEFAULT_255_1_388
10
12.0220586
20
30.6496695
40
0.0721626
50
220.4434631
51
249.6169985
0
ARC
8
DEFAULT_255_1_388
10
12.0394813
20
30.6934919
40
0.1193141
50
249.1038184
51
262.7745376
0
ARC
8
DEFAULT_255_1_388
10
12.0493995
20
30.7642481
40
0.1907583
50
262.4921618
51
270.2607019
0
ARC
8
DEFAULT_255_1_388
10
12.0491077
20
30.7884817
40
0.2149929
50
270.309081
51
275.6615459
0
ARC
8
DEFAULT_255_1_388
10
12.0330484
20
30.9573342
40
0.3846066
50
275.5607354
51
279.087751
0
ARC
8
DEFAULT_255_1_388
10
11.9958416
20
31.1934428
40
0.6236283
50
279.0369545
51
281.5000133
0
ARC
8
DEFAULT_255_1_388
10
11.9567684
20
31.3911499
40
0.825157
50
281.4217093
51
282.1031556
0
ARC
8
DEFAULT_255_1_388
10
11.994366
20
30.9368229
40
0.5064619
50
275.2597791
51
285.5081125
0
ARC
8
DEFAULT_255_1_388
10
12.0012674
20
30.8742452
40
0.4435166
50
270.0268175
51
275.1130565
0
ARC
8
DEFAULT_255_1_388
10
11.9990125
20
30.7249367
40
0.2942182
50
257.3572424
51
270.4795428
0
ARC
8
DEFAULT_255_1_388
10
11.9750395
20
30.6238952
40
0.1903838
50
230.8036715
51
257.7414447
0
ARC
8
DEFAULT_255_1_388
10
11.9673891
20
30.6115723
40
0.1760087
50
219.9745381
51
230.1985446
0
ARC
8
DEFAULT_255_1_388
10
12.0047179
20
30.6401116
40
0.2229598
50
196.5081334
51
219.4319996
0
ARC
8
DEFAULT_255_1_388
10
12.118979
20
30.6759617
40
0.3427033
50
184.6408645
51
196.8266009
0
ARC
8
DEFAULT_255_1_388
10
12.2590696
20
30.690101
40
0.4834863
50
179.8987586
51
184.9677262
0
LINE
8
DEFAULT_255_1_388
10
12.5210245
20
31.7643898
11
12.5210245
21
30.5906596
0
LINE
8
DEFAULT_255_1_388
10
12.5210245
20
30.5906596
11
13.144484
21
30.5906596
0
LINE
8
DEFAULT_255_1_388
10
13.144484
20
30.5906596
11
13.144484
21
30.4488
0
LINE
8
DEFAULT_255_1_388
10
13.144484
20
30.4488
11
12.3466366
21
30.4488
0
LINE
8
DEFAULT_255_1_388
10
12.3466366
20
30.4488
11
12.3466366
21
31.7643898
0
LINE
8
DEFAULT_255_1_388
10
12.3466366
20
31.7643898
11
12.5210245
21
31.7643898
0
LINE
8
DEFAULT_255_1_388
10
14.2956251
20
31.1472553
11
14.2956251
21
31.0641274
0
LINE
8
DEFAULT_255_1_388
10
13.2375511
20
31.0523811
11
13.2375511
21
31.1472553
0
LINE
8
DEFAULT_255_1_388
10
14.1230443
20
31.0514775
11
14.1230443
21
31.1490625
0
LINE
8
DEFAULT_255_1_388
10
13.4101319
20
31.1608088
11
13.4101319
21
31.0641274
0
ARC
8
DEFAULT_255_1_388
10
13.3233989
20
31.0596726
40
0.9722364
50
350.4878118
51
0.2625322
0
ARC
8
DEFAULT_255_1_388
10
13.5813949
20
31.0152994
40
0.7104556
50
336.0277991
51
350.5787241
0
ARC
8
DEFAULT_255_1_388
10
13.7327056
20
30.9469243
40
0.544417
50
319.887443
51
336.1331163
0
ARC
8
DEFAULT_255_1_388
10
13.8004868
20
30.8926733
40
0.4576311
50
302.4806296
51
319.6144102
0
ARC
8
DEFAULT_255_1_388
10
13.787549
20
30.9176067
40
0.4856183
50
275.8196423
51
302.1885521
0
ARC
8
DEFAULT_255_1_388
10
13.7688351
20
31.0461466
40
0.6154183
50
269.9169897
51
276.339506
0
ARC
8
DEFAULT_255_1_388
10
13.7637952
20
30.968968
40
0.5382553
50
252.5221437
51
270.441579
0
ARC
8
DEFAULT_255_1_388
10
13.7476202
20
30.9083046
40
0.4755426
50
237.5349961
51
252.1858334
0
ARC
8
DEFAULT_255_1_388
10
13.7576578
20
30.921112
40
0.4917393
50
209.0632754
51
237.3492577
0
ARC
8
DEFAULT_255_1_388
10
13.8555904
20
30.9826104
40
0.6072464
50
205.118533
51
209.6465345
0
ARC
8
DEFAULT_255_1_388
10
13.9451906
20
31.0206174
40
0.7045164
50
188.7216633
51
204.8239753
0
ARC
8
DEFAULT_255_1_388
10
14.1698682
20
31.0584387
40
0.9323368
50
180.3722704
51
188.9253909
0
ARC
8
DEFAULT_255_1_388
10
14.1668243
20
31.1517416
40
0.929284
50
169.5253055
51
180.2766048
0
ARC
8
DEFAULT_255_1_388
10
13.9528042
20
31.1911024
40
0.7116745
50
155.8314601
51
169.5088611
0
ARC
8
DEFAULT_255_1_388
10
13.8087505
20
31.2579312
40
0.5528904
50
139.6259579
51
156.0379072
0
ARC
8
DEFAULT_255_1_388
10
13.7424039
20
31.3113143
40
0.4677708
50
122.6414784
51
139.3431662
0
ARC
8
DEFAULT_255_1_388
10
13.7537294
20
31.2906787
40
0.4912586
50
93.0224537
51
122.4556091
0
ARC
8
DEFAULT_255_1_388
10
13.7658815
20
31.1820776
40
0.6003837
50
89.9756766
51
93.6340839
0
ARC
8
DEFAULT_255_1_388
10
13.7702412
20
31.2269879
40
0.5554884
50
73.7463329
51
90.4234008
0
ARC
8
DEFAULT_255_1_388
10
13.7899885
20
31.3034772
40
0.4765353
50
57.663051
51
73.4516911
0
ARC
8
DEFAULT_255_1_388
10
13.7890923
20
31.3059108
40
0.4749629
50
29.1441355
51
57.4146687
0
ARC
8
DEFAULT_255_1_388
10
13.6838734
20
31.2402046
40
0.5988917
50
24.0985653
51
29.732054
0
ARC
8
DEFAULT_255_1_388
10
13.5676366
20
31.1920154
40
0.7246823
50
8.6654943
51
23.8241215
0
ARC
8
DEFAULT_255_1_388
10
13.3162785
20
31.1510037
40
0.9793537
50
359.7807044
51
8.8218476
0
ARC
8
DEFAULT_255_1_388
10
13.1872489
20
31.1538731
40
0.9358078
50
359.7054632
51
8.0359751
0
ARC
8
DEFAULT_255_1_388
10
13.524754
20
31.2030252
40
0.5947474
50
7.8926278
51
20.2962188
0
ARC
8
DEFAULT_255_1_388
10
13.7078391
20
31.2705367
40
0.3996117
50
20.3231056
51
36.4990255
0
ARC
8
DEFAULT_255_1_388
10
13.7849688
20
31.3299399
40
0.3022818
50
36.1436715
51
85.6627846
0
ARC
8
DEFAULT_255_1_388
10
13.7666943
20
31.2129881
40
0.4203853
50
84.3845912
51
90.076054
0
ARC
8
DEFAULT_255_1_388
10
13.7619298
20
31.2872416
40
0.346157
50
89.3037228
51
109.9046209
0
ARC
8
DEFAULT_255_1_388
10
13.7515131
20
31.3302379
40
0.3022217
50
110.8229774
51
143.917961
0
ARC
8
DEFAULT_255_1_388
10
13.8565491
20
31.2500455
40
0.434348
50
143.5289166
51
163.2980252
0
ARC
8
DEFAULT_255_1_388
10
14.0711778
20
31.1825685
40
0.659321
50
163.0418884
51
174.3139873
0
ARC
8
DEFAULT_255_1_388
10
14.3416742
20
31.1513378
40
0.9315905
50
174.050934
51
179.4174954
0
ARC
8
DEFAULT_255_1_388
10
14.2848686
20
31.0594382
40
0.8747493
50
179.6928582
51
188.7908948
0
ARC
8
DEFAULT_255_1_388
10
13.9852486
20
31.0115086
40
0.5713262
50
188.6328449
51
202.5630732
0
ARC
8
DEFAULT_255_1_388
10
13.8441323
20
30.9548142
40
0.4192612
50
202.8078931
51
216.1195888
0
ARC
8
DEFAULT_255_1_388
10
13.753084
20
30.8815479
40
0.3025752
50
215.0755613
51
264.6379773
0
ARC
8
DEFAULT_255_1_388
10
13.7673678
20
30.9750376
40
0.3970284
50
263.8464302
51
270.0830805
0
ARC
8
DEFAULT_255_1_388
10
13.7720222
20
30.9459808
40
0.3679937
50
269.3649295
51
287.5149684
0
ARC
8
DEFAULT_255_1_388
10
13.7920663
20
30.8731714
40
0.2925408
50
288.0629019
51
323.8115617
0
ARC
8
DEFAULT_255_1_388
10
13.6940639
20
30.9462754
40
0.4148018
50
323.6546541
51
342.6591359
0
ARC
8
DEFAULT_255_1_388
10
13.4655297
20
31.020628
40
0.6551163
50
342.4092446
51
353.6451501
0
ARC
8
DEFAULT_255_1_388
10
13.1470091
20
31.0602565
40
0.9760748
50
353.4027553
51
359.4846611
0
LINE
8
DEFAULT_255_1_388
10
15.5271834
20
31.1038842
11
15.5271834
21
30.6213808
0
LINE
8
DEFAULT_255_1_388
10
14.5133841
20
31.0433454
11
14.5133841
21
31.1580981
0
LINE
8
DEFAULT_255_1_388
10
15.5271834
20
31.3785678
11
15.3536991
21
31.3785678
0
LINE
8
DEFAULT_255_1_388
10
14.6877721
20
31.1626159
11
14.6877721
21
31.0550917
0
LINE
8
DEFAULT_255_1_388
10
15.3546026
20
30.6674626
11
15.3546026
21
30.9629282
0
LINE
8
DEFAULT_255_1_388
10
15.3546026
20
30.9629282
11
15.0501014
21
30.9629282
0
LINE
8
DEFAULT_255_1_388
10
15.0501014
20
30.9629282
11
15.0501014
21
31.1038842
0
LINE
8
DEFAULT_255_1_388
10
15.0501014
20
31.1038842
11
15.5271834
21
31.1038842
0
ARC
8
DEFAULT_255_1_388
10
15.2086435
20
30.8456284
40
0.3895571
50
295.8437277
51
324.8549962
0
ARC
8
DEFAULT_255_1_388
10
15.1618817
20
30.9302619
40
0.4861381
50
291.5691164
51
296.4556269
0
ARC
8
DEFAULT_255_1_388
10
15.104382
20
31.0838801
40
0.6501442
50
278.6622213
51
291.3047061
0
ARC
8
DEFAULT_255_1_388
10
15.0661852
20
31.3255557
40
0.8948168
50
270.0200506
51
278.7494673
0
ARC
8
DEFAULT_255_1_388
10
15.0618056
20
31.5101453
40
1.0794166
50
270.0022372
51
270.2490917
0
ARC
8
DEFAULT_255_1_388
10
15.0575948
20
31.0142827
40
0.5835695
50
253.5785313
51
270.4175629
0
ARC
8
DEFAULT_255_1_388
10
15.0380944
20
30.9387625
40
0.5056241
50
238.8203954
51
253.2788387
0
ARC
8
DEFAULT_255_1_388
10
15.035886
20
30.9330224
40
0.4995712
50
206.7883476
51
238.696262
0
ARC
8
DEFAULT_255_1_388
10
15.1234256
20
30.9854847
40
0.6014056
50
206.1137778
51
207.4912776
0
ARC
8
DEFAULT_255_1_388
10
15.1901092
20
31.0138284
40
0.6737692
50
188.6922336
51
205.782076
0
ARC
8
DEFAULT_255_1_388
10
15.3989451
20
31.0493455
40
0.8855812
50
180.3881972
51
188.9218085
0
ARC
8
DEFAULT_255_1_388
10
15.5370608
20
31.1644622
40
1.0236965
50
170.2024645
51
180.3561986
0
ARC
8
DEFAULT_255_1_388
10
15.1811759
20
31.2281101
40
0.6621746
50
154.2856519
51
170.3893388
0
ARC
8
DEFAULT_255_1_388
10
15.0369722
20
31.2941192
40
0.5036209
50
139.8400879
51
153.9334639
0
ARC
8
DEFAULT_255_1_388
10
14.9965626
20
31.3264716
40
0.4518751
50
98.4190017
51
139.6707015
0
ARC
8
DEFAULT_255_1_388
10
15.0392593
20
31.1188755
40
0.6635912
50
89.7660128
51
99.4415389
0
ARC
8
DEFAULT_255_1_388
10
15.046599
20
31.1262517
40
0.6562258
50
78.0552044
51
90.4042252
0
ARC
8
DEFAULT_255_1_388
10
15.0921053
20
31.3308661
40
0.4466287
50
54.6380186
51
78.3338577
0
ARC
8
DEFAULT_255_1_388
10
15.1135352
20
31.3669444
40
0.4048184
50
50.0313964
51
54.1562739
0
ARC
8
DEFAULT_255_1_388
10
15.1014246
20
31.3560798
40
0.4209308
50
18.1092229
51
49.7179911
0
ARC
8
DEFAULT_255_1_388
10
14.9375326
20
31.2960399
40
0.5953982
50
7.967396
51
18.698492
0
ARC
8
DEFAULT_255_1_388
10
14.9544587
20
31.3099236
40
0.4050986
50
9.7558763
51
27.3214087
0
ARC
8
DEFAULT_255_1_388
10
15.0813051
20
31.3733087
40
0.2633168
50
27.736147
51
84.5257861
0
ARC
8
DEFAULT_255_1_388
10
15.0444461
20
31.1883988
40
0.4513019
50
82.1064239
51
90.1997295
0
ARC
8
DEFAULT_255_1_388
10
15.0388477
20
31.2455501
40
0.3941684
50
89.4148952
51
105.5824837
0
ARC
8
DEFAULT_255_1_388
10
15.0099358
20
31.3508043
40
0.2850167
50
105.6678541
51
144.2649156
0
ARC
8
DEFAULT_255_1_388
10
15.110425
20
31.2793024
40
0.4083468
50
144.3560675
51
162.8564185
0
ARC
8
DEFAULT_255_1_388
10
15.3448693
20
31.2040083
40
0.6545749
50
162.6076338
51
173.6779811
0
ARC
8
DEFAULT_255_1_388
10
15.6892808
20
31.1621422
40
1.0015089
50
173.4670996
51
179.9729015
0
ARC
8
DEFAULT_255_1_388
10
15.4745679
20
31.0503636
40
0.78681
50
179.6556955
51
190.007958
0
ARC
8
DEFAULT_255_1_388
10
15.213996
20
31.002566
40
0.5218997
50
189.8117884
51
206.6795375
0
ARC
8
DEFAULT_255_1_388
10
15.1189406
20
30.9582514
40
0.4170788
50
207.1031171
51
217.7074698
0
ARC
8
DEFAULT_255_1_388
10
15.0475837
20
30.8961596
40
0.3226945
50
216.7345117
51
265.6812141
0
ARC
8
DEFAULT_255_1_388
10
15.0622979
20
30.997903
40
0.4253149
50
264.7367524
51
270.0610826
0
ARC
8
DEFAULT_255_1_388
10
15.0649164
20
31.3174173
40
0.7448321
50
269.8334494
51
276.0538364
0
ARC
8
DEFAULT_255_1_388
10
15.0882027
20
31.1034924
40
0.5296446
50
275.9894423
51
284.4615914
0
ARC
8
DEFAULT_255_1_388
10
15.110354
20
31.010257
40
0.4338353
50
284.7038488
51
286.4938196
0
ARC
8
DEFAULT_255_1_388
10
15.1562689
20
30.8623371
40
0.2789738
50
286.0770429
51
304.2629628
0
ARC
8
DEFAULT_255_1_388
10
15.1712847
20
30.837768
40
0.2502188
50
304.5886247
51
317.1074126
0
LINE
8
DEFAULT_255_1_388
10
16.0024583
20
31.7643898
11
16.0024583
21
30.4488
0
LINE
8
DEFAULT_255_1_388
10
16.0024583
20
30.4488
11
15.828974
21
30.4488
0
LINE
8
DEFAULT_255_1_388
10
15.828974
20
30.4488
11
15.828974
21
31.7643898
0
LINE
8
DEFAULT_255_1_388
10
15.828974
20
31.7643898
11
16.0024583
21
31.7643898
0
LINE
8
DEFAULT_255_1_388
10
17.1129391
20
30.8662468
11
17.287327
21
30.8662468
0
LINE
8
DEFAULT_255_1_388
10
16.2744313
20
31.0451525
11
16.2744313
21
31.1716516
0
LINE
8
DEFAULT_255_1_388
10
17.287327
20
31.3415217
11
17.1129391
21
31.3415217
0
LINE
8
DEFAULT_255_1_388
10
16.4488192
20
31.1671337
11
16.4488192
21
31.0397312
0
ARC
8
DEFAULT_255_1_388
10
16.6707504
20
30.9334329
40
0.6202263
50
340.1774904
51
353.7812217
0
ARC
8
DEFAULT_255_1_388
10
16.8475357
20
30.8675893
40
0.4315926
50
311.4560052
51
340.4420756
0
ARC
8
DEFAULT_255_1_388
10
16.8437897
20
30.8800665
40
0.4434573
50
282.4332229
51
310.7514507
0
ARC
8
DEFAULT_255_1_388
10
16.7943714
20
31.0842703
40
0.6535262
50
269.9358869
51
282.8096729
0
ARC
8
DEFAULT_255_1_388
10
16.7885654
20
31.2355329
40
0.8048043
50
269.9995752
51
270.3612856
0
ARC
8
DEFAULT_255_1_388
10
16.7826144
20
30.9556781
40
0.5249831
50
250.7885263
51
270.6488451
0
ARC
8
DEFAULT_255_1_388
10
16.7636969
20
30.8839853
40
0.4510942
50
219.3628377
51
250.0611024
0
ARC
8
DEFAULT_255_1_388
10
16.8569843
20
30.9632653
40
0.5735046
50
193.5480293
51
219.5755675
0
ARC
8
DEFAULT_255_1_388
10
17.1238052
20
31.032552
40
0.849146
50
181.1220183
51
193.8754971
0
ARC
8
DEFAULT_255_1_388
10
17.3561285
20
31.0449914
40
1.0816971
50
179.9914644
51
181.5398227
0
ARC
8
DEFAULT_255_1_388
10
17.1484595
20
31.1758586
40
0.8740384
50
169.5837606
51
180.275782
0
ARC
8
DEFAULT_255_1_388
10
16.9417944
20
31.2140439
40
0.6638751
50
155.0367033
51
169.6002779
0
ARC
8
DEFAULT_255_1_388
10
16.8140402
20
31.2756336
40
0.5220662
50
136.7831557
51
155.2472983
0
ARC
8
DEFAULT_255_1_388
10
16.7702192
20
31.3128577
40
0.4646502
50
121.7633063
51
136.4281161
0
ARC
8
DEFAULT_255_1_388
10
16.7854032
20
31.2848049
40
0.4964979
50
95.6460018
51
121.5489589
0
ARC
8
DEFAULT_255_1_388
10
16.8031007
20
31.1600704
40
0.6223912
50
89.9245727
51
96.1375919
0
ARC
8
DEFAULT_255_1_388
10
16.8087712
20
31.1734721
40
0.6090084
50
76.6779212
51
90.456405
0
ARC
8
DEFAULT_255_1_388
10
16.8530525
20
31.352406
40
0.42469
50
47.4858803
51
76.9287069
0
ARC
8
DEFAULT_255_1_388
10
16.8365139
20
31.3411623
40
0.4441778
50
16.5424081
51
46.8934505
0
ARC
8
DEFAULT_255_1_388
10
16.6556188
20
31.2817265
40
0.6345318
50
5.4072971
51
17.0363711
0
ARC
8
DEFAULT_255_1_388
10
16.4937914
20
31.2557304
40
0.6250632
50
7.8888693
51
15.9242022
0
ARC
8
DEFAULT_255_1_388
10
16.7172899
20
31.3206309
40
0.3923364
50
15.7650676
51
27.9410069
0
ARC
8
DEFAULT_255_1_388
10
16.8415068
20
31.3871317
40
0.2514401
50
27.8167196
51
46.4007942
0
ARC
8
DEFAULT_255_1_388
10
16.847091
20
31.3864882
40
0.2480958
50
47.4372362
51
75.0695672
0
ARC
8
DEFAULT_255_1_388
10
16.8123746
20
31.2656277
40
0.3738281
50
74.7009379
51
87.8124314
0
ARC
8
DEFAULT_255_1_388
10
16.8041363
20
31.1472659
40
0.4924321
50
87.3802571
51
90.0251599
0
ARC
8
DEFAULT_255_1_388
10
16.799801
20
31.2792997
40
0.3604218
50
89.3451886
51
108.5744412
0
ARC
8
DEFAULT_255_1_388
10
16.7844002
20
31.3370836
40
0.3007661
50
109.2998307
51
143.3037387
0
ARC
8
DEFAULT_255_1_388
10
16.8701292
20
31.2711584
40
0.4089031
50
143.075267
51
163.1918576
0
ARC
8
DEFAULT_255_1_388
10
17.0897126
20
31.2018652
40
0.6391492
50
162.9375929
51
174.6208776
0
ARC
8
DEFAULT_255_1_388
10
17.3851508
20
31.1694711
40
0.9363344
50
174.342123
51
180.1430283
0
ARC
8
DEFAULT_255_1_388
10
17.2804049
20
31.0351117
40
0.8315986
50
179.6817261
51
189.150555
0
ARC
8
DEFAULT_255_1_388
10
16.9990798
20
30.9882559
40
0.5464044
50
188.9911061
51
203.5772363
0
ARC
8
DEFAULT_255_1_388
10
16.877609
20
30.9378539
40
0.4149206
50
203.9075402
51
215.1312435
0
ARC
8
DEFAULT_255_1_388
10
16.7737888
20
30.8573907
40
0.2837747
50
213.9071511
51
263.8848919
0
ARC
8
DEFAULT_255_1_388
10
16.7878881
20
30.9456519
40
0.3730641
50
263.1757928
51
270.1031044
0
ARC
8
DEFAULT_255_1_388
10
16.7914961
20
31.0859511
40
0.5133712
50
269.6722503
51
279.0606936
0
ARC
8
DEFAULT_255_1_388
10
16.8215116
20
30.904515
40
0.3294739
50
278.8749101
51
293.6349581
0
ARC
8
DEFAULT_255_1_388
10
16.857532
20
30.8199251
40
0.2375405
50
293.8553806
51
310.0518171
0
ARC
8
DEFAULT_255_1_388
10
16.8580828
20
30.8129021
40
0.2318463
50
311.0644687
51
332.0111037
0
ARC
8
DEFAULT_255_1_388
10
16.7239502
20
30.8868702
40
0.3850112
50
331.6586806
51
343.2877423
0
ARC
8
DEFAULT_255_1_388
10
16.4918967
20
30.9581806
40
0.6277712
50
343.1446576
51
351.0103568
0
ARC
8
DEFAULT_255_1_388
10
16.328629
20
30.9881873
40
0.7937327
50
350.71248
51
351.1626997
0
LINE
8
DEFAULT_255_1_388
10
18.8007975
20
30.5852382
11
18.8007975
21
30.4488
0
LINE
8
DEFAULT_255_1_388
10
18.8007975
20
30.4488
11
17.938797
21
30.4488
0
LINE
8
DEFAULT_255_1_388
10
17.938797
20
30.4488
11
17.938797
21
30.5689741
0
LINE
8
DEFAULT_255_1_388
10
17.938797
20
30.5689741
11
18.3941935
21
31.0749702
0
LINE
8
DEFAULT_255_1_388
10
18.0806566
20
31.3767607
11
17.9134972
21
31.3767607
0
LINE
8
DEFAULT_255_1_388
10
18.492682
20
30.967446
11
18.1402918
21
30.5852382
0
LINE
8
DEFAULT_255_1_388
10
18.1402918
20
30.5852382
11
18.8007975
21
30.5852382
0
ARC
8
DEFAULT_255_1_388
10
16.8765994
20
32.4169983
40
2.0258655
50
318.5132526
51
320.7829045
0
ARC
8
DEFAULT_255_1_388
10
17.4713951
20
31.9328929
40
1.2589638
50
320.7372878
51
323.9739031
0
ARC
8
DEFAULT_255_1_388
10
17.9122883
20
31.6134554
40
0.7145141
50
323.8962701
51
328.64194
0
ARC
8
DEFAULT_255_1_388
10
18.142514
20
31.4714545
40
0.4440242
50
328.8294576
51
331.7891185
0
ARC
8
DEFAULT_255_1_388
10
18.254746
20
31.4135374
40
0.3177517
50
331.4254512
51
352.9365785
0
ARC
8
DEFAULT_255_1_388
10
18.270046
20
31.410105
40
0.3021496
50
353.2257659
51
0.0166158
0
ARC
8
DEFAULT_255_1_388
10
18.2937221
20
31.4126894
40
0.2784847
50
359.486299
51
15.9343185
0
ARC
8
DEFAULT_255_1_388
10
18.3507488
20
31.4280269
40
0.2194403
50
16.1712913
51
43.5286088
0
ARC
8
DEFAULT_255_1_388
10
18.3594432
20
31.4367191
40
0.2071504
50
43.4417391
51
83.1661095
0
ARC
8
DEFAULT_255_1_388
10
18.3443593
20
31.3538316
40
0.2912888
50
82.160179
51
90.1505708
0
ARC
8
DEFAULT_255_1_388
10
18.3408075
20
31.2934279
40
0.3517025
50
89.5460741
51
102.5418361
0
ARC
8
DEFAULT_255_1_388
10
18.3134795
20
31.4093933
40
0.2325748
50
102.1738499
51
129.206123
0
ARC
8
DEFAULT_255_1_388
10
18.3046248
20
31.4233664
40
0.2161591
50
129.72865
51
135.753947
0
ARC
8
DEFAULT_255_1_388
10
18.3182731
20
31.4124728
40
0.2335433
50
136.1757367
51
166.3673339
0
ARC
8
DEFAULT_255_1_388
10
18.4315419
20
31.3821148
40
0.3507873
50
165.9090694
51
178.8684636
0
ARC
8
DEFAULT_255_1_388
10
18.529119
20
31.3768263
40
0.4484624
50
178.4391136
51
180.0083808
0
ARC
8
DEFAULT_255_1_388
10
18.3711892
20
31.3812197
40
0.4577138
50
163.2878482
51
180.5581842
0
ARC
8
DEFAULT_255_1_388
10
18.2809933
20
31.4060393
40
0.3641968
50
133.4540601
51
162.947111
0
ARC
8
DEFAULT_255_1_388
10
18.3010815
20
31.3846789
40
0.3935189
50
100.7869829
51
133.4382499
0
ARC
8
DEFAULT_255_1_388
10
18.340206
20
31.2104399
40
0.5720313
50
89.660664
51
101.3702276
0
ARC
8
DEFAULT_255_1_388
10
18.3476669
20
31.2173263
40
0.5651495
50
78.2172678
51
90.412935
0
ARC
8
DEFAULT_255_1_388
10
18.3876135
20
31.4000511
40
0.378122
50
55.9269121
51
78.4888449
0
ARC
8
DEFAULT_255_1_388
10
18.409685
20
31.4381187
40
0.3342379
50
47.929771
51
55.4049217
0
ARC
8
DEFAULT_255_1_388
10
18.421138
20
31.4497618
40
0.3179217
50
4.334829
51
48.0560205
0
ARC
8
DEFAULT_255_1_388
10
18.2979182
20
31.4306487
40
0.442341
50
359.9251713
51
5.5971671
0
ARC
8
DEFAULT_255_1_388
10
18.3461336
20
31.4369728
40
0.3941854
50
337.8914027
51
358.9967534
0
ARC
8
DEFAULT_255_1_388
10
18.0408907
20
31.5547295
40
0.7213271
50
326.9132501
51
338.3508308
0
ARC
8
DEFAULT_255_1_388
10
17.5925018
20
31.8421105
40
1.2538973
50
319.6471833
51
327.0959558
0
ARC
8
DEFAULT_255_1_388
10
17.1611677
20
32.197905
40
1.8129975
50
317.2588228
51
319.9045804
0
LINE
8
DEFAULT_255_1_388
10
19.8028504
20
31.226769
11
19.8028504
21
31.0099135
0
LINE
8
DEFAULT_255_1_388
10
18.9724747
20
30.9873244
11
18.9724747
21
31.2105048
0
LINE
8
DEFAULT_255_1_388
10
19.635691
20
30.9647353
11
19.635691
21
31.2385153
0
LINE
8
DEFAULT_255_1_388
10
19.1396341
20
31.2511652
11
19.1396341
21
30.9837102
0
ARC
8
DEFAULT_255_1_388
10
18.4250838
20
31.0044118
40
1.3777776
50
353.8440855
51
0.2287917
0
ARC
8
DEFAULT_255_1_388
10
18.9469856
20
30.9461414
40
0.852639
50
344.4934746
51
353.9763743
0
ARC
8
DEFAULT_255_1_388
10
19.2836663
20
30.8504191
40
0.5026273
50
329.2803599
51
344.7473406
0
ARC
8
DEFAULT_255_1_388
10
19.3952159
20
30.7892038
40
0.3754848
50
324.9361395
51
328.6153007
0
ARC
8
DEFAULT_255_1_388
10
19.4377808
20
30.7594586
40
0.3235566
50
280.5801797
51
324.9173226
0
ARC
8
DEFAULT_255_1_388
10
19.3926437
20
30.9474236
40
0.5167077
50
269.5979457
51
281.6732777
0
ARC
8
DEFAULT_255_1_388
10
19.3845341
20
30.9339113
40
0.5032026
50
256.6228565
51
270.5105488
0
ARC
8
DEFAULT_255_1_388
10
19.3393083
20
30.7597345
40
0.3233092
50
215.8618351
51
257.2787793
0
ARC
8
DEFAULT_255_1_388
10
19.454179
20
30.8368106
40
0.4615831
50
197.9695203
51
215.2622745
0
ARC
8
DEFAULT_255_1_388
10
19.7337466
20
30.9311641
40
0.7566307
50
187.8816486
51
198.2346584
0
ARC
8
DEFAULT_255_1_388
10
20.1790704
20
30.9954453
40
1.2065653
50
180.8977266
51
188.0054894
0
ARC
8
DEFAULT_255_1_388
10
20.4840918
20
31.00694
40
1.5117443
50
180.7434591
51
181.152202
0
ARC
8
DEFAULT_255_1_388
10
20.3165914
20
31.2159371
40
1.3441277
50
173.7674302
51
180.2315596
0
ARC
8
DEFAULT_255_1_388
10
19.8083783
20
31.2733779
40
0.8326847
50
164.3058537
51
173.9000553
0
ARC
8
DEFAULT_255_1_388
10
19.4807783
20
31.3677652
40
0.4917711
50
148.7922028
51
164.5682288
0
ARC
8
DEFAULT_255_1_388
10
19.373852
20
31.4274457
40
0.3694204
50
144.5883979
51
148.1161588
0
ARC
8
DEFAULT_255_1_388
10
19.3351266
20
31.4544667
40
0.322202
50
101.6440149
51
144.5142619
0
ARC
8
DEFAULT_255_1_388
10
19.3829458
20
31.2644337
40
0.5180451
50
89.528284
51
102.5820197
0
ARC
8
DEFAULT_255_1_388
10
19.391845
20
31.2600376
40
0.5224441
50
77.0437914
51
90.508231
0
ARC
8
DEFAULT_255_1_388
10
19.4370703
20
31.4448272
40
0.3322297
50
48.2777708
51
77.4996087
0
ARC
8
DEFAULT_255_1_388
10
19.4452443
20
31.4593557
40
0.315966
50
36.3141586
51
47.6307332
0
ARC
8
DEFAULT_255_1_388
10
19.3475165
20
31.3935159
40
0.4337313
50
18.2931065
51
35.6770203
0
ARC
8
DEFAULT_255_1_388
10
19.0614006
20
31.2953107
40
0.7362203
50
8.0246996
51
18.5605636
0
ARC
8
DEFAULT_255_1_388
10
18.5930362
20
31.2261432
40
1.2096583
50
1.127539
51
8.1718423
0
ARC
8
DEFAULT_255_1_388
10
18.2281495
20
31.2118374
40
1.5747719
50
0.5432713
51
1.38669
0
ARC
8
DEFAULT_255_1_388
10
18.4338874
20
31.2425163
40
1.2018103
50
359.8092569
51
4.9408001
0
ARC
8
DEFAULT_255_1_388
10
18.9075455
20
31.28479
40
0.7262727
50
4.8364937
51
12.2906017
0
ARC
8
DEFAULT_255_1_388
10
19.217492
20
31.3538485
40
0.4087324
50
12.0806994
51
23.8171225
0
ARC
8
DEFAULT_255_1_388
10
19.3495316
20
31.4097508
40
0.2653719
50
24.2874621
51
31.3934353
0
ARC
8
DEFAULT_255_1_388
10
19.4085752
20
31.4483822
40
0.1948607
50
30.7407708
51
82.4658033
0
ARC
8
DEFAULT_255_1_388
10
19.3883413
20
31.3490017
40
0.2961198
50
81.1057101
51
90.2187368
0
ARC
8
DEFAULT_255_1_388
10
19.3843225
20
31.3780421
40
0.2670929
50
89.380395
51
105.6763916
0
ARC
8
DEFAULT_255_1_388
10
19.3636947
20
31.453032
40
0.1893189
50
105.7980655
51
149.7387869
0
ARC
8
DEFAULT_255_1_388
10
19.4834087
20
31.3810719
40
0.3289892
50
149.4208441
51
163.628295
0
ARC
8
DEFAULT_255_1_388
10
19.7186316
20
31.3093345
40
0.5749004
50
163.3764549
51
172.141138
0
ARC
8
DEFAULT_255_1_388
10
20.0899038
20
31.2561582
40
0.9499585
50
172.0258462
51
178.0705453
0
ARC
8
DEFAULT_255_1_388
10
20.4320591
20
31.2399682
40
1.2924734
50
177.8639301
51
179.5036263
0
ARC
8
DEFAULT_255_1_388
10
20.3101609
20
30.9796151
40
1.170534
50
179.7995545
51
185.246089
0
ARC
8
DEFAULT_255_1_388
10
19.8553202
20
30.9365404
40
0.7136613
50
185.1411911
51
193.0082205
0
ARC
8
DEFAULT_255_1_388
10
19.5579463
20
30.8662441
40
0.4080987
50
192.7897338
51
205.2507384
0
ARC
8
DEFAULT_255_1_388
10
19.4401673
20
30.8136538
40
0.2791522
50
205.8001921
51
211.2545876
0
ARC
8
DEFAULT_255_1_388
10
19.3813212
20
30.7742132
40
0.2084074
50
210.3789935
51
238.4007996
0
ARC
8
DEFAULT_255_1_388
10
19.3791298
20
30.7794786
40
0.2117943
50
239.6521916
51
265.9793852
0
ARC
8
DEFAULT_255_1_388
10
19.3887147
20
30.8551358
40
0.2879689
50
265.1324455
51
270.0603288
0
ARC
8
DEFAULT_255_1_388
10
19.3919524
20
30.8186418
40
0.2514919
50
269.3314378
51
287.2180039
0
ARC
8
DEFAULT_255_1_388
10
19.4074606
20
30.7620291
40
0.1928357
50
287.7957942
51
329.0808983
0
ARC
8
DEFAULT_255_1_388
10
19.2997363
20
30.8292651
40
0.319808
50
328.6635261
51
343.3325043
0
ARC
8
DEFAULT_255_1_388
10
19.0552822
20
30.9054195
40
0.5758408
50
343.0498092
51
351.9392499
0
ARC
8
DEFAULT_255_1_388
10
18.6652144
20
30.9629205
40
0.9701202
50
351.8071632
51
357.7957897
0
ARC
8
DEFAULT_255_1_388
10
18.3017621
20
30.9817724
40
1.3340376
50
357.5870923
51
359.2682493
0
LINE
8
DEFAULT_255_1_388
10
20.2275257
20
31.0740666
11
20.0937982
21
31.1084021
0
LINE
8
DEFAULT_255_1_388
10
20.0937982
20
31.1084021
11
20.160662
21
31.7643898
0
LINE
8
DEFAULT_255_1_388
10
20.160662
20
31.7643898
11
20.834721
21
31.7643898
0
LINE
8
DEFAULT_255_1_388
10
20.834721
20
31.7643898
11
20.834721
21
31.6098803
0
LINE
8
DEFAULT_255_1_388
10
20.834721
20
31.6098803
11
20.3025216
21
31.6098803
0
LINE
8
DEFAULT_255_1_388
10
20.3025216
20
31.6098803
11
20.2627647
21
31.2511652
0
LINE
8
DEFAULT_255_1_388
10
20.0468128
20
30.7948652
11
20.2049366
21
30.7948652
0
LINE
8
DEFAULT_255_1_388
10
20.2718004
20
31.1102092
11
20.2275257
21
31.0740666
0
ARC
8
DEFAULT_255_1_388
10
20.4714261
20
30.8934241
40
0.4141476
50
93.7181681
51
120.253934
0
ARC
8
DEFAULT_255_1_388
10
20.4820313
20
30.8025284
40
0.5055616
50
89.9660471
51
94.2495185
0
ARC
8
DEFAULT_255_1_388
10
20.4866135
20
30.8688154
40
0.4392953
50
73.8045384
51
90.5585736
0
ARC
8
DEFAULT_255_1_388
10
20.5130393
20
30.965352
40
0.3392225
50
41.3071072
51
73.543002
0
ARC
8
DEFAULT_255_1_388
10
20.4662213
20
30.9250461
40
0.4009977
50
13.5075837
51
41.2174839
0
ARC
8
DEFAULT_255_1_388
10
20.281531
20
30.8766907
40
0.5918864
50
1.1330171
51
13.8830737
0
ARC
8
DEFAULT_255_1_388
10
20.1218956
20
30.8681522
40
0.7516787
50
359.9925091
51
1.5431298
0
ARC
8
DEFAULT_255_1_388
10
20.2663571
20
30.8635027
40
0.6072343
50
347.8572712
51
0.4294349
0
ARC
8
DEFAULT_255_1_388
10
20.4632706
20
30.8188898
40
0.4053482
50
323.6727442
51
348.1674594
0
ARC
8
DEFAULT_255_1_388
10
20.496367
20
30.7987175
40
0.3667495
50
316.8171818
51
323.1486802
0
ARC
8
DEFAULT_255_1_388
10
20.5032794
20
30.7945612
40
0.358869
50
281.839603
51
316.5458142
0
ARC
8
DEFAULT_255_1_388
10
20.4610081
20
30.9695363
40
0.5388223
50
269.5770964
51
282.4214641
0
ARC
8
DEFAULT_255_1_388
10
20.4530002
20
30.945493
40
0.5147801
50
256.2425863
51
270.4486481
0
ARC
8
DEFAULT_255_1_388
10
20.419353
20
30.8105124
40
0.3756708
50
228.9024379
51
256.33135
0
ARC
8
DEFAULT_255_1_388
10
20.411051
20
30.7974054
40
0.360344
50
193.7536029
51
228.5272638
0
ARC
8
DEFAULT_255_1_388
10
20.5503075
20
30.8382463
40
0.5053599
50
184.9244437
51
194.4976052
0
ARC
8
DEFAULT_255_1_388
10
20.5719716
20
30.8422722
40
0.3700839
50
187.3596909
51
198.6733728
0
ARC
8
DEFAULT_255_1_388
10
20.453896
20
30.8013373
40
0.2451195
50
198.4453795
51
217.7945479
0
ARC
8
DEFAULT_255_1_388
10
20.4206132
20
30.7777563
40
0.2043754
50
218.2887146
51
228.5613203
0
ARC
8
DEFAULT_255_1_388
10
20.4316139
20
30.7925902
40
0.2227819
50
228.9652423
51
258.1237049
0
ARC
8
DEFAULT_255_1_388
10
20.4547577
20
30.8916964
40
0.3245374
50
257.7260585
51
270.4013717
0
ARC
8
DEFAULT_255_1_388
10
20.4598075
20
30.8416255
40
0.2744726
50
269.4204315
51
286.420998
0
ARC
8
DEFAULT_255_1_388
10
20.476513
20
30.7809705
40
0.2115721
50
286.7250065
51
320.6004665
0
ARC
8
DEFAULT_255_1_388
10
20.4334046
20
30.8159527
40
0.2670878
50
320.6712228
51
344.5440474
0
ARC
8
DEFAULT_255_1_388
10
20.303276
20
30.8541394
40
0.4026927
50
344.241448
51
356.735803
0
ARC
8
DEFAULT_255_1_388
10
20.1629067
20
30.8657656
40
0.5435085
50
356.3547471
51
0.0507222
0
ARC
8
DEFAULT_255_1_388
10
20.3131332
20
30.8692812
40
0.3932934
50
359.5579289
51
12.9534322
0
ARC
8
DEFAULT_255_1_388
10
20.4318172
20
30.8980586
40
0.2711827
50
12.6489751
51
41.608121
0
ARC
8
DEFAULT_255_1_388
10
20.4577332
20
30.9200946
40
0.2371737
50
41.7851122
51
85.9892156
0
ARC
8
DEFAULT_255_1_388
10
20.4438642
20
30.8285738
40
0.3295244
50
84.6965848
51
90.0672125
0
ARC
8
DEFAULT_255_1_388
10
20.4412209
20
30.7534118
40
0.4046926
50
89.6804991
51
99.161352
0
ARC
8
DEFAULT_255_1_388
10
20.4181219
20
30.8914848
40
0.2647044
50
98.9836248
51
113.8905702
0
ARC
8
DEFAULT_255_1_388
10
20.3922894
20
30.9524118
40
0.1985386
50
114.195234
51
127.3641866
0
ARC
8
DEFAULT_255_2_778
10
13.4953021
20
34.1985533
40
2.3035416
50
339.8907409
51
346.994376
0
ARC
8
DEFAULT_255_2_778
10
14.4646357
20
33.8384276
40
1.2694939
50
328.7691853
51
340.1120733
0
ARC
8
DEFAULT_255_2_778
10
14.9922733
20
33.5117249
40
0.6489533
50
308.240385
51
329.2799976
0
ARC
8
DEFAULT_255_2_778
10
15.1335254
20
33.3428956
40
0.42897
50
290.2149747
51
307.3797345
0
ARC
8
DEFAULT_255_2_778
10
14.8550836
20
33.6055832
40
0.5085768
50
279.0582472
51
335.0254579
0
ARC
8
DEFAULT_255_2_778
10
14.4035606
20
33.8538036
40
1.0232605
50
333.100566
51
347.4967948
0
ARC
8
DEFAULT_255_2_778
10
13.9267879
20
33.9777273
40
1.515659
50
346.8251736
51
349.6433145
0
ARC
8
DEFAULT_255_2_778
10
16.7325297
20
34.2502541
40
0.6340004
50
90.2418805
51
180.4975197
0
ARC
8
DEFAULT_255_2_778
10
16.7271765
20
34.250254
40
0.6340006
50
359.5024881
51
89.7581009
0
ARC
8
DEFAULT_255_2_778
10
16.7271768
20
34.2392436
40
0.6340003
50
270.2418684
51
0.4975336
0
ARC
8
DEFAULT_255_2_778
10
16.7325299
20
34.2392437
40
0.6340005
50
179.5024805
51
269.758104
0
ARC
8
DEFAULT_255_2_778
10
17.1189581
20
34.2646235
40
0.5748535
50
158.6224664
51
180.7450103
0
ARC
8
DEFAULT_255_2_778
10
16.8143054
20
34.3916995
40
0.2449488
50
125.6968143
51
160.3264119
0
ARC
8
DEFAULT_255_2_778
10
16.7310393
20
34.4984868
40
0.1097683
50
90.6191325
51
122.9231799
0
ARC
8
DEFAULT_255_2_778
10
16.7161984
20
34.4603461
40
0.1485318
50
26.6299238
51
84.7252528
0
ARC
8
DEFAULT_255_2_778
10
16.4561415
20
34.294902
40
0.4562354
50
6.9672199
51
30.5675002
0
ARC
8
DEFAULT_255_2_778
10
16.261361
20
34.2579325
40
0.6541928
50
359.9313724
51
8.1119436
0
ARC
8
DEFAULT_255_2_778
10
16.3407903
20
34.2497075
40
0.5748111
50
338.6217917
51
0.7417631
0
ARC
8
DEFAULT_255_2_778
10
16.6452775
20
34.1226776
40
0.2450776
50
305.7107467
51
340.3279893
0
ARC
8
DEFAULT_255_2_778
10
16.7286626
20
34.0157757
40
0.1097331
50
270.6216799
51
302.9378787
0
ARC
8
DEFAULT_255_2_778
10
16.7435343
20
34.0539636
40
0.148546
50
206.6181959
51
264.7155805
0
ARC
8
DEFAULT_255_2_778
10
17.0037331
20
34.2194852
40
0.456409
50
186.9714802
51
210.5628916
0
ARC
8
DEFAULT_255_2_778
10
17.1979553
20
34.2563721
40
0.6538026
50
179.9319269
51
188.1143536
0
ARC
8
DEFAULT_255_2_778
10
14.2076298
20
34.2502541
40
0.6340005
50
90.2418914
51
180.4975151
0
ARC
8
DEFAULT_255_2_778
10
14.2022765
20
34.250254
40
0.6340006
50
359.5024881
51
89.7581009
0
ARC
8
DEFAULT_255_2_778
10
14.2022768
20
34.2392436
40
0.6340003
50
270.2418684
51
0.4975336
0
ARC
8
DEFAULT_255_2_778
10
14.2076299
20
34.2392437
40
0.6340005
50
179.5024805
51
269.758104
0
ARC
8
DEFAULT_255_2_778
10
14.5935296
20
34.2646068
40
0.5744248
50
158.6039448
51
180.7439081
0
ARC
8
DEFAULT_255_2_778
10
14.2894145
20
34.391583
40
0.2450547
50
125.6846154
51
160.3063409
0
ARC
8
DEFAULT_255_2_778
10
14.2061439
20
34.498437
40
0.1098183
50
90.6212609
51
122.9155624
0
ARC
8
DEFAULT_255_2_778
10
14.1912984
20
34.4603461
40
0.1485318
50
26.6299238
51
84.7252528
0
ARC
8
DEFAULT_255_2_778
10
13.9312415
20
34.294902
40
0.4562354
50
6.9672199
51
30.5675002
0
ARC
8
DEFAULT_255_2_778
10
13.736461
20
34.2579325
40
0.6541928
50
359.9313724
51
8.1119436
0
ARC
8
DEFAULT_255_2_778
10
13.8158903
20
34.2497075
40
0.5748111
50
338.6217917
51
0.7417631
0
ARC
8
DEFAULT_255_2_778
10
14.1203775
20
34.1226776
40
0.2450776
50
305.7107467
51
340.3279893
0
ARC
8
DEFAULT_255_2_778
10
14.2037626
20
34.0157757
40
0.1097331
50
270.6216799
51
302.9378787
0
ARC
8
DEFAULT_255_2_778
10
14.2183015
20
34.0532507
40
0.1478058
50
207.0367178
51
264.8185874
0
ARC
8
DEFAULT_255_2_778
10
14.4731143
20
34.2174943
40
0.4504617
50
187.4901111
51
210.9147812
0
ARC
8
DEFAULT_255_2_778
10
14.6699142
20
34.2562625
40
0.6507616
50
179.9219565
51
188.6157011
0
LINE
8
DEFAULT_255_2_778
10
14.8857532
20
34.8591489
11
15.3807532
21
34.8591489
0
LINE
8
DEFAULT_255_2_778
10
15.3807532
20
34.8591489
11
15.5540532
21
34.1944489
0
LINE
8
DEFAULT_255_2_778
10
15.5540532
20
34.1944489
11
15.7397532
21
34.8715489
0
LINE
8
DEFAULT_255_2_778
10
15.7397532
20
34.8715489
11
16.0369532
21
34.7837489
0
LINE
8
DEFAULT_255_2_778
10
16.0369532
20
34.7837489
11
15.7397532
21
33.6801489
0
LINE
8
DEFAULT_255_2_778
10
15.2817532
20
32.9403489
11
14.9351532
21
33.1033489
0
LINE
8
DEFAULT_255_2_778
10
15.4177532
20
33.7052489
11
15.2074532
21
33.7052489
0
LINE
8
DEFAULT_255_2_778
10
15.2074532
20
33.7052489
11
14.8857532
21
34.8591489
0
LINE
8
DEFAULT_255_2_778
10
16.0985532
20
34.2447489
11
16.0985532
21
34.2447489
0
LINE
8
DEFAULT_255_2_778
10
16.5441532
20
34.2571489
11
16.5441532
21
34.2571489
0
LINE
8
DEFAULT_255_2_778
10
13.5736532
20
34.2447489
11
13.5736532
21
34.2447489
0
LINE
8
DEFAULT_255_2_778
10
14.0191532
20
34.2571489
11
14.0191532
21
34.2571489
0
LINE
8
DEFAULT_255_2_778
10
12.0390532
20
35.5864489
11
12.5835532
21
35.5864489
0
LINE
8
DEFAULT_255_2_778
10
12.5835532
20
35.5864489
11
12.5835532
21
34.8591489
0
LINE
8
DEFAULT_255_2_778
10
12.5835532
20
34.8591489
11
13.0291532
21
35.5864489
0
LINE
8
DEFAULT_255_2_778
10
13.0291532
20
35.5864489
11
13.4995532
21
35.5864489
0
LINE
8
DEFAULT_255_2_778
10
13.4995532
20
35.5864489
11
12.9796532
21
34.7336489
0
LINE
8
DEFAULT_255_2_778
10
12.9796532
20
34.7336489
11
13.5985532
21
33.6803489
0
LINE
8
DEFAULT_255_2_778
10
13.5985532
20
33.6803489
11
13.0291532
21
33.6803489
0
LINE
8
DEFAULT_255_2_778
10
13.0291532
20
33.6803489
11
12.5586532
21
34.4828489
0
LINE
8
DEFAULT_255_2_778
10
12.5586532
20
34.4828489
11
12.5586532
21
33.6803489
0
LINE
8
DEFAULT_255_2_778
10
12.5586532
20
33.6803489
11
12.0390532
21
33.6803489
0
LINE
8
DEFAULT_255_2_778
10
12.0390532
20
33.6803489
11
12.0390532
21
35.5864489
0
LINE
8
DEFAULT_255_1_388
10
4.2427448
20
29.7799898
11
4.6168205
21
28.6948089
0
LINE
8
DEFAULT_255_1_388
10
4.6168205
20
28.6948089
11
4.9927033
21
29.7799898
0
LINE
8
DEFAULT_255_1_388
10
4.9927033
20
29.7799898
11
5.1824518
21
29.7799898
0
LINE
8
DEFAULT_255_1_388
10
5.1824518
20
29.7799898
11
4.694527
21
28.4644
0
LINE
8
DEFAULT_255_1_388
10
4.694527
20
28.4644
11
4.540921
21
28.4644
0
LINE
8
DEFAULT_255_1_388
10
4.540921
20
28.4644
11
4.0538998
21
29.7799898
0
LINE
8
DEFAULT_255_1_388
10
4.0538998
20
29.7799898
11
4.2427448
21
29.7799898
0
LINE
8
DEFAULT_255_1_388
10
5.7227833
20
28.4644
11
5.3586469
21
28.4644
0
LINE
8
DEFAULT_255_1_388
10
5.3586469
20
28.4644
11
5.3586469
21
29.7799898
0
LINE
8
DEFAULT_255_1_388
10
5.3586469
20
29.7799898
11
5.7300119
21
29.7799898
0
LINE
8
DEFAULT_255_1_388
10
6.3101002
20
29.1664696
11
6.3101002
21
29.0824381
0
LINE
8
DEFAULT_255_1_388
10
5.7345297
20
29.6372267
11
5.5321313
21
29.6372267
0
LINE
8
DEFAULT_255_1_388
10
5.5321313
20
29.6372267
11
5.5321313
21
28.6062596
0
LINE
8
DEFAULT_255_1_388
10
5.5321313
20
28.6062596
11
5.7146513
21
28.6062596
0
LINE
8
DEFAULT_255_1_388
10
6.138423
20
29.0860523
11
6.138423
21
29.1628553
0
ARC
8
DEFAULT_255_1_388
10
5.7343913
20
29.1201436
40
0.6598608
50
75.4100343
51
90.3802731
0
ARC
8
DEFAULT_255_1_388
10
5.7602159
20
29.2277691
40
0.5492049
50
60.1455157
51
75.1889627
0
ARC
8
DEFAULT_255_1_388
10
5.778075
20
29.2588914
40
0.5133226
50
26.525419
51
60.1451222
0
ARC
8
DEFAULT_255_1_388
10
5.6520537
20
29.1920642
40
0.6559324
50
7.4029944
51
26.832209
0
ARC
8
DEFAULT_255_1_388
10
5.4726934
20
29.1641229
40
0.8374103
50
0.1605597
51
7.7176135
0
ARC
8
DEFAULT_255_1_388
10
5.4911334
20
29.0781321
40
0.8189782
50
348.7289744
51
0.30125
0
ARC
8
DEFAULT_255_1_388
10
5.6774798
20
29.0411156
40
0.628991
50
333.0706936
51
348.7181455
0
ARC
8
DEFAULT_255_1_388
10
5.7862426
20
28.9820449
40
0.5052808
50
299.2531435
51
333.4571133
0
ARC
8
DEFAULT_255_1_388
10
5.7456457
20
29.0591629
40
0.5924066
50
278.1072193
51
299.0340218
0
ARC
8
DEFAULT_255_1_388
10
5.7168506
20
29.2287979
40
0.7644209
50
270.4446841
51
278.4508355
0
ARC
8
DEFAULT_255_1_388
10
5.7191989
20
29.12423
40
0.5179903
50
269.4969684
51
284.0204874
0
ARC
8
DEFAULT_255_1_388
10
5.7591708
20
28.9706415
40
0.3592968
50
283.7699076
51
318.1557121
0
ARC
8
DEFAULT_255_1_388
10
5.7212253
20
28.9990399
40
0.4065308
50
318.7417595
51
343.687252
0
ARC
8
DEFAULT_255_1_388
10
5.5182832
20
29.0624275
40
0.6191194
50
343.3324891
51
355.8548594
0
ARC
8
DEFAULT_255_1_388
10
5.2821869
20
29.0848719
40
0.856237
50
355.4988754
51
0.0789913
0
ARC
8
DEFAULT_255_1_388
10
5.3702668
20
29.167608
40
0.7681709
50
359.6455047
51
9.8607559
0
ARC
8
DEFAULT_255_1_388
10
5.6358392
20
29.2155664
40
0.498312
50
9.6573037
51
26.1931522
0
ARC
8
DEFAULT_255_1_388
10
5.7402467
20
29.2640587
40
0.3832303
50
26.5777895
51
40.1533752
0
ARC
8
DEFAULT_255_1_388
10
5.7690132
20
29.286502
40
0.3467742
50
40.3839958
51
80.1430923
0
ARC
8
DEFAULT_255_1_388
10
5.7322387
20
29.1234486
40
0.5137832
50
79.2153636
51
89.7445174
0
LINE
8
DEFAULT_255_1_388
10
7.3654635
20
28.8818468
11
7.5398515
21
28.8818468
0
LINE
8
DEFAULT_255_1_388
10
6.5269557
20
29.0607525
11
6.5269557
21
29.1872516
0
LINE
8
DEFAULT_255_1_388
10
7.5398515
20
29.3571217
11
7.3654635
21
29.3571217
0
LINE
8
DEFAULT_255_1_388
10
6.7013437
20
29.1827337
11
6.7013437
21
29.0553312
0
ARC
8
DEFAULT_255_1_388
10
6.9232749
20
28.9490329
40
0.6202263
50
340.1774904
51
353.7812217
0
ARC
8
DEFAULT_255_1_388
10
7.1000601
20
28.8831893
40
0.4315926
50
311.4560052
51
340.4420756
0
ARC
8
DEFAULT_255_1_388
10
7.0963141
20
28.8956665
40
0.4434573
50
282.4332229
51
310.7514507
0
ARC
8
DEFAULT_255_1_388
10
7.0468959
20
29.0998703
40
0.6535262
50
269.9358869
51
282.8096729
0
ARC
8
DEFAULT_255_1_388
10
7.0410899
20
29.2511329
40
0.8048043
50
269.9995752
51
270.3612856
0
ARC
8
DEFAULT_255_1_388
10
7.0351389
20
28.9712781
40
0.5249831
50
250.7885263
51
270.6488451
0
ARC
8
DEFAULT_255_1_388
10
7.0162213
20
28.8995853
40
0.4510942
50
219.3628377
51
250.0611024
0
ARC
8
DEFAULT_255_1_388
10
7.1095087
20
28.9788653
40
0.5735046
50
193.5480293
51
219.5755675
0
ARC
8
DEFAULT_255_1_388
10
7.3763296
20
29.048152
40
0.849146
50
181.1220183
51
193.8754971
0
ARC
8
DEFAULT_255_1_388
10
7.608653
20
29.0605914
40
1.0816971
50
179.9914644
51
181.5398227
0
ARC
8
DEFAULT_255_1_388
10
7.400984
20
29.1914586
40
0.8740384
50
169.5837606
51
180.275782
0
ARC
8
DEFAULT_255_1_388
10
7.1943188
20
29.2296439
40
0.6638751
50
155.0367033
51
169.6002779
0
ARC
8
DEFAULT_255_1_388
10
7.0665647
20
29.2912336
40
0.5220662
50
136.7831557
51
155.2472983
0
ARC
8
DEFAULT_255_1_388
10
7.0227437
20
29.3284577
40
0.4646502
50
121.7633063
51
136.4281161
0
ARC
8
DEFAULT_255_1_388
10
7.0379277
20
29.3004049
40
0.4964979
50
95.6460018
51
121.5489589
0
ARC
8
DEFAULT_255_1_388
10
7.0556251
20
29.1756704
40
0.6223912
50
89.9245727
51
96.1375919
0
ARC
8
DEFAULT_255_1_388
10
7.0612957
20
29.1890721
40
0.6090084
50
76.6779212
51
90.456405
0
ARC
8
DEFAULT_255_1_388
10
7.1055769
20
29.368006
40
0.42469
50
47.4858803
51
76.9287069
0
ARC
8
DEFAULT_255_1_388
10
7.0890383
20
29.3567623
40
0.4441778
50
16.5424081
51
46.8934505
0
ARC
8
DEFAULT_255_1_388
10
6.9081433
20
29.2973265
40
0.6345318
50
5.4072971
51
17.0363711
0
ARC
8
DEFAULT_255_1_388
10
6.7463158
20
29.2713304
40
0.6250632
50
7.8888693
51
15.9242022
0
ARC
8
DEFAULT_255_1_388
10
6.9698143
20
29.3362309
40
0.3923364
50
15.7650676
51
27.9410069
0
ARC
8
DEFAULT_255_1_388
10
7.0940313
20
29.4027317
40
0.2514401
50
27.8167196
51
46.4007942
0
ARC
8
DEFAULT_255_1_388
10
7.0996154
20
29.4020882
40
0.2480958
50
47.4372362
51
75.0695672
0
ARC
8
DEFAULT_255_1_388
10
7.064899
20
29.2812277
40
0.3738281
50
74.7009379
51
87.8124314
0
ARC
8
DEFAULT_255_1_388
10
7.0566607
20
29.1628659
40
0.4924321
50
87.3802571
51
90.0251599
0
ARC
8
DEFAULT_255_1_388
10
7.0523255
20
29.2948997
40
0.3604218
50
89.3451886
51
108.5744412
0
ARC
8
DEFAULT_255_1_388
10
7.0369247
20
29.3526836
40
0.3007661
50
109.2998307
51
143.3037387
0
ARC
8
DEFAULT_255_1_388
10
7.1226536
20
29.2867584
40
0.4089031
50
143.075267
51
163.1918576
0
ARC
8
DEFAULT_255_1_388
10
7.3422371
20
29.2174652
40
0.6391492
50
162.9375929
51
174.6208776
0
ARC
8
DEFAULT_255_1_388
10
7.6376753
20
29.1850711
40
0.9363344
50
174.342123
51
180.1430283
0
ARC
8
DEFAULT_255_1_388
10
7.5329294
20
29.0507117
40
0.8315986
50
179.6817261
51
189.150555
0
ARC
8
DEFAULT_255_1_388
10
7.2516043
20
29.0038559
40
0.5464044
50
188.9911061
51
203.5772363
0
ARC
8
DEFAULT_255_1_388
10
7.1301335
20
28.9534539
40
0.4149206
50
203.9075402
51
215.1312435
0
ARC
8
DEFAULT_255_1_388
10
7.0263132
20
28.8729907
40
0.2837747
50
213.9071511
51
263.8848919
0
ARC
8
DEFAULT_255_1_388
10
7.0404126
20
28.9612519
40
0.3730641
50
263.1757928
51
270.1031044
0
ARC
8
DEFAULT_255_1_388
10
7.0440205
20
29.1015511
40
0.5133712
50
269.6722503
51
279.0606936
0
ARC
8
DEFAULT_255_1_388
10
7.0740361
20
28.920115
40
0.3294739
50
278.8749101
51
293.6349581
0
ARC
8
DEFAULT_255_1_388
10
7.1100564
20
28.8355251
40
0.2375405
50
293.8553806
51
310.0518171
0
ARC
8
DEFAULT_255_1_388
10
7.1106073
20
28.8285021
40
0.2318463
50
311.0644687
51
332.0111037
0
ARC
8
DEFAULT_255_1_388
10
6.9764746
20
28.9024702
40
0.3850112
50
331.6586806
51
343.2877423
0
ARC
8
DEFAULT_255_1_388
10
6.7444212
20
28.9737806
40
0.6277712
50
343.1446576
51
351.0103568
0
ARC
8
DEFAULT_255_1_388
10
6.5811535
20
29.0037873
40
0.7937327
50
350.71248
51
351.1626997
0
LINE
8
DEFAULT_255_1_388
10
4.4845094
20
5.1669317
11
4.1745868
21
5.1669317
0
LINE
8
DEFAULT_255_1_388
10
4.1745868
20
5.1669317
11
4.1745868
21
4.6519
0
LINE
8
DEFAULT_255_1_388
10
4.1745868
20
4.6519
11
4.0011024
21
4.6519
0
LINE
8
DEFAULT_255_1_388
10
4.0011024
20
4.6519
11
4.0011024
21
5.9674898
0
LINE
8
DEFAULT_255_1_388
10
4.0011024
20
5.9674898
11
4.4863165
21
5.9674898
0
LINE
8
DEFAULT_255_1_388
10
4.1745868
20
5.8247267
11
4.1745868
21
5.3087914
0
LINE
8
DEFAULT_255_1_388
10
4.1745868
20
5.3087914
11
4.4863165
21
5.3087914
0
LINE
8
DEFAULT_255_1_388
10
4.4962557
20
5.8247267
11
4.1745868
21
5.8247267
0
ARC
8
DEFAULT_255_1_388
10
4.4910538
20
5.2858334
40
0.6816729
50
78.8380084
51
90.398184
0
ARC
8
DEFAULT_255_1_388
10
4.5378569
20
5.5131796
40
0.449571
50
58.9633273
51
79.0810717
0
ARC
8
DEFAULT_255_1_388
10
4.5717953
20
5.5761823
40
0.3781049
50
48.0194715
51
58.4475592
0
ARC
8
DEFAULT_255_1_388
10
4.5817773
20
5.5857818
40
0.3642936
50
3.3374546
51
48.1766642
0
ARC
8
DEFAULT_255_1_388
10
4.443258
20
5.5658581
40
0.5038766
50
359.9483251
51
4.6822857
0
ARC
8
DEFAULT_255_1_388
10
4.4572503
20
5.5610779
40
0.4899031
50
346.1879032
51
0.5059221
0
ARC
8
DEFAULT_255_1_388
10
4.6101295
20
5.5213763
40
0.3319729
50
310.8832219
51
346.5426612
0
ARC
8
DEFAULT_255_1_388
10
4.5754143
20
5.5682853
40
0.3901853
50
286.6925305
51
310.228778
0
ARC
8
DEFAULT_255_1_388
10
4.5113873
20
5.7696585
40
0.6014737
50
274.6848219
51
287.0247342
0
ARC
8
DEFAULT_255_1_388
10
4.4860422
20
6.0181088
40
0.8511785
50
269.8968222
51
275.0192639
0
ARC
8
DEFAULT_255_1_388
10
4.4891415
20
5.7843144
40
0.4755314
50
269.6596206
51
279.4150542
0
ARC
8
DEFAULT_255_1_388
10
4.5180873
20
5.6165945
40
0.3053379
50
279.2050006
51
294.9901776
0
ARC
8
DEFAULT_255_1_388
10
4.5507508
20
5.5437353
40
0.2255036
50
295.2886769
51
311.2912669
0
ARC
8
DEFAULT_255_1_388
10
4.5587249
20
5.5318938
40
0.2113522
50
311.7853512
51
347.2860549
0
ARC
8
DEFAULT_255_1_388
10
4.448041
20
5.560343
40
0.3256011
50
346.6891629
51
0.1057086
0
ARC
8
DEFAULT_255_1_388
10
4.355787
20
5.5636247
40
0.417863
50
359.63239
51
359.9961329
0
ARC
8
DEFAULT_255_1_388
10
4.4722475
20
5.5663987
40
0.3014155
50
359.4673371
51
15.5931159
0
ARC
8
DEFAULT_255_1_388
10
4.5425538
20
5.5853937
40
0.2285918
50
15.7441779
51
46.620186
0
ARC
8
DEFAULT_255_1_388
10
4.5259298
20
5.5662361
40
0.2539359
50
46.8628482
51
75.6676625
0
ARC
8
DEFAULT_255_1_388
10
4.4928354
20
5.4471243
40
0.3775415
50
75.2763152
51
88.2916439
0
ARC
8
DEFAULT_255_1_388
10
4.4862354
20
5.3469097
40
0.4779221
50
87.8589087
51
88.7986197
0
LINE
8
DEFAULT_255_1_388
10
6.1804999
20
5.3503553
11
6.1804999
21
5.2672274
0
LINE
8
DEFAULT_255_1_388
10
5.1224259
20
5.2554811
11
5.1224259
21
5.3503553
0
LINE
8
DEFAULT_255_1_388
10
6.007919
20
5.2545775
11
6.007919
21
5.3521625
0
LINE
8
DEFAULT_255_1_388
10
5.2950067
20
5.3639088
11
5.2950067
21
5.2672274
0
ARC
8
DEFAULT_255_1_388
10
5.2082737
20
5.2627726
40
0.9722364
50
350.4878118
51
0.2625322
0
ARC
8
DEFAULT_255_1_388
10
5.4662697
20
5.2183994
40
0.7104556
50
336.0277991
51
350.5787241
0
ARC
8
DEFAULT_255_1_388
10
5.6175804
20
5.1500243
40
0.544417
50
319.887443
51
336.1331163
0
ARC
8
DEFAULT_255_1_388
10
5.6853616
20
5.0957733
40
0.4576311
50
302.4806296
51
319.6144102
0
ARC
8
DEFAULT_255_1_388
10
5.6724237
20
5.1207067
40
0.4856183
50
275.8196423
51
302.1885521
0
ARC
8
DEFAULT_255_1_388
10
5.6537098
20
5.2492466
40
0.6154183
50
269.9169897
51
276.339506
0
ARC
8
DEFAULT_255_1_388
10
5.6486699
20
5.172068
40
0.5382553
50
252.5221437
51
270.441579
0
ARC
8
DEFAULT_255_1_388
10
5.632495
20
5.1114046
40
0.4755426
50
237.5349961
51
252.1858334
0
ARC
8
DEFAULT_255_1_388
10
5.6425326
20
5.124212
40
0.4917393
50
209.0632754
51
237.3492577
0
ARC
8
DEFAULT_255_1_388
10
5.7404651
20
5.1857104
40
0.6072464
50
205.118533
51
209.6465345
0
ARC
8
DEFAULT_255_1_388
10
5.8300654
20
5.2237174
40
0.7045164
50
188.7216633
51
204.8239753
0
ARC
8
DEFAULT_255_1_388
10
6.0547429
20
5.2615387
40
0.9323368
50
180.3722704
51
188.9253909
0
ARC
8
DEFAULT_255_1_388
10
6.051699
20
5.3548416
40
0.929284
50
169.5253055
51
180.2766048
0
ARC
8
DEFAULT_255_1_388
10
5.8376789
20
5.3942024
40
0.7116745
50
155.8314601
51
169.5088611
0
ARC
8
DEFAULT_255_1_388
10
5.6936253
20
5.4610312
40
0.5528904
50
139.6259579
51
156.0379072
0
ARC
8
DEFAULT_255_1_388
10
5.6272786
20
5.5144143
40
0.4677708
50
122.6414784
51
139.3431662
0
ARC
8
DEFAULT_255_1_388
10
5.6386041
20
5.4937787
40
0.4912586
50
93.0224537
51
122.4556091
0
ARC
8
DEFAULT_255_1_388
10
5.6507562
20
5.3851776
40
0.6003837
50
89.9756766
51
93.6340839
0
ARC
8
DEFAULT_255_1_388
10
5.655116
20
5.4300879
40
0.5554884
50
73.7463329
51
90.4234008
0
ARC
8
DEFAULT_255_1_388
10
5.6748633
20
5.5065772
40
0.4765353
50
57.663051
51
73.4516911
0
ARC
8
DEFAULT_255_1_388
10
5.673967
20
5.5090108
40
0.4749629
50
29.1441355
51
57.4146687
0
ARC
8
DEFAULT_255_1_388
10
5.5687482
20
5.4433046
40
0.5988917
50
24.0985653
51
29.732054
0
ARC
8
DEFAULT_255_1_388
10
5.4525114
20
5.3951154
40
0.7246823
50
8.6654943
51
23.8241215
0
ARC
8
DEFAULT_255_1_388
10
5.2011532
20
5.3541037
40
0.9793537
50
359.7807044
51
8.8218476
0
ARC
8
DEFAULT_255_1_388
10
5.0721236
20
5.3569731
40
0.9358078
50
359.7054632
51
8.0359751
0
ARC
8
DEFAULT_255_1_388
10
5.4096288
20
5.4061252
40
0.5947474
50
7.8926278
51
20.2962188
0
ARC
8
DEFAULT_255_1_388
10
5.5927138
20
5.4736367
40
0.3996117
50
20.3231056
51
36.4990255
0
ARC
8
DEFAULT_255_1_388
10
5.6698435
20
5.5330399
40
0.3022818
50
36.1436715
51
85.6627846
0
ARC
8
DEFAULT_255_1_388
10
5.6515691
20
5.4160881
40
0.4203853
50
84.3845912
51
90.076054
0
ARC
8
DEFAULT_255_1_388
10
5.6468046
20
5.4903416
40
0.346157
50
89.3037228
51
109.9046209
0
ARC
8
DEFAULT_255_1_388
10
5.6363879
20
5.5333379
40
0.3022217
50
110.8229774
51
143.917961
0
ARC
8
DEFAULT_255_1_388
10
5.7414238
20
5.4531455
40
0.434348
50
143.5289166
51
163.2980252
0
ARC
8
DEFAULT_255_1_388
10
5.9560525
20
5.3856685
40
0.659321
50
163.0418884
51
174.3139873
0
ARC
8
DEFAULT_255_1_388
10
6.226549
20
5.3544378
40
0.9315905
50
174.050934
51
179.4174954
0
ARC
8
DEFAULT_255_1_388
10
6.1697434
20
5.2625382
40
0.8747493
50
179.6928582
51
188.7908948
0
ARC
8
DEFAULT_255_1_388
10
5.8701234
20
5.2146086
40
0.5713262
50
188.6328449
51
202.5630732
0
ARC
8
DEFAULT_255_1_388
10
5.729007
20
5.1579142
40
0.4192612
50
202.8078931
51
216.1195888
0
ARC
8
DEFAULT_255_1_388
10
5.6379587
20
5.0846479
40
0.3025752
50
215.0755613
51
264.6379773
0
ARC
8
DEFAULT_255_1_388
10
5.6522425
20
5.1781376
40
0.3970284
50
263.8464302
51
270.0830805
0
ARC
8
DEFAULT_255_1_388
10
5.656897
20
5.1490808
40
0.3679937
50
269.3649295
51
287.5149684
0
ARC
8
DEFAULT_255_1_388
10
5.676941
20
5.0762714
40
0.2925408
50
288.0629019
51
323.8115617
0
ARC
8
DEFAULT_255_1_388
10
5.5789387
20
5.1493754
40
0.4148018
50
323.6546541
51
342.6591359
0
ARC
8
DEFAULT_255_1_388
10
5.3504044
20
5.223728
40
0.6551163
50
342.4092446
51
353.6451501
0
ARC
8
DEFAULT_255_1_388
10
5.0318838
20
5.2633565
40
0.9760748
50
353.4027553
51
359.4846611
0
LINE
8
DEFAULT_255_1_388
10
7.2087562
20
4.6519
11
6.9232298
21
5.1840995
0
LINE
8
DEFAULT_255_1_388
10
6.9232298
20
5.1840995
11
6.6142108
21
5.1840995
0
LINE
8
DEFAULT_255_1_388
10
6.6142108
20
5.1840995
11
6.6142108
21
4.6519
0
LINE
8
DEFAULT_255_1_388
10
6.6142108
20
4.6519
11
6.4398229
21
4.6519
0
LINE
8
DEFAULT_255_1_388
10
6.4398229
20
4.6519
11
6.4398229
21
5.9674898
0
LINE
8
DEFAULT_255_1_388
10
6.4398229
20
5.9674898
11
6.8753409
21
5.9674898
0
LINE
8
DEFAULT_255_1_388
10
7.0858714
20
5.2211456
11
7.3948905
21
4.6627428
0
LINE
8
DEFAULT_255_1_388
10
7.3948905
20
4.6627428
11
7.3948905
21
4.6519
0
LINE
8
DEFAULT_255_1_388
10
7.3948905
20
4.6519
11
7.2087562
21
4.6519
0
LINE
8
DEFAULT_255_1_388
10
6.6142108
20
5.8247267
11
6.6142108
21
5.3259591
0
LINE
8
DEFAULT_255_1_388
10
6.6142108
20
5.3259591
11
6.8807623
21
5.3259591
0
LINE
8
DEFAULT_255_1_388
10
6.8798587
20
5.8247267
11
6.6142108
21
5.8247267
0
ARC
8
DEFAULT_255_1_388
10
6.8800255
20
5.1843346
40
0.7831693
50
80.6535681
51
90.3427203
0
ARC
8
DEFAULT_255_1_388
10
6.9272166
20
5.4613722
40
0.5021479
50
65.6987674
51
80.8330164
0
ARC
8
DEFAULT_255_1_388
10
6.9809459
20
5.5845479
40
0.3677787
50
50.0019152
51
65.4304412
0
ARC
8
DEFAULT_255_1_388
10
7.0055276
20
5.6177603
40
0.3265454
50
11.6284215
51
49.5603681
0
ARC
8
DEFAULT_255_1_388
10
6.8327762
20
5.5755524
40
0.5043009
50
359.5655533
51
12.3693319
0
ARC
8
DEFAULT_255_1_388
10
6.9539098
20
5.5685038
40
0.3831661
50
341.998418
51
0.4822212
0
ARC
8
DEFAULT_255_1_388
10
6.9983284
20
5.5564479
40
0.3372036
50
323.8610842
51
341.6141514
0
ARC
8
DEFAULT_255_1_388
10
6.964383
20
5.5826615
40
0.3800784
50
296.7019299
51
323.6876213
0
ARC
8
DEFAULT_255_1_388
10
6.9147788
20
5.6713532
40
0.4816219
50
290.808313
51
297.2325929
0
ARC
8
DEFAULT_255_1_388
10
6.8836582
20
5.7302377
40
0.404289
50
269.5895908
51
281.8058892
0
ARC
8
DEFAULT_255_1_388
10
6.9118848
20
5.601136
40
0.2721459
50
281.5499321
51
303.9358954
0
ARC
8
DEFAULT_255_1_388
10
6.9273383
20
5.5743588
40
0.2413121
50
304.4410786
51
311.211123
0
ARC
8
DEFAULT_255_1_388
10
6.9421788
20
5.5587152
40
0.2197678
50
310.9874923
51
356.2715203
0
ARC
8
DEFAULT_255_1_388
10
6.8571534
20
5.5713992
40
0.3055212
50
354.9346315
51
0.0617816
0
ARC
8
DEFAULT_255_1_388
10
6.8360375
20
5.5744427
40
0.3266482
50
359.5239293
51
12.8808621
0
ARC
8
DEFAULT_255_1_388
10
6.9460138
20
5.6013638
40
0.2134449
50
12.417206
51
43.1023141
0
ARC
8
DEFAULT_255_1_388
10
6.9529468
20
5.6055253
40
0.2055463
50
43.575886
51
48.2047245
0
ARC
8
DEFAULT_255_1_388
10
6.9338729
20
5.5806151
40
0.2368418
50
48.7809155
51
72.6968768
0
ARC
8
DEFAULT_255_1_388
10
6.8940093
20
5.4596385
40
0.364206
50
72.3699892
51
84.8793749
0
ARC
8
DEFAULT_255_1_388
10
6.8774099
20
5.3086651
40
0.5160674
50
84.5398226
51
89.7281165
0
LINE
8
DEFAULT_255_1_388
10
8.4168219
20
5.9674898
11
8.4168219
21
5.8247267
0
LINE
8
DEFAULT_255_1_388
10
8.4168219
20
5.8247267
11
7.9939537
21
5.8247267
0
LINE
8
DEFAULT_255_1_388
10
7.9939537
20
5.8247267
11
7.9939537
21
4.6519
0
LINE
8
DEFAULT_255_1_388
10
7.9939537
20
4.6519
11
7.8213729
21
4.6519
0
LINE
8
DEFAULT_255_1_388
10
7.8213729
20
4.6519
11
7.8213729
21
5.8247267
0
LINE
8
DEFAULT_255_1_388
10
7.8213729
20
5.8247267
11
7.3994083
21
5.8247267
0
LINE
8
DEFAULT_255_1_388
10
7.3994083
20
5.8247267
11
7.3994083
21
5.9674898
0
LINE
8
DEFAULT_255_1_388
10
7.3994083
20
5.9674898
11
8.4168219
21
5.9674898
0
LINE
8
DEFAULT_255_1_388
10
8.8116795
20
5.2545775
11
8.8116795
21
5.3910157
0
LINE
8
DEFAULT_255_1_388
10
8.8116795
20
5.3910157
11
8.937275
21
5.3910157
0
LINE
8
DEFAULT_255_1_388
10
8.7231302
20
5.6223282
11
8.5559708
21
5.6223282
0
LINE
8
DEFAULT_255_1_388
10
8.5442245
20
4.9988687
11
8.7122875
21
4.9988687
0
LINE
8
DEFAULT_255_1_388
10
8.937275
20
5.2545775
11
8.8116795
21
5.2545775
0
ARC
8
DEFAULT_255_1_388
10
8.9339976
20
5.7726922
40
0.3816905
50
270.491971
51
281.8953028
0
ARC
8
DEFAULT_255_1_388
10
8.9611403
20
5.6487199
40
0.2547877
50
281.6690378
51
301.2943765
0
ARC
8
DEFAULT_255_1_388
10
8.9802855
20
5.6136926
40
0.2149197
50
301.7834992
51
311.754567
0
ARC
8
DEFAULT_255_1_388
10
8.9905896
20
5.602265
40
0.1995326
50
311.7325027
51
354.2803031
0
ARC
8
DEFAULT_255_1_388
10
8.9088312
20
5.616328
40
0.2823461
50
353.0941646
51
0.1174696
0
ARC
8
DEFAULT_255_1_388
10
8.856987
20
5.6216874
40
0.3342238
50
359.1804452
51
15.0452323
0
ARC
8
DEFAULT_255_1_388
10
9.0083928
20
5.6658546
40
0.1765747
50
13.957816
51
77.6713812
0
ARC
8
DEFAULT_255_1_388
10
8.9649164
20
5.5100464
40
0.3381982
50
76.111571
51
90.7028736
0
ARC
8
DEFAULT_255_1_388
10
8.9582576
20
5.540825
40
0.3074046
50
89.5321574
51
103.5319393
0
ARC
8
DEFAULT_255_1_388
10
8.935696
20
5.6307443
40
0.2147041
50
103.2930114
51
133.5619756
0
ARC
8
DEFAULT_255_1_388
10
8.9306901
20
5.6374351
40
0.2064084
50
133.8349761
51
173.5343225
0
ARC
8
DEFAULT_255_1_388
10
9.0120559
20
5.6230144
40
0.2889266
50
172.5097183
51
180.1360699
0
ARC
8
DEFAULT_255_1_388
10
8.9050323
20
5.626888
40
0.3490913
50
155.3483706
51
180.7484035
0
ARC
8
DEFAULT_255_1_388
10
8.8995299
20
5.6236519
40
0.3454798
50
131.5745177
51
154.4799474
0
ARC
8
DEFAULT_255_1_388
10
8.9347581
20
5.5880422
40
0.3955058
50
96.9874487
51
131.9690874
0
ARC
8
DEFAULT_255_1_388
10
8.9594474
20
5.4479407
40
0.537622
50
89.8592909
51
97.7827481
0
ARC
8
DEFAULT_255_1_388
10
8.9648583
20
5.418436
40
0.5671399
50
78.3654493
51
90.4132586
0
ARC
8
DEFAULT_255_1_388
10
9.0051224
20
5.6050918
40
0.3762034
50
56.6229818
51
78.6387103
0
ARC
8
DEFAULT_255_1_388
10
9.0293053
20
5.6473846
40
0.3275964
50
47.0254604
51
56.085558
0
ARC
8
DEFAULT_255_1_388
10
9.0315304
20
5.6518189
40
0.3228382
50
10.9207523
51
46.777927
0
ARC
8
DEFAULT_255_1_388
10
8.8780898
20
5.6163401
40
0.4802559
50
359.6364235
51
11.6087615
0
ARC
8
DEFAULT_255_1_388
10
9.0845064
20
5.6146404
40
0.273833
50
332.3549969
51
359.7179765
0
ARC
8
DEFAULT_255_1_388
10
9.0113464
20
5.6493285
40
0.3547505
50
325.2332381
51
332.8746682
0
ARC
8
DEFAULT_255_1_388
10
9.0285047
20
5.6373763
40
0.3338396
50
292.9803892
51
325.2391113
0
ARC
8
DEFAULT_255_1_388
10
8.9974243
20
5.6978679
40
0.4016959
50
292.542178
51
293.6931461
0
ARC
8
DEFAULT_255_1_388
10
9.0417815
20
4.9713036
40
0.372079
50
57.643292
51
72.8626085
0
ARC
8
DEFAULT_255_1_388
10
9.0816649
20
5.0359273
40
0.2961455
50
36.7246661
51
57.4701329
0
ARC
8
DEFAULT_255_1_388
10
9.0803806
20
5.037347
40
0.2963321
50
8.054535
51
36.3561529
0
ARC
8
DEFAULT_255_1_388
10
8.9833479
20
5.0199073
40
0.3948682
50
359.8316595
51
8.5873361
0
ARC
8
DEFAULT_255_1_388
10
8.9410953
20
5.014497
40
0.4371398
50
343.9831631
51
0.557075
0
ARC
8
DEFAULT_255_1_388
10
9.0408003
20
4.9871963
40
0.3337749
50
311.6358204
51
343.7652116
0
ARC
8
DEFAULT_255_1_388
10
8.9982256
20
5.0351955
40
0.3979351
50
279.7829743
51
311.625622
0
ARC
8
DEFAULT_255_1_388
10
8.9643392
20
5.1968642
40
0.5630417
50
269.7285092
51
280.3857694
0
ARC
8
DEFAULT_255_1_388
10
8.9573704
20
5.1922241
40
0.5584119
50
256.6827433
51
270.4412869
0
ARC
8
DEFAULT_255_1_388
10
8.9192691
20
5.0364698
40
0.3980715
50
229.4223821
51
256.8554507
0
ARC
8
DEFAULT_255_1_388
10
8.8726244
20
4.9839683
40
0.3278564
50
181.8183354
51
229.6455015
0
ARC
8
DEFAULT_255_1_388
10
8.9895854
20
4.9986825
40
0.4453611
50
179.9760419
51
183.2330638
0
ARC
8
DEFAULT_255_1_388
10
8.9702406
20
4.9963781
40
0.2579652
50
179.4467996
51
196.2871626
0
ARC
8
DEFAULT_255_1_388
10
8.915386
20
4.9813709
40
0.2011057
50
196.5661293
51
227.7059371
0
ARC
8
DEFAULT_255_1_388
10
8.9338467
20
5.0020155
40
0.2287994
50
227.7653015
51
257.8763321
0
ARC
8
DEFAULT_255_1_388
10
8.959155
20
5.1080961
40
0.3378385
50
257.4583525
51
270.4267406
0
ARC
8
DEFAULT_255_1_388
10
8.96428
20
5.140723
40
0.3704652
50
269.5965319
51
280.8788143
0
ARC
8
DEFAULT_255_1_388
10
8.9901028
20
5.0117529
40
0.2389415
50
280.6347277
51
299.8594068
0
ARC
8
DEFAULT_255_1_388
10
9.0115798
20
4.9709736
40
0.19289
50
300.3575552
51
314.5515667
0
ARC
8
DEFAULT_255_1_388
10
9.0022473
20
4.9778025
40
0.204312
50
315.0730962
51
345.0429362
0
ARC
8
DEFAULT_255_1_388
10
8.8983981
20
5.0080539
40
0.31246
50
344.598526
51
357.9270698
0
ARC
8
DEFAULT_255_1_388
10
8.7974285
20
5.0149705
40
0.4136265
50
357.4755098
51
0.0224936
0
ARC
8
DEFAULT_255_1_388
10
8.9127163
20
5.0177099
40
0.2983498
50
359.5051035
51
13.4236939
0
ARC
8
DEFAULT_255_1_388
10
9.0102253
20
5.0426637
40
0.1977186
50
12.9497905
51
48.7550905
0
ARC
8
DEFAULT_255_1_388
10
8.9897175
20
5.0146373
40
0.2323321
50
49.509109
51
72.1832965
0
ARC
8
DEFAULT_255_1_388
10
8.9494643
20
4.8951632
40
0.358397
50
71.9008458
51
84.3555134
0
ARC
8
DEFAULT_255_1_388
10
8.9313038
20
4.7419712
40
0.512641
50
84.019632
51
89.3326067
0
LINE
8
DEFAULT_255_1_388
10
4.4845094
20
13.1044317
11
4.1745868
21
13.1044317
0
LINE
8
DEFAULT_255_1_388
10
4.1745868
20
13.1044317
11
4.1745868
21
12.5894
0
LINE
8
DEFAULT_255_1_388
10
4.1745868
20
12.5894
11
4.0011024
21
12.5894
0
LINE
8
DEFAULT_255_1_388
10
4.0011024
20
12.5894
11
4.0011024
21
13.9049898
0
LINE
8
DEFAULT_255_1_388
10
4.0011024
20
13.9049898
11
4.4863165
21
13.9049898
0
LINE
8
DEFAULT_255_1_388
10
4.1745868
20
13.7622267
11
4.1745868
21
13.2462914
0
LINE
8
DEFAULT_255_1_388
10
4.1745868
20
13.2462914
11
4.4863165
21
13.2462914
0
LINE
8
DEFAULT_255_1_388
10
4.4962557
20
13.7622267
11
4.1745868
21
13.7622267
0
ARC
8
DEFAULT_255_1_388
10
4.4910538
20
13.2233334
40
0.6816729
50
78.8380084
51
90.398184
0
ARC
8
DEFAULT_255_1_388
10
4.5378569
20
13.4506796
40
0.449571
50
58.9633273
51
79.0810717
0
ARC
8
DEFAULT_255_1_388
10
4.5717953
20
13.5136823
40
0.3781049
50
48.0194715
51
58.4475592
0
ARC
8
DEFAULT_255_1_388
10
4.5817773
20
13.5232818
40
0.3642936
50
3.3374546
51
48.1766642
0
ARC
8
DEFAULT_255_1_388
10
4.443258
20
13.5033581
40
0.5038766
50
359.9483251
51
4.6822857
0
ARC
8
DEFAULT_255_1_388
10
4.4572503
20
13.4985779
40
0.4899031
50
346.1879032
51
0.5059221
0
ARC
8
DEFAULT_255_1_388
10
4.6101295
20
13.4588763
40
0.3319729
50
310.8832219
51
346.5426612
0
ARC
8
DEFAULT_255_1_388
10
4.5754143
20
13.5057853
40
0.3901853
50
286.6925305
51
310.228778
0
ARC
8
DEFAULT_255_1_388
10
4.5113873
20
13.7071585
40
0.6014737
50
274.6848219
51
287.0247342
0
ARC
8
DEFAULT_255_1_388
10
4.4860422
20
13.9556088
40
0.8511785
50
269.8968222
51
275.0192639
0
ARC
8
DEFAULT_255_1_388
10
4.4891415
20
13.7218144
40
0.4755314
50
269.6596206
51
279.4150542
0
ARC
8
DEFAULT_255_1_388
10
4.5180873
20
13.5540945
40
0.3053379
50
279.2050006
51
294.9901776
0
ARC
8
DEFAULT_255_1_388
10
4.5507508
20
13.4812353
40
0.2255036
50
295.2886769
51
311.2912669
0
ARC
8
DEFAULT_255_1_388
10
4.5587249
20
13.4693938
40
0.2113522
50
311.7853512
51
347.2860549
0
ARC
8
DEFAULT_255_1_388
10
4.448041
20
13.497843
40
0.3256011
50
346.6891629
51
0.1057086
0
ARC
8
DEFAULT_255_1_388
10
4.355787
20
13.5011247
40
0.417863
50
359.63239
51
359.9961329
0
ARC
8
DEFAULT_255_1_388
10
4.4722475
20
13.5038987
40
0.3014155
50
359.4673371
51
15.5931159
0
ARC
8
DEFAULT_255_1_388
10
4.5425538
20
13.5228937
40
0.2285918
50
15.7441779
51
46.620186
0
ARC
8
DEFAULT_255_1_388
10
4.5259298
20
13.5037361
40
0.2539359
50
46.8628482
51
75.6676625
0
ARC
8
DEFAULT_255_1_388
10
4.4928354
20
13.3846243
40
0.3775415
50
75.2763152
51
88.2916439
0
ARC
8
DEFAULT_255_1_388
10
4.4862354
20
13.2844097
40
0.4779221
50
87.8589087
51
88.7986197
0
LINE
8
DEFAULT_255_1_388
10
6.1804999
20
13.2878553
11
6.1804999
21
13.2047274
0
LINE
8
DEFAULT_255_1_388
10
5.1224259
20
13.1929811
11
5.1224259
21
13.2878553
0
LINE
8
DEFAULT_255_1_388
10
6.007919
20
13.1920775
11
6.007919
21
13.2896625
0
LINE
8
DEFAULT_255_1_388
10
5.2950067
20
13.3014088
11
5.2950067
21
13.2047274
0
ARC
8
DEFAULT_255_1_388
10
5.2082737
20
13.2002726
40
0.9722364
50
350.4878118
51
0.2625322
0
ARC
8
DEFAULT_255_1_388
10
5.4662697
20
13.1558994
40
0.7104556
50
336.0277991
51
350.5787241
0
ARC
8
DEFAULT_255_1_388
10
5.6175804
20
13.0875243
40
0.544417
50
319.887443
51
336.1331163
0
ARC
8
DEFAULT_255_1_388
10
5.6853616
20
13.0332733
40
0.4576311
50
302.4806296
51
319.6144102
0
ARC
8
DEFAULT_255_1_388
10
5.6724237
20
13.0582067
40
0.4856183
50
275.8196423
51
302.1885521
0
ARC
8
DEFAULT_255_1_388
10
5.6537098
20
13.1867466
40
0.6154183
50
269.9169897
51
276.339506
0
ARC
8
DEFAULT_255_1_388
10
5.6486699
20
13.109568
40
0.5382553
50
252.5221437
51
270.441579
0
ARC
8
DEFAULT_255_1_388
10
5.632495
20
13.0489046
40
0.4755426
50
237.5349961
51
252.1858334
0
ARC
8
DEFAULT_255_1_388
10
5.6425326
20
13.061712
40
0.4917393
50
209.0632754
51
237.3492577
0
ARC
8
DEFAULT_255_1_388
10
5.7404651
20
13.1232104
40
0.6072464
50
205.118533
51
209.6465345
0
ARC
8
DEFAULT_255_1_388
10
5.8300654
20
13.1612174
40
0.7045164
50
188.7216633
51
204.8239753
0
ARC
8
DEFAULT_255_1_388
10
6.0547429
20
13.1990387
40
0.9323368
50
180.3722704
51
188.9253909
0
ARC
8
DEFAULT_255_1_388
10
6.051699
20
13.2923416
40
0.929284
50
169.5253055
51
180.2766048
0
ARC
8
DEFAULT_255_1_388
10
5.8376789
20
13.3317024
40
0.7116745
50
155.8314601
51
169.5088611
0
ARC
8
DEFAULT_255_1_388
10
5.6936253
20
13.3985312
40
0.5528904
50
139.6259579
51
156.0379072
0
ARC
8
DEFAULT_255_1_388
10
5.6272786
20
13.4519143
40
0.4677708
50
122.6414784
51
139.3431662
0
ARC
8
DEFAULT_255_1_388
10
5.6386041
20
13.4312787
40
0.4912586
50
93.0224537
51
122.4556091
0
ARC
8
DEFAULT_255_1_388
10
5.6507562
20
13.3226776
40
0.6003837
50
89.9756766
51
93.6340839
0
ARC
8
DEFAULT_255_1_388
10
5.655116
20
13.3675879
40
0.5554884
50
73.7463329
51
90.4234008
0
ARC
8
DEFAULT_255_1_388
10
5.6748633
20
13.4440772
40
0.4765353
50
57.663051
51
73.4516911
0
ARC
8
DEFAULT_255_1_388
10
5.673967
20
13.4465108
40
0.4749629
50
29.1441355
51
57.4146687
0
ARC
8
DEFAULT_255_1_388
10
5.5687482
20
13.3808046
40
0.5988917
50
24.0985653
51
29.732054
0
ARC
8
DEFAULT_255_1_388
10
5.4525114
20
13.3326154
40
0.7246823
50
8.6654943
51
23.8241215
0
ARC
8
DEFAULT_255_1_388
10
5.2011532
20
13.2916037
40
0.9793537
50
359.7807044
51
8.8218476
0
ARC
8
DEFAULT_255_1_388
10
5.0721236
20
13.2944731
40
0.9358078
50
359.7054632
51
8.0359751
0
ARC
8
DEFAULT_255_1_388
10
5.4096288
20
13.3436252
40
0.5947474
50
7.8926278
51
20.2962188
0
ARC
8
DEFAULT_255_1_388
10
5.5927138
20
13.4111367
40
0.3996117
50
20.3231056
51
36.4990255
0
ARC
8
DEFAULT_255_1_388
10
5.6698435
20
13.4705399
40
0.3022818
50
36.1436715
51
85.6627846
0
ARC
8
DEFAULT_255_1_388
10
5.6515691
20
13.3535881
40
0.4203853
50
84.3845912
51
90.076054
0
ARC
8
DEFAULT_255_1_388
10
5.6468046
20
13.4278416
40
0.346157
50
89.3037228
51
109.9046209
0
ARC
8
DEFAULT_255_1_388
10
5.6363879
20
13.4708379
40
0.3022217
50
110.8229774
51
143.917961
0
ARC
8
DEFAULT_255_1_388
10
5.7414238
20
13.3906455
40
0.434348
50
143.5289166
51
163.2980252
0
ARC
8
DEFAULT_255_1_388
10
5.9560525
20
13.3231685
40
0.659321
50
163.0418884
51
174.3139873
0
ARC
8
DEFAULT_255_1_388
10
6.226549
20
13.2919378
40
0.9315905
50
174.050934
51
179.4174954
0
ARC
8
DEFAULT_255_1_388
10
6.1697434
20
13.2000382
40
0.8747493
50
179.6928582
51
188.7908948
0
ARC
8
DEFAULT_255_1_388
10
5.8701234
20
13.1521086
40
0.5713262
50
188.6328449
51
202.5630732
0
ARC
8
DEFAULT_255_1_388
10
5.729007
20
13.0954142
40
0.4192612
50
202.8078931
51
216.1195888
0
ARC
8
DEFAULT_255_1_388
10
5.6379587
20
13.0221479
40
0.3025752
50
215.0755613
51
264.6379773
0
ARC
8
DEFAULT_255_1_388
10
5.6522425
20
13.1156376
40
0.3970284
50
263.8464302
51
270.0830805
0
ARC
8
DEFAULT_255_1_388
10
5.656897
20
13.0865808
40
0.3679937
50
269.3649295
51
287.5149684
0
ARC
8
DEFAULT_255_1_388
10
5.676941
20
13.0137714
40
0.2925408
50
288.0629019
51
323.8115617
0
ARC
8
DEFAULT_255_1_388
10
5.5789387
20
13.0868754
40
0.4148018
50
323.6546541
51
342.6591359
0
ARC
8
DEFAULT_255_1_388
10
5.3504044
20
13.161228
40
0.6551163
50
342.4092446
51
353.6451501
0
ARC
8
DEFAULT_255_1_388
10
5.0318838
20
13.2008565
40
0.9760748
50
353.4027553
51
359.4846611
0
LINE
8
DEFAULT_255_1_388
10
7.2087562
20
12.5894
11
6.9232298
21
13.1215995
0
LINE
8
DEFAULT_255_1_388
10
6.9232298
20
13.1215995
11
6.6142108
21
13.1215995
0
LINE
8
DEFAULT_255_1_388
10
6.6142108
20
13.1215995
11
6.6142108
21
12.5894
0
LINE
8
DEFAULT_255_1_388
10
6.6142108
20
12.5894
11
6.4398229
21
12.5894
0
LINE
8
DEFAULT_255_1_388
10
6.4398229
20
12.5894
11
6.4398229
21
13.9049898
0
LINE
8
DEFAULT_255_1_388
10
6.4398229
20
13.9049898
11
6.8753409
21
13.9049898
0
LINE
8
DEFAULT_255_1_388
10
7.0858714
20
13.1586456
11
7.3948905
21
12.6002428
0
LINE
8
DEFAULT_255_1_388
10
7.3948905
20
12.6002428
11
7.3948905
21
12.5894
0
LINE
8
DEFAULT_255_1_388
10
7.3948905
20
12.5894
11
7.2087562
21
12.5894
0
LINE
8
DEFAULT_255_1_388
10
6.6142108
20
13.7622267
11
6.6142108
21
13.2634591
0
LINE
8
DEFAULT_255_1_388
10
6.6142108
20
13.2634591
11
6.8807623
21
13.2634591
0
LINE
8
DEFAULT_255_1_388
10
6.8798587
20
13.7622267
11
6.6142108
21
13.7622267
0
ARC
8
DEFAULT_255_1_388
10
6.8800255
20
13.1218346
40
0.7831693
50
80.6535681
51
90.3427203
0
ARC
8
DEFAULT_255_1_388
10
6.9272166
20
13.3988722
40
0.5021479
50
65.6987674
51
80.8330164
0
ARC
8
DEFAULT_255_1_388
10
6.9809459
20
13.5220479
40
0.3677787
50
50.0019152
51
65.4304412
0
ARC
8
DEFAULT_255_1_388
10
7.0055276
20
13.5552603
40
0.3265454
50
11.6284215
51
49.5603681
0
ARC
8
DEFAULT_255_1_388
10
6.8327762
20
13.5130524
40
0.5043009
50
359.5655533
51
12.3693319
0
ARC
8
DEFAULT_255_1_388
10
6.9539098
20
13.5060038
40
0.3831661
50
341.998418
51
0.4822212
0
ARC
8
DEFAULT_255_1_388
10
6.9983284
20
13.4939479
40
0.3372036
50
323.8610842
51
341.6141514
0
ARC
8
DEFAULT_255_1_388
10
6.964383
20
13.5201615
40
0.3800784
50
296.7019299
51
323.6876213
0
ARC
8
DEFAULT_255_1_388
10
6.9147788
20
13.6088532
40
0.4816219
50
290.808313
51
297.2325929
0
ARC
8
DEFAULT_255_1_388
10
6.8836582
20
13.6677377
40
0.404289
50
269.5895908
51
281.8058892
0
ARC
8
DEFAULT_255_1_388
10
6.9118848
20
13.538636
40
0.2721459
50
281.5499321
51
303.9358954
0
ARC
8
DEFAULT_255_1_388
10
6.9273383
20
13.5118588
40
0.2413121
50
304.4410786
51
311.211123
0
ARC
8
DEFAULT_255_1_388
10
6.9421788
20
13.4962152
40
0.2197678
50
310.9874923
51
356.2715203
0
ARC
8
DEFAULT_255_1_388
10
6.8571534
20
13.5088992
40
0.3055212
50
354.9346315
51
0.0617816
0
ARC
8
DEFAULT_255_1_388
10
6.8360375
20
13.5119427
40
0.3266482
50
359.5239293
51
12.8808621
0
ARC
8
DEFAULT_255_1_388
10
6.9460138
20
13.5388638
40
0.2134449
50
12.417206
51
43.1023141
0
ARC
8
DEFAULT_255_1_388
10
6.9529468
20
13.5430253
40
0.2055463
50
43.575886
51
48.2047245
0
ARC
8
DEFAULT_255_1_388
10
6.9338729
20
13.5181151
40
0.2368418
50
48.7809155
51
72.6968768
0
ARC
8
DEFAULT_255_1_388
10
6.8940093
20
13.3971385
40
0.364206
50
72.3699892
51
84.8793749
0
ARC
8
DEFAULT_255_1_388
10
6.8774099
20
13.2461651
40
0.5160674
50
84.5398226
51
89.7281165
0
LINE
8
DEFAULT_255_1_388
10
8.4168219
20
13.9049898
11
8.4168219
21
13.7622267
0
LINE
8
DEFAULT_255_1_388
10
8.4168219
20
13.7622267
11
7.9939537
21
13.7622267
0
LINE
8
DEFAULT_255_1_388
10
7.9939537
20
13.7622267
11
7.9939537
21
12.5894
0
LINE
8
DEFAULT_255_1_388
10
7.9939537
20
12.5894
11
7.8213729
21
12.5894
0
LINE
8
DEFAULT_255_1_388
10
7.8213729
20
12.5894
11
7.8213729
21
13.7622267
0
LINE
8
DEFAULT_255_1_388
10
7.8213729
20
13.7622267
11
7.3994083
21
13.7622267
0
LINE
8
DEFAULT_255_1_388
10
7.3994083
20
13.7622267
11
7.3994083
21
13.9049898
0
LINE
8
DEFAULT_255_1_388
10
7.3994083
20
13.9049898
11
8.4168219
21
13.9049898
0
LINE
8
DEFAULT_255_1_388
10
9.4306212
20
12.7258382
11
9.4306212
21
12.5894
0
LINE
8
DEFAULT_255_1_388
10
9.4306212
20
12.5894
11
8.5686207
21
12.5894
0
LINE
8
DEFAULT_255_1_388
10
8.5686207
20
12.5894
11
8.5686207
21
12.7095741
0
LINE
8
DEFAULT_255_1_388
10
8.5686207
20
12.7095741
11
9.0240172
21
13.2155702
0
LINE
8
DEFAULT_255_1_388
10
8.7104803
20
13.5173607
11
8.5433209
21
13.5173607
0
LINE
8
DEFAULT_255_1_388
10
9.1225057
20
13.108046
11
8.7701156
21
12.7258382
0
LINE
8
DEFAULT_255_1_388
10
8.7701156
20
12.7258382
11
9.4306212
21
12.7258382
0
ARC
8
DEFAULT_255_1_388
10
7.5064231
20
14.5575983
40
2.0258655
50
318.5132526
51
320.7829045
0
ARC
8
DEFAULT_255_1_388
10
8.1012188
20
14.0734929
40
1.2589638
50
320.7372878
51
323.9739031
0
ARC
8
DEFAULT_255_1_388
10
8.542112
20
13.7540554
40
0.7145141
50
323.8962701
51
328.64194
0
ARC
8
DEFAULT_255_1_388
10
8.7723378
20
13.6120545
40
0.4440242
50
328.8294576
51
331.7891185
0
ARC
8
DEFAULT_255_1_388
10
8.8845698
20
13.5541374
40
0.3177517
50
331.4254512
51
352.9365785
0
ARC
8
DEFAULT_255_1_388
10
8.8998698
20
13.550705
40
0.3021496
50
353.2257659
51
0.0166158
0
ARC
8
DEFAULT_255_1_388
10
8.9235458
20
13.5532894
40
0.2784847
50
359.486299
51
15.9343185
0
ARC
8
DEFAULT_255_1_388
10
8.9805725
20
13.5686269
40
0.2194403
50
16.1712913
51
43.5286088
0
ARC
8
DEFAULT_255_1_388
10
8.989267
20
13.5773191
40
0.2071504
50
43.4417391
51
83.1661095
0
ARC
8
DEFAULT_255_1_388
10
8.9741831
20
13.4944316
40
0.2912888
50
82.160179
51
90.1505708
0
ARC
8
DEFAULT_255_1_388
10
8.9706312
20
13.4340279
40
0.3517025
50
89.5460741
51
102.5418361
0
ARC
8
DEFAULT_255_1_388
10
8.9433032
20
13.5499933
40
0.2325748
50
102.1738499
51
129.206123
0
ARC
8
DEFAULT_255_1_388
10
8.9344486
20
13.5639664
40
0.2161591
50
129.72865
51
135.753947
0
ARC
8
DEFAULT_255_1_388
10
8.9480968
20
13.5530728
40
0.2335433
50
136.1757367
51
166.3673339
0
ARC
8
DEFAULT_255_1_388
10
9.0613656
20
13.5227148
40
0.3507873
50
165.9090694
51
178.8684636
0
ARC
8
DEFAULT_255_1_388
10
9.1589428
20
13.5174263
40
0.4484624
50
178.4391136
51
180.0083808
0
ARC
8
DEFAULT_255_1_388
10
9.0010129
20
13.5218197
40
0.4577138
50
163.2878482
51
180.5581842
0
ARC
8
DEFAULT_255_1_388
10
8.910817
20
13.5466393
40
0.3641968
50
133.4540601
51
162.947111
0
ARC
8
DEFAULT_255_1_388
10
8.9309052
20
13.5252789
40
0.3935189
50
100.7869829
51
133.4382499
0
ARC
8
DEFAULT_255_1_388
10
8.9700297
20
13.3510399
40
0.5720313
50
89.660664
51
101.3702276
0
ARC
8
DEFAULT_255_1_388
10
8.9774906
20
13.3579263
40
0.5651495
50
78.2172678
51
90.412935
0
ARC
8
DEFAULT_255_1_388
10
9.0174372
20
13.5406511
40
0.378122
50
55.9269121
51
78.4888449
0
ARC
8
DEFAULT_255_1_388
10
9.0395087
20
13.5787187
40
0.3342379
50
47.929771
51
55.4049217
0
ARC
8
DEFAULT_255_1_388
10
9.0509617
20
13.5903618
40
0.3179217
50
4.334829
51
48.0560205
0
ARC
8
DEFAULT_255_1_388
10
8.9277419
20
13.5712487
40
0.442341
50
359.9251713
51
5.5971671
0
ARC
8
DEFAULT_255_1_388
10
8.9759574
20
13.5775728
40
0.3941854
50
337.8914027
51
358.9967534
0
ARC
8
DEFAULT_255_1_388
10
8.6707144
20
13.6953295
40
0.7213271
50
326.9132501
51
338.3508308
0
ARC
8
DEFAULT_255_1_388
10
8.2223256
20
13.9827105
40
1.2538973
50
319.6471833
51
327.0959558
0
ARC
8
DEFAULT_255_1_388
10
7.7909914
20
14.338505
40
1.8129975
50
317.2588228
51
319.9045804
0
LINE
8
DEFAULT_255_1_388
10
4.4756094
20
21.0419317
11
4.1656868
21
21.0419317
0
LINE
8
DEFAULT_255_1_388
10
4.1656868
20
21.0419317
11
4.1656868
21
20.5269
0
LINE
8
DEFAULT_255_1_388
10
4.1656868
20
20.5269
11
3.9922024
21
20.5269
0
LINE
8
DEFAULT_255_1_388
10
3.9922024
20
20.5269
11
3.9922024
21
21.8424898
0
LINE
8
DEFAULT_255_1_388
10
3.9922024
20
21.8424898
11
4.4774165
21
21.8424898
0
LINE
8
DEFAULT_255_1_388
10
4.1656868
20
21.6997267
11
4.1656868
21
21.1837914
0
LINE
8
DEFAULT_255_1_388
10
4.1656868
20
21.1837914
11
4.4774165
21
21.1837914
0
LINE
8
DEFAULT_255_1_388
10
4.4873557
20
21.6997267
11
4.1656868
21
21.6997267
0
ARC
8
DEFAULT_255_1_388
10
4.4821538
20
21.1608334
40
0.6816729
50
78.8380084
51
90.398184
0
ARC
8
DEFAULT_255_1_388
10
4.5289569
20
21.3881796
40
0.449571
50
58.9633273
51
79.0810717
0
ARC
8
DEFAULT_255_1_388
10
4.5628953
20
21.4511823
40
0.3781049
50
48.0194715
51
58.4475592
0
ARC
8
DEFAULT_255_1_388
10
4.5728773
20
21.4607818
40
0.3642936
50
3.3374546
51
48.1766642
0
ARC
8
DEFAULT_255_1_388
10
4.434358
20
21.4408581
40
0.5038766
50
359.9483251
51
4.6822857
0
ARC
8
DEFAULT_255_1_388
10
4.4483503
20
21.4360779
40
0.4899031
50
346.1879032
51
0.5059221
0
ARC
8
DEFAULT_255_1_388
10
4.6012295
20
21.3963763
40
0.3319729
50
310.8832219
51
346.5426612
0
ARC
8
DEFAULT_255_1_388
10
4.5665143
20
21.4432853
40
0.3901853
50
286.6925305
51
310.228778
0
ARC
8
DEFAULT_255_1_388
10
4.5024873
20
21.6446585
40
0.6014737
50
274.6848219
51
287.0247342
0
ARC
8
DEFAULT_255_1_388
10
4.4771422
20
21.8931088
40
0.8511785
50
269.8968222
51
275.0192639
0
ARC
8
DEFAULT_255_1_388
10
4.4802415
20
21.6593144
40
0.4755314
50
269.6596206
51
279.4150542
0
ARC
8
DEFAULT_255_1_388
10
4.5091873
20
21.4915945
40
0.3053379
50
279.2050006
51
294.9901776
0
ARC
8
DEFAULT_255_1_388
10
4.5418508
20
21.4187353
40
0.2255036
50
295.2886769
51
311.2912669
0
ARC
8
DEFAULT_255_1_388
10
4.5498249
20
21.4068938
40
0.2113522
50
311.7853512
51
347.2860549
0
ARC
8
DEFAULT_255_1_388
10
4.439141
20
21.435343
40
0.3256011
50
346.6891629
51
0.1057086
0
ARC
8
DEFAULT_255_1_388
10
4.346887
20
21.4386247
40
0.417863
50
359.63239
51
359.9961329
0
ARC
8
DEFAULT_255_1_388
10
4.4633475
20
21.4413987
40
0.3014155
50
359.4673371
51
15.5931159
0
ARC
8
DEFAULT_255_1_388
10
4.5336538
20
21.4603937
40
0.2285918
50
15.7441779
51
46.620186
0
ARC
8
DEFAULT_255_1_388
10
4.5170298
20
21.4412361
40
0.2539359
50
46.8628482
51
75.6676625
0
ARC
8
DEFAULT_255_1_388
10
4.4839354
20
21.3221243
40
0.3775415
50
75.2763152
51
88.2916439
0
ARC
8
DEFAULT_255_1_388
10
4.4773354
20
21.2219097
40
0.4779221
50
87.8589087
51
88.7986197
0
LINE
8
DEFAULT_255_1_388
10
6.1715999
20
21.2253553
11
6.1715999
21
21.1422274
0
LINE
8
DEFAULT_255_1_388
10
5.1135259
20
21.1304811
11
5.1135259
21
21.2253553
0
LINE
8
DEFAULT_255_1_388
10
5.999019
20
21.1295775
11
5.999019
21
21.2271625
0
LINE
8
DEFAULT_255_1_388
10
5.2861067
20
21.2389088
11
5.2861067
21
21.1422274
0
ARC
8
DEFAULT_255_1_388
10
5.1993737
20
21.1377726
40
0.9722364
50
350.4878118
51
0.2625322
0
ARC
8
DEFAULT_255_1_388
10
5.4573697
20
21.0933994
40
0.7104556
50
336.0277991
51
350.5787241
0
ARC
8
DEFAULT_255_1_388
10
5.6086804
20
21.0250243
40
0.544417
50
319.887443
51
336.1331163
0
ARC
8
DEFAULT_255_1_388
10
5.6764616
20
20.9707733
40
0.4576311
50
302.4806296
51
319.6144102
0
ARC
8
DEFAULT_255_1_388
10
5.6635237
20
20.9957067
40
0.4856183
50
275.8196423
51
302.1885521
0
ARC
8
DEFAULT_255_1_388
10
5.6448098
20
21.1242466
40
0.6154183
50
269.9169897
51
276.339506
0
ARC
8
DEFAULT_255_1_388
10
5.6397699
20
21.047068
40
0.5382553
50
252.5221437
51
270.441579
0
ARC
8
DEFAULT_255_1_388
10
5.623595
20
20.9864046
40
0.4755426
50
237.5349961
51
252.1858334
0
ARC
8
DEFAULT_255_1_388
10
5.6336326
20
20.999212
40
0.4917393
50
209.0632754
51
237.3492577
0
ARC
8
DEFAULT_255_1_388
10
5.7315651
20
21.0607104
40
0.6072464
50
205.118533
51
209.6465345
0
ARC
8
DEFAULT_255_1_388
10
5.8211654
20
21.0987174
40
0.7045164
50
188.7216633
51
204.8239753
0
ARC
8
DEFAULT_255_1_388
10
6.0458429
20
21.1365387
40
0.9323368
50
180.3722704
51
188.9253909
0
ARC
8
DEFAULT_255_1_388
10
6.042799
20
21.2298416
40
0.929284
50
169.5253055
51
180.2766048
0
ARC
8
DEFAULT_255_1_388
10
5.8287789
20
21.2692024
40
0.7116745
50
155.8314601
51
169.5088611
0
ARC
8
DEFAULT_255_1_388
10
5.6847253
20
21.3360312
40
0.5528904
50
139.6259579
51
156.0379072
0
ARC
8
DEFAULT_255_1_388
10
5.6183786
20
21.3894143
40
0.4677708
50
122.6414784
51
139.3431662
0
ARC
8
DEFAULT_255_1_388
10
5.6297041
20
21.3687787
40
0.4912586
50
93.0224537
51
122.4556091
0
ARC
8
DEFAULT_255_1_388
10
5.6418562
20
21.2601776
40
0.6003837
50
89.9756766
51
93.6340839
0
ARC
8
DEFAULT_255_1_388
10
5.646216
20
21.3050879
40
0.5554884
50
73.7463329
51
90.4234008
0
ARC
8
DEFAULT_255_1_388
10
5.6659633
20
21.3815772
40
0.4765353
50
57.663051
51
73.4516911
0
ARC
8
DEFAULT_255_1_388
10
5.665067
20
21.3840108
40
0.4749629
50
29.1441355
51
57.4146687
0
ARC
8
DEFAULT_255_1_388
10
5.5598482
20
21.3183046
40
0.5988917
50
24.0985653
51
29.732054
0
ARC
8
DEFAULT_255_1_388
10
5.4436114
20
21.2701154
40
0.7246823
50
8.6654943
51
23.8241215
0
ARC
8
DEFAULT_255_1_388
10
5.1922532
20
21.2291037
40
0.9793537
50
359.7807044
51
8.8218476
0
ARC
8
DEFAULT_255_1_388
10
5.0632236
20
21.2319731
40
0.9358078
50
359.7054632
51
8.0359751
0
ARC
8
DEFAULT_255_1_388
10
5.4007288
20
21.2811252
40
0.5947474
50
7.8926278
51
20.2962188
0
ARC
8
DEFAULT_255_1_388
10
5.5838138
20
21.3486367
40
0.3996117
50
20.3231056
51
36.4990255
0
ARC
8
DEFAULT_255_1_388
10
5.6609435
20
21.4080399
40
0.3022818
50
36.1436715
51
85.6627846
0
ARC
8
DEFAULT_255_1_388
10
5.6426691
20
21.2910881
40
0.4203853
50
84.3845912
51
90.076054
0
ARC
8
DEFAULT_255_1_388
10
5.6379046
20
21.3653416
40
0.346157
50
89.3037228
51
109.9046209
0
ARC
8
DEFAULT_255_1_388
10
5.6274879
20
21.4083379
40
0.3022217
50
110.8229774
51
143.917961
0
ARC
8
DEFAULT_255_1_388
10
5.7325238
20
21.3281455
40
0.434348
50
143.5289166
51
163.2980252
0
ARC
8
DEFAULT_255_1_388
10
5.9471525
20
21.2606685
40
0.659321
50
163.0418884
51
174.3139873
0
ARC
8
DEFAULT_255_1_388
10
6.217649
20
21.2294378
40
0.9315905
50
174.050934
51
179.4174954
0
ARC
8
DEFAULT_255_1_388
10
6.1608434
20
21.1375382
40
0.8747493
50
179.6928582
51
188.7908948
0
ARC
8
DEFAULT_255_1_388
10
5.8612234
20
21.0896086
40
0.5713262
50
188.6328449
51
202.5630732
0
ARC
8
DEFAULT_255_1_388
10
5.720107
20
21.0329142
40
0.4192612
50
202.8078931
51
216.1195888
0
ARC
8
DEFAULT_255_1_388
10
5.6290587
20
20.9596479
40
0.3025752
50
215.0755613
51
264.6379773
0
ARC
8
DEFAULT_255_1_388
10
5.6433425
20
21.0531376
40
0.3970284
50
263.8464302
51
270.0830805
0
ARC
8
DEFAULT_255_1_388
10
5.647997
20
21.0240808
40
0.3679937
50
269.3649295
51
287.5149684
0
ARC
8
DEFAULT_255_1_388
10
5.668041
20
20.9512714
40
0.2925408
50
288.0629019
51
323.8115617
0
ARC
8
DEFAULT_255_1_388
10
5.5700387
20
21.0243754
40
0.4148018
50
323.6546541
51
342.6591359
0
ARC
8
DEFAULT_255_1_388
10
5.3415044
20
21.098728
40
0.6551163
50
342.4092446
51
353.6451501
0
ARC
8
DEFAULT_255_1_388
10
5.0229838
20
21.1383565
40
0.9760748
50
353.4027553
51
359.4846611
0
LINE
8
DEFAULT_255_1_388
10
7.1998562
20
20.5269
11
6.9143298
21
21.0590995
0
LINE
8
DEFAULT_255_1_388
10
6.9143298
20
21.0590995
11
6.6053108
21
21.0590995
0
LINE
8
DEFAULT_255_1_388
10
6.6053108
20
21.0590995
11
6.6053108
21
20.5269
0
LINE
8
DEFAULT_255_1_388
10
6.6053108
20
20.5269
11
6.4309229
21
20.5269
0
LINE
8
DEFAULT_255_1_388
10
6.4309229
20
20.5269
11
6.4309229
21
21.8424898
0
LINE
8
DEFAULT_255_1_388
10
6.4309229
20
21.8424898
11
6.8664409
21
21.8424898
0
LINE
8
DEFAULT_255_1_388
10
7.0769714
20
21.0961456
11
7.3859905
21
20.5377428
0
LINE
8
DEFAULT_255_1_388
10
7.3859905
20
20.5377428
11
7.3859905
21
20.5269
0
LINE
8
DEFAULT_255_1_388
10
7.3859905
20
20.5269
11
7.1998562
21
20.5269
0
LINE
8
DEFAULT_255_1_388
10
6.6053108
20
21.6997267
11
6.6053108
21
21.2009591
0
LINE
8
DEFAULT_255_1_388
10
6.6053108
20
21.2009591
11
6.8718623
21
21.2009591
0
LINE
8
DEFAULT_255_1_388
10
6.8709587
20
21.6997267
11
6.6053108
21
21.6997267
0
ARC
8
DEFAULT_255_1_388
10
6.8711255
20
21.0593346
40
0.7831693
50
80.6535681
51
90.3427203
0
ARC
8
DEFAULT_255_1_388
10
6.9183166
20
21.3363722
40
0.5021479
50
65.6987674
51
80.8330164
0
ARC
8
DEFAULT_255_1_388
10
6.9720459
20
21.4595479
40
0.3677787
50
50.0019152
51
65.4304412
0
ARC
8
DEFAULT_255_1_388
10
6.9966276
20
21.4927603
40
0.3265454
50
11.6284215
51
49.5603681
0
ARC
8
DEFAULT_255_1_388
10
6.8238762
20
21.4505524
40
0.5043009
50
359.5655533
51
12.3693319
0
ARC
8
DEFAULT_255_1_388
10
6.9450098
20
21.4435038
40
0.3831661
50
341.998418
51
0.4822212
0
ARC
8
DEFAULT_255_1_388
10
6.9894284
20
21.4314479
40
0.3372036
50
323.8610842
51
341.6141514
0
ARC
8
DEFAULT_255_1_388
10
6.955483
20
21.4576615
40
0.3800784
50
296.7019299
51
323.6876213
0
ARC
8
DEFAULT_255_1_388
10
6.9058788
20
21.5463532
40
0.4816219
50
290.808313
51
297.2325929
0
ARC
8
DEFAULT_255_1_388
10
6.8747582
20
21.6052377
40
0.404289
50
269.5895908
51
281.8058892
0
ARC
8
DEFAULT_255_1_388
10
6.9029848
20
21.476136
40
0.2721459
50
281.5499321
51
303.9358954
0
ARC
8
DEFAULT_255_1_388
10
6.9184383
20
21.4493588
40
0.2413121
50
304.4410786
51
311.211123
0
ARC
8
DEFAULT_255_1_388
10
6.9332788
20
21.4337152
40
0.2197678
50
310.9874923
51
356.2715203
0
ARC
8
DEFAULT_255_1_388
10
6.8482534
20
21.4463992
40
0.3055212
50
354.9346315
51
0.0617816
0
ARC
8
DEFAULT_255_1_388
10
6.8271375
20
21.4494427
40
0.3266482
50
359.5239293
51
12.8808621
0
ARC
8
DEFAULT_255_1_388
10
6.9371138
20
21.4763638
40
0.2134449
50
12.417206
51
43.1023141
0
ARC
8
DEFAULT_255_1_388
10
6.9440468
20
21.4805253
40
0.2055463
50
43.575886
51
48.2047245
0
ARC
8
DEFAULT_255_1_388
10
6.9249729
20
21.4556151
40
0.2368418
50
48.7809155
51
72.6968768
0
ARC
8
DEFAULT_255_1_388
10
6.8851093
20
21.3346385
40
0.364206
50
72.3699892
51
84.8793749
0
ARC
8
DEFAULT_255_1_388
10
6.8685099
20
21.1836651
40
0.5160674
50
84.5398226
51
89.7281165
0
LINE
8
DEFAULT_255_1_388
10
8.4079219
20
21.8424898
11
8.4079219
21
21.6997267
0
LINE
8
DEFAULT_255_1_388
10
8.4079219
20
21.6997267
11
7.9850537
21
21.6997267
0
LINE
8
DEFAULT_255_1_388
10
7.9850537
20
21.6997267
11
7.9850537
21
20.5269
0
LINE
8
DEFAULT_255_1_388
10
7.9850537
20
20.5269
11
7.8124729
21
20.5269
0
LINE
8
DEFAULT_255_1_388
10
7.8124729
20
20.5269
11
7.8124729
21
21.6997267
0
LINE
8
DEFAULT_255_1_388
10
7.8124729
20
21.6997267
11
7.3905083
21
21.6997267
0
LINE
8
DEFAULT_255_1_388
10
7.3905083
20
21.6997267
11
7.3905083
21
21.8424898
0
LINE
8
DEFAULT_255_1_388
10
7.3905083
20
21.8424898
11
8.4079219
21
21.8424898
0
LINE
8
DEFAULT_255_1_388
10
9.1090879
20
21.8488148
11
9.1090879
21
20.5269
0
LINE
8
DEFAULT_255_1_388
10
9.1090879
20
20.5269
11
8.9410249
21
20.5269
0
LINE
8
DEFAULT_255_1_388
10
8.9410249
20
20.5269
11
8.9410249
21
21.640995
0
LINE
8
DEFAULT_255_1_388
10
8.9410249
20
21.640995
11
8.6039954
21
21.5172066
0
LINE
8
DEFAULT_255_1_388
10
8.6039954
20
21.5172066
11
8.6039954
21
21.6690055
0
LINE
8
DEFAULT_255_1_388
10
8.6039954
20
21.6690055
11
9.0828845
21
21.8488148
0
LINE
8
DEFAULT_255_1_388
10
9.0828845
20
21.8488148
11
9.1090879
21
21.8488148
0
LINE
8
DEFAULT_255_1_388
10
21.7506342
20
29.1194842
11
21.7506342
21
28.6369808
0
LINE
8
DEFAULT_255_1_388
10
20.7368349
20
29.0589454
11
20.7368349
21
29.1736981
0
LINE
8
DEFAULT_255_1_388
10
21.7506342
20
29.3941678
11
21.5771498
21
29.3941678
0
LINE
8
DEFAULT_255_1_388
10
20.9112228
20
29.1782159
11
20.9112228
21
29.0706917
0
LINE
8
DEFAULT_255_1_388
10
21.5780534
20
28.6830626
11
21.5780534
21
28.9785282
0
LINE
8
DEFAULT_255_1_388
10
21.5780534
20
28.9785282
11
21.2735521
21
28.9785282
0
LINE
8
DEFAULT_255_1_388
10
21.2735521
20
28.9785282
11
21.2735521
21
29.1194842
0
LINE
8
DEFAULT_255_1_388
10
21.2735521
20
29.1194842
11
21.7506342
21
29.1194842
0
ARC
8
DEFAULT_255_1_388
10
21.4320942
20
28.8612284
40
0.3895571
50
295.8437277
51
324.8549962
0
ARC
8
DEFAULT_255_1_388
10
21.3853325
20
28.9458619
40
0.4861381
50
291.5691164
51
296.4556269
0
ARC
8
DEFAULT_255_1_388
10
21.3278327
20
29.0994801
40
0.6501442
50
278.6622213
51
291.3047061
0
ARC
8
DEFAULT_255_1_388
10
21.2896359
20
29.3411557
40
0.8948168
50
270.0200506
51
278.7494673
0
ARC
8
DEFAULT_255_1_388
10
21.2852563
20
29.5257453
40
1.0794166
50
270.0022372
51
270.2490917
0
ARC
8
DEFAULT_255_1_388
10
21.2810456
20
29.0298827
40
0.5835695
50
253.5785313
51
270.4175629
0
ARC
8
DEFAULT_255_1_388
10
21.2615452
20
28.9543625
40
0.5056241
50
238.8203954
51
253.2788387
0
ARC
8
DEFAULT_255_1_388
10
21.2593367
20
28.9486224
40
0.4995712
50
206.7883476
51
238.696262
0
ARC
8
DEFAULT_255_1_388
10
21.3468763
20
29.0010847
40
0.6014056
50
206.1137778
51
207.4912776
0
ARC
8
DEFAULT_255_1_388
10
21.4135599
20
29.0294284
40
0.6737692
50
188.6922336
51
205.782076
0
ARC
8
DEFAULT_255_1_388
10
21.6223958
20
29.0649455
40
0.8855812
50
180.3881972
51
188.9218085
0
ARC
8
DEFAULT_255_1_388
10
21.7605116
20
29.1800622
40
1.0236965
50
170.2024645
51
180.3561986
0
ARC
8
DEFAULT_255_1_388
10
21.4046266
20
29.2437101
40
0.6621746
50
154.2856519
51
170.3893388
0
ARC
8
DEFAULT_255_1_388
10
21.260423
20
29.3097192
40
0.5036209
50
139.8400879
51
153.9334639
0
ARC
8
DEFAULT_255_1_388
10
21.2200133
20
29.3420716
40
0.4518751
50
98.4190017
51
139.6707015
0
ARC
8
DEFAULT_255_1_388
10
21.2627101
20
29.1344755
40
0.6635912
50
89.7660128
51
99.4415389
0
ARC
8
DEFAULT_255_1_388
10
21.2700497
20
29.1418517
40
0.6562258
50
78.0552044
51
90.4042252
0
ARC
8
DEFAULT_255_1_388
10
21.3155561
20
29.3464661
40
0.4466287
50
54.6380186
51
78.3338577
0
ARC
8
DEFAULT_255_1_388
10
21.3369859
20
29.3825444
40
0.4048184
50
50.0313964
51
54.1562739
0
ARC
8
DEFAULT_255_1_388
10
21.3248753
20
29.3716798
40
0.4209308
50
18.1092229
51
49.7179911
0
ARC
8
DEFAULT_255_1_388
10
21.1609833
20
29.3116399
40
0.5953982
50
7.967396
51
18.698492
0
ARC
8
DEFAULT_255_1_388
10
21.1779094
20
29.3255236
40
0.4050986
50
9.7558763
51
27.3214087
0
ARC
8
DEFAULT_255_1_388
10
21.3047559
20
29.3889087
40
0.2633168
50
27.736147
51
84.5257861
0
ARC
8
DEFAULT_255_1_388
10
21.2678968
20
29.2039988
40
0.4513019
50
82.1064239
51
90.1997295
0
ARC
8
DEFAULT_255_1_388
10
21.2622985
20
29.2611501
40
0.3941684
50
89.4148952
51
105.5824837
0
ARC
8
DEFAULT_255_1_388
10
21.2333865
20
29.3664043
40
0.2850167
50
105.6678541
51
144.2649156
0
ARC
8
DEFAULT_255_1_388
10
21.3338758
20
29.2949024
40
0.4083468
50
144.3560675
51
162.8564185
0
ARC
8
DEFAULT_255_1_388
10
21.56832
20
29.2196083
40
0.6545749
50
162.6076338
51
173.6779811
0
ARC
8
DEFAULT_255_1_388
10
21.9127315
20
29.1777422
40
1.0015089
50
173.4670996
51
179.9729015
0
ARC
8
DEFAULT_255_1_388
10
21.6980186
20
29.0659636
40
0.78681
50
179.6556955
51
190.007958
0
ARC
8
DEFAULT_255_1_388
10
21.4374468
20
29.018166
40
0.5218997
50
189.8117884
51
206.6795375
0
ARC
8
DEFAULT_255_1_388
10
21.3423914
20
28.9738514
40
0.4170788
50
207.1031171
51
217.7074698
0
ARC
8
DEFAULT_255_1_388
10
21.2710344
20
28.9117596
40
0.3226945
50
216.7345117
51
265.6812141
0
ARC
8
DEFAULT_255_1_388
10
21.2857486
20
29.013503
40
0.4253149
50
264.7367524
51
270.0610826
0
ARC
8
DEFAULT_255_1_388
10
21.2883672
20
29.3330173
40
0.7448321
50
269.8334494
51
276.0538364
0
ARC
8
DEFAULT_255_1_388
10
21.3116534
20
29.1190924
40
0.5296446
50
275.9894423
51
284.4615914
0
ARC
8
DEFAULT_255_1_388
10
21.3338047
20
29.025857
40
0.4338353
50
284.7038488
51
286.4938196
0
ARC
8
DEFAULT_255_1_388
10
21.3797196
20
28.8779371
40
0.2789738
50
286.0770429
51
304.2629628
0
ARC
8
DEFAULT_255_1_388
10
21.3947354
20
28.853368
40
0.2502188
50
304.5886247
51
317.1074126
0
LINE
8
DEFAULT_255_1_388
10
23.0508634
20
29.7799898
11
23.0508634
21
28.4644
0
LINE
8
DEFAULT_255_1_388
10
23.0508634
20
28.4644
11
22.8764755
21
28.4644
0
LINE
8
DEFAULT_255_1_388
10
22.8764755
20
28.4644
11
22.2141627
21
29.4781993
0
LINE
8
DEFAULT_255_1_388
10
22.2141627
20
29.4781993
11
22.2141627
21
28.4644
0
LINE
8
DEFAULT_255_1_388
10
22.2141627
20
28.4644
11
22.0397748
21
28.4644
0
LINE
8
DEFAULT_255_1_388
10
22.0397748
20
28.4644
11
22.0397748
21
29.7799898
0
LINE
8
DEFAULT_255_1_388
10
22.0397748
20
29.7799898
11
22.2141627
21
29.7799898
0
LINE
8
DEFAULT_255_1_388
10
22.2141627
20
29.7799898
11
22.8782826
21
28.7616727
0
LINE
8
DEFAULT_255_1_388
10
22.8782826
20
28.7616727
11
22.8782826
21
29.7799898
0
LINE
8
DEFAULT_255_1_388
10
22.8782826
20
29.7799898
11
23.0508634
21
29.7799898
0
LINE
8
DEFAULT_255_1_388
10
23.7231154
20
28.4644
11
23.3589789
21
28.4644
0
LINE
8
DEFAULT_255_1_388
10
23.3589789
20
28.4644
11
23.3589789
21
29.7799898
0
LINE
8
DEFAULT_255_1_388
10
23.3589789
20
29.7799898
11
23.7303439
21
29.7799898
0
LINE
8
DEFAULT_255_1_388
10
24.3104323
20
29.1664696
11
24.3104323
21
29.0824381
0
LINE
8
DEFAULT_255_1_388
10
23.7348617
20
29.6372267
11
23.5324633
21
29.6372267
0
LINE
8
DEFAULT_255_1_388
10
23.5324633
20
29.6372267
11
23.5324633
21
28.6062596
0
LINE
8
DEFAULT_255_1_388
10
23.5324633
20
28.6062596
11
23.7149833
21
28.6062596
0
LINE
8
DEFAULT_255_1_388
10
24.138755
20
29.0860523
11
24.138755
21
29.1628553
0
ARC
8
DEFAULT_255_1_388
10
23.7347234
20
29.1201436
40
0.6598608
50
75.4100343
51
90.3802731
0
ARC
8
DEFAULT_255_1_388
10
23.7605479
20
29.2277691
40
0.5492049
50
60.1455157
51
75.1889627
0
ARC
8
DEFAULT_255_1_388
10
23.7784071
20
29.2588914
40
0.5133226
50
26.525419
51
60.1451222
0
ARC
8
DEFAULT_255_1_388
10
23.6523857
20
29.1920642
40
0.6559324
50
7.4029944
51
26.832209
0
ARC
8
DEFAULT_255_1_388
10
23.4730254
20
29.1641229
40
0.8374103
50
0.1605597
51
7.7176135
0
ARC
8
DEFAULT_255_1_388
10
23.4914654
20
29.0781321
40
0.8189782
50
348.7289744
51
0.30125
0
ARC
8
DEFAULT_255_1_388
10
23.6778118
20
29.0411156
40
0.628991
50
333.0706936
51
348.7181455
0
ARC
8
DEFAULT_255_1_388
10
23.7865747
20
28.9820449
40
0.5052808
50
299.2531435
51
333.4571133
0
ARC
8
DEFAULT_255_1_388
10
23.7459777
20
29.0591629
40
0.5924066
50
278.1072193
51
299.0340218
0
ARC
8
DEFAULT_255_1_388
10
23.7171826
20
29.2287979
40
0.7644209
50
270.4446841
51
278.4508355
0
ARC
8
DEFAULT_255_1_388
10
23.719531
20
29.12423
40
0.5179903
50
269.4969684
51
284.0204874
0
ARC
8
DEFAULT_255_1_388
10
23.7595028
20
28.9706415
40
0.3592968
50
283.7699076
51
318.1557121
0
ARC
8
DEFAULT_255_1_388
10
23.7215573
20
28.9990399
40
0.4065308
50
318.7417595
51
343.687252
0
ARC
8
DEFAULT_255_1_388
10
23.5186152
20
29.0624275
40
0.6191194
50
343.3324891
51
355.8548594
0
ARC
8
DEFAULT_255_1_388
10
23.282519
20
29.0848719
40
0.856237
50
355.4988754
51
0.0789913
0
ARC
8
DEFAULT_255_1_388
10
23.3705989
20
29.167608
40
0.7681709
50
359.6455047
51
9.8607559
0
ARC
8
DEFAULT_255_1_388
10
23.6361712
20
29.2155664
40
0.498312
50
9.6573037
51
26.1931522
0
ARC
8
DEFAULT_255_1_388
10
23.7405787
20
29.2640587
40
0.3832303
50
26.5777895
51
40.1533752
0
ARC
8
DEFAULT_255_1_388
10
23.7693452
20
29.286502
40
0.3467742
50
40.3839958
51
80.1430923
0
ARC
8
DEFAULT_255_1_388
10
23.7325708
20
29.1234486
40
0.5137832
50
79.2153636
51
89.7445174
0
ENDSEC
0
EOF