0
SECTION
2
HEADER
9
$MEASUREMENT
70
1
0
ENDSEC
0
SECTION
2
TABLES
0
TABLE
2
LTYPE
0
LTYPE
72
65
70
64
2
CONTINUOUS
3
______
73
0
40
0
0
ENDTAB
0
TABLE
2
LAYER
0
LAYER
2
DEFAULT_255_2_778
70
0
62
255
6
CONTINUOUS
0
LAYER
2
DEFAULT_255_1_388
70
0
62
255
6
CONTINUOUS
0
ENDTAB
0
ENDSEC
0
SECTION
2
ENTITIES
0
ARC
8
DEFAULT_255_2_778
10
3.5700693
20
36.1176536
40
0.7914215
50
129.1312896
51
180.1450914
0
ARC
8
DEFAULT_255_2_778
10
3.5703345
20
36.1181407
40
0.7912112
50
89.854026
51
129.1684493
0
ARC
8
DEFAULT_255_2_778
10
25.7993937
20
36.1178272
40
0.7915249
50
39.4792447
51
90.147911
0
ARC
8
DEFAULT_255_2_778
10
25.7999935
20
36.1176739
40
0.7911595
50
359.8533901
51
39.5154338
0
ARC
8
DEFAULT_255_2_778
10
25.7996693
20
-1.9863987
40
0.7914836
50
309.4761667
51
0.1482649
0
ARC
8
DEFAULT_255_2_778
10
25.799398
20
-1.9868298
40
0.7913235
50
269.8517415
51
309.511178
0
ARC
8
DEFAULT_255_2_778
10
3.570342
20
-1.9867716
40
0.7913815
50
219.1282118
51
270.1454017
0
ARC
8
DEFAULT_255_2_778
10
3.5700247
20
-1.9863891
40
0.7913769
50
179.8524075
51
219.1641908
0
LINE
8
DEFAULT_255_2_778
10
3.5723503
20
36.9093494
11
25.7973503
21
36.9093494
0
LINE
8
DEFAULT_255_2_778
10
26.5911503
20
36.1156494
11
26.5911503
21
-1.9843506
0
LINE
8
DEFAULT_255_2_778
10
25.7973503
20
-2.7781506
11
3.5723503
21
-2.7781506
0
LINE
8
DEFAULT_255_2_778
10
2.7786503
20
-1.9843506
11
2.7786503
21
36.1156494
0
LINE
8
DEFAULT_255_1_388
10
9.2827389
20
-0.6398
11
8.9186024
21
-0.6398
0
LINE
8
DEFAULT_255_1_388
10
8.9186024
20
-0.6398
11
8.9186024
21
0.6757898
0
LINE
8
DEFAULT_255_1_388
10
8.9186024
20
0.6757898
11
9.2899674
21
0.6757898
0
LINE
8
DEFAULT_255_1_388
10
9.8700558
20
0.0622696
11
9.8700558
21
-0.0217619
0
LINE
8
DEFAULT_255_1_388
10
9.2944852
20
0.5330267
11
9.0920868
21
0.5330267
0
LINE
8
DEFAULT_255_1_388
10
9.0920868
20
0.5330267
11
9.0920868
21
-0.4979404
0
LINE
8
DEFAULT_255_1_388
10
9.0920868
20
-0.4979404
11
9.2746068
21
-0.4979404
0
LINE
8
DEFAULT_255_1_388
10
9.6983785
20
-0.0181477
11
9.6983785
21
0.0586553
0
ARC
8
DEFAULT_255_1_388
10
9.2943469
20
0.0159436
40
0.6598608
50
75.4100343
51
90.3802731
0
ARC
8
DEFAULT_255_1_388
10
9.3201714
20
0.1235691
40
0.5492049
50
60.1455157
51
75.1889627
0
ARC
8
DEFAULT_255_1_388
10
9.3380306
20
0.1546914
40
0.5133226
50
26.525419
51
60.1451222
0
ARC
8
DEFAULT_255_1_388
10
9.2120092
20
0.0878642
40
0.6559324
50
7.4029944
51
26.832209
0
ARC
8
DEFAULT_255_1_388
10
9.0326489
20
0.0599229
40
0.8374103
50
0.1605597
51
7.7176135
0
ARC
8
DEFAULT_255_1_388
10
9.0510889
20
-0.0260679
40
0.8189782
50
348.7289744
51
0.30125
0
ARC
8
DEFAULT_255_1_388
10
9.2374353
20
-0.0630844
40
0.628991
50
333.0706936
51
348.7181455
0
ARC
8
DEFAULT_255_1_388
10
9.3461981
20
-0.1221551
40
0.5052808
50
299.2531435
51
333.4571133
0
ARC
8
DEFAULT_255_1_388
10
9.3056012
20
-0.0450371
40
0.5924066
50
278.1072193
51
299.0340218
0
ARC
8
DEFAULT_255_1_388
10
9.2768061
20
0.1245979
40
0.7644209
50
270.4446841
51
278.4508355
0
ARC
8
DEFAULT_255_1_388
10
9.2791545
20
0.02003
40
0.5179903
50
269.4969684
51
284.0204874
0
ARC
8
DEFAULT_255_1_388
10
9.3191263
20
-0.1335585
40
0.3592968
50
283.7699076
51
318.1557121
0
ARC
8
DEFAULT_255_1_388
10
9.2811808
20
-0.1051601
40
0.4065308
50
318.7417595
51
343.687252
0
ARC
8
DEFAULT_255_1_388
10
9.0782387
20
-0.0417725
40
0.6191194
50
343.3324891
51
355.8548594
0
ARC
8
DEFAULT_255_1_388
10
8.8421424
20
-0.0193281
40
0.856237
50
355.4988754
51
0.0789913
0
ARC
8
DEFAULT_255_1_388
10
8.9302224
20
0.063408
40
0.7681709
50
359.6455047
51
9.8607559
0
ARC
8
DEFAULT_255_1_388
10
9.1957947
20
0.1113664
40
0.498312
50
9.6573037
51
26.1931522
0
ARC
8
DEFAULT_255_1_388
10
9.3002022
20
0.1598587
40
0.3832303
50
26.5777895
51
40.1533752
0
ARC
8
DEFAULT_255_1_388
10
9.3289687
20
0.182302
40
0.3467742
50
40.3839958
51
80.1430923
0
ARC
8
DEFAULT_255_1_388
10
9.2921942
20
0.0192486
40
0.5137832
50
79.2153636
51
89.7445174
0
LINE
8
DEFAULT_255_1_388
10
10.9136727
20
0.138169
11
10.9136727
21
-0.0786865
0
LINE
8
DEFAULT_255_1_388
10
10.083297
20
-0.1012756
11
10.083297
21
0.1219048
0
LINE
8
DEFAULT_255_1_388
10
10.7465133
20
-0.1238647
11
10.7465133
21
0.1499153
0
LINE
8
DEFAULT_255_1_388
10
10.2504564
20
0.1625652
11
10.2504564
21
-0.1048898
0
ARC
8
DEFAULT_255_1_388
10
9.5359061
20
-0.0841882
40
1.3777776
50
353.8440855
51
0.2287917
0
ARC
8
DEFAULT_255_1_388
10
10.0578078
20
-0.1424586
40
0.852639
50
344.4934746
51
353.9763743
0
ARC
8
DEFAULT_255_1_388
10
10.3944886
20
-0.2381809
40
0.5026273
50
329.2803599
51
344.7473406
0
ARC
8
DEFAULT_255_1_388
10
10.5060381
20
-0.2993962
40
0.3754848
50
324.9361395
51
328.6153007
0
ARC
8
DEFAULT_255_1_388
10
10.5486031
20
-0.3291414
40
0.3235566
50
280.5801797
51
324.9173226
0
ARC
8
DEFAULT_255_1_388
10
10.503466
20
-0.1411764
40
0.5167077
50
269.5979457
51
281.6732777
0
ARC
8
DEFAULT_255_1_388
10
10.4953563
20
-0.1546887
40
0.5032026
50
256.6228565
51
270.5105488
0
ARC
8
DEFAULT_255_1_388
10
10.4501306
20
-0.3288655
40
0.3233092
50
215.8618351
51
257.2787793
0
ARC
8
DEFAULT_255_1_388
10
10.5650013
20
-0.2517894
40
0.4615831
50
197.9695203
51
215.2622745
0
ARC
8
DEFAULT_255_1_388
10
10.8445689
20
-0.1574359
40
0.7566307
50
187.8816486
51
198.2346584
0
ARC
8
DEFAULT_255_1_388
10
11.2898927
20
-0.0931547
40
1.2065653
50
180.8977266
51
188.0054894
0
ARC
8
DEFAULT_255_1_388
10
11.5949141
20
-0.08166
40
1.5117443
50
180.7434591
51
181.152202
0
ARC
8
DEFAULT_255_1_388
10
11.4274137
20
0.1273371
40
1.3441277
50
173.7674302
51
180.2315596
0
ARC
8
DEFAULT_255_1_388
10
10.9192005
20
0.1847779
40
0.8326847
50
164.3058537
51
173.9000553
0
ARC
8
DEFAULT_255_1_388
10
10.5916005
20
0.2791652
40
0.4917711
50
148.7922028
51
164.5682288
0
ARC
8
DEFAULT_255_1_388
10
10.4846743
20
0.3388457
40
0.3694204
50
144.5883979
51
148.1161588
0
ARC
8
DEFAULT_255_1_388
10
10.4459488
20
0.3658667
40
0.322202
50
101.6440149
51
144.5142619
0
ARC
8
DEFAULT_255_1_388
10
10.493768
20
0.1758337
40
0.5180451
50
89.528284
51
102.5820197
0
ARC
8
DEFAULT_255_1_388
10
10.5026672
20
0.1714376
40
0.5224441
50
77.0437914
51
90.508231
0
ARC
8
DEFAULT_255_1_388
10
10.5478926
20
0.3562272
40
0.3322297
50
48.2777708
51
77.4996087
0
ARC
8
DEFAULT_255_1_388
10
10.5560666
20
0.3707557
40
0.315966
50
36.3141586
51
47.6307332
0
ARC
8
DEFAULT_255_1_388
10
10.4583388
20
0.3049159
40
0.4337313
50
18.2931065
51
35.6770203
0
ARC
8
DEFAULT_255_1_388
10
10.1722229
20
0.2067107
40
0.7362203
50
8.0246996
51
18.5605636
0
ARC
8
DEFAULT_255_1_388
10
9.7038585
20
0.1375432
40
1.2096583
50
1.127539
51
8.1718423
0
ARC
8
DEFAULT_255_1_388
10
9.3389718
20
0.1232374
40
1.5747719
50
0.5432713
51
1.38669
0
ARC
8
DEFAULT_255_1_388
10
9.5447097
20
0.1539163
40
1.2018103
50
359.8092569
51
4.9408001
0
ARC
8
DEFAULT_255_1_388
10
10.0183678
20
0.19619
40
0.7262727
50
4.8364937
51
12.2906017
0
ARC
8
DEFAULT_255_1_388
10
10.3283143
20
0.2652485
40
0.4087324
50
12.0806994
51
23.8171225
0
ARC
8
DEFAULT_255_1_388
10
10.4603539
20
0.3211508
40
0.2653719
50
24.2874621
51
31.3934353
0
ARC
8
DEFAULT_255_1_388
10
10.5193975
20
0.3597822
40
0.1948607
50
30.7407708
51
82.4658033
0
ARC
8
DEFAULT_255_1_388
10
10.4991635
20
0.2604017
40
0.2961198
50
81.1057101
51
90.2187368
0
ARC
8
DEFAULT_255_1_388
10
10.4951447
20
0.2894421
40
0.2670929
50
89.380395
51
105.6763916
0
ARC
8
DEFAULT_255_1_388
10
10.4745169
20
0.364432
40
0.1893189
50
105.7980655
51
149.7387869
0
ARC
8
DEFAULT_255_1_388
10
10.5942309
20
0.2924719
40
0.3289892
50
149.4208441
51
163.628295
0
ARC
8
DEFAULT_255_1_388
10
10.8294539
20
0.2207345
40
0.5749004
50
163.3764549
51
172.141138
0
ARC
8
DEFAULT_255_1_388
10
11.200726
20
0.1675582
40
0.9499585
50
172.0258462
51
178.0705453
0
ARC
8
DEFAULT_255_1_388
10
11.5428813
20
0.1513682
40
1.2924734
50
177.8639301
51
179.5036263
0
ARC
8
DEFAULT_255_1_388
10
11.4209832
20
-0.1089849
40
1.170534
50
179.7995545
51
185.246089
0
ARC
8
DEFAULT_255_1_388
10
10.9661425
20
-0.1520596
40
0.7136613
50
185.1411911
51
193.0082205
0
ARC
8
DEFAULT_255_1_388
10
10.6687686
20
-0.2223559
40
0.4080987
50
192.7897338
51
205.2507384
0
ARC
8
DEFAULT_255_1_388
10
10.5509896
20
-0.2749462
40
0.2791522
50
205.8001921
51
211.2545876
0
ARC
8
DEFAULT_255_1_388
10
10.4921435
20
-0.3143868
40
0.2084074
50
210.3789935
51
238.4007996
0
ARC
8
DEFAULT_255_1_388
10
10.4899521
20
-0.3091214
40
0.2117943
50
239.6521916
51
265.9793852
0
ARC
8
DEFAULT_255_1_388
10
10.499537
20
-0.2334642
40
0.2879689
50
265.1324455
51
270.0603288
0
ARC
8
DEFAULT_255_1_388
10
10.5027747
20
-0.2699582
40
0.2514919
50
269.3314378
51
287.2180039
0
ARC
8
DEFAULT_255_1_388
10
10.5182829
20
-0.3265709
40
0.1928357
50
287.7957942
51
329.0808983
0
ARC
8
DEFAULT_255_1_388
10
10.4105586
20
-0.2593349
40
0.319808
50
328.6635261
51
343.3325043
0
ARC
8
DEFAULT_255_1_388
10
10.1661045
20
-0.1831805
40
0.5758408
50
343.0498092
51
351.9392499
0
ARC
8
DEFAULT_255_1_388
10
9.7760366
20
-0.1256795
40
0.9701202
50
351.8071632
51
357.7957897
0
ARC
8
DEFAULT_255_1_388
10
9.4125843
20
-0.1068276
40
1.3340376
50
357.5870923
51
359.2682493
0
LINE
8
DEFAULT_255_1_388
10
11.4928575
20
-0.0127263
11
11.4928575
21
-0.1491645
0
LINE
8
DEFAULT_255_1_388
10
11.4928575
20
-0.1491645
11
11.0519181
21
-0.1491645
0
LINE
8
DEFAULT_255_1_388
10
11.0519181
20
-0.1491645
11
11.0519181
21
-0.0127263
0
LINE
8
DEFAULT_255_1_388
10
11.0519181
20
-0.0127263
11
11.4928575
21
-0.0127263
0
LINE
8
DEFAULT_255_1_388
10
12.045839
20
-0.6398
11
11.6817025
21
-0.6398
0
LINE
8
DEFAULT_255_1_388
10
11.6817025
20
-0.6398
11
11.6817025
21
0.6757898
0
LINE
8
DEFAULT_255_1_388
10
11.6817025
20
0.6757898
11
12.0530675
21
0.6757898
0
LINE
8
DEFAULT_255_1_388
10
12.6331559
20
0.0622696
11
12.6331559
21
-0.0217619
0
LINE
8
DEFAULT_255_1_388
10
12.0575853
20
0.5330267
11
11.8551869
21
0.5330267
0
LINE
8
DEFAULT_255_1_388
10
11.8551869
20
0.5330267
11
11.8551869
21
-0.4979404
0
LINE
8
DEFAULT_255_1_388
10
11.8551869
20
-0.4979404
11
12.0377069
21
-0.4979404
0
LINE
8
DEFAULT_255_1_388
10
12.4614786
20
-0.0181477
11
12.4614786
21
0.0586553
0
ARC
8
DEFAULT_255_1_388
10
12.057447
20
0.0159436
40
0.6598608
50
75.4100343
51
90.3802731
0
ARC
8
DEFAULT_255_1_388
10
12.0832715
20
0.1235691
40
0.5492049
50
60.1455157
51
75.1889627
0
ARC
8
DEFAULT_255_1_388
10
12.1011307
20
0.1546914
40
0.5133226
50
26.525419
51
60.1451222
0
ARC
8
DEFAULT_255_1_388
10
11.9751093
20
0.0878642
40
0.6559324
50
7.4029944
51
26.832209
0
ARC
8
DEFAULT_255_1_388
10
11.795749
20
0.0599229
40
0.8374103
50
0.1605597
51
7.7176135
0
ARC
8
DEFAULT_255_1_388
10
11.814189
20
-0.0260679
40
0.8189782
50
348.7289744
51
0.30125
0
ARC
8
DEFAULT_255_1_388
10
12.0005354
20
-0.0630844
40
0.628991
50
333.0706936
51
348.7181455
0
ARC
8
DEFAULT_255_1_388
10
12.1092982
20
-0.1221551
40
0.5052808
50
299.2531435
51
333.4571133
0
ARC
8
DEFAULT_255_1_388
10
12.0687013
20
-0.0450371
40
0.5924066
50
278.1072193
51
299.0340218
0
ARC
8
DEFAULT_255_1_388
10
12.0399062
20
0.1245979
40
0.7644209
50
270.4446841
51
278.4508355
0
ARC
8
DEFAULT_255_1_388
10
12.0422546
20
0.02003
40
0.5179903
50
269.4969684
51
284.0204874
0
ARC
8
DEFAULT_255_1_388
10
12.0822264
20
-0.1335585
40
0.3592968
50
283.7699076
51
318.1557121
0
ARC
8
DEFAULT_255_1_388
10
12.0442809
20
-0.1051601
40
0.4065308
50
318.7417595
51
343.687252
0
ARC
8
DEFAULT_255_1_388
10
11.8413388
20
-0.0417725
40
0.6191194
50
343.3324891
51
355.8548594
0
ARC
8
DEFAULT_255_1_388
10
11.6052425
20
-0.0193281
40
0.856237
50
355.4988754
51
0.0789913
0
ARC
8
DEFAULT_255_1_388
10
11.6933225
20
0.063408
40
0.7681709
50
359.6455047
51
9.8607559
0
ARC
8
DEFAULT_255_1_388
10
11.9588948
20
0.1113664
40
0.498312
50
9.6573037
51
26.1931522
0
ARC
8
DEFAULT_255_1_388
10
12.0633023
20
0.1598587
40
0.3832303
50
26.5777895
51
40.1533752
0
ARC
8
DEFAULT_255_1_388
10
12.0920688
20
0.182302
40
0.3467742
50
40.3839958
51
80.1430923
0
ARC
8
DEFAULT_255_1_388
10
12.0552943
20
0.0192486
40
0.5137832
50
79.2153636
51
89.7445174
0
LINE
8
DEFAULT_255_1_388
10
13.6388231
20
0.1101585
11
13.6388231
21
-0.0317011
0
LINE
8
DEFAULT_255_1_388
10
13.6388231
20
-0.0317011
11
13.0686739
21
-0.0317011
0
LINE
8
DEFAULT_255_1_388
10
13.0686739
20
-0.0317011
11
13.0686739
21
-0.4979404
0
LINE
8
DEFAULT_255_1_388
10
13.0686739
20
-0.4979404
11
13.7309867
21
-0.4979404
0
LINE
8
DEFAULT_255_1_388
10
13.7309867
20
-0.4979404
11
13.7309867
21
-0.6398
0
LINE
8
DEFAULT_255_1_388
10
13.7309867
20
-0.6398
11
12.8951896
21
-0.6398
0
LINE
8
DEFAULT_255_1_388
10
12.8951896
20
-0.6398
11
12.8951896
21
0.6757898
0
LINE
8
DEFAULT_255_1_388
10
12.8951896
20
0.6757898
11
13.721951
21
0.6757898
0
LINE
8
DEFAULT_255_1_388
10
13.721951
20
0.6757898
11
13.721951
21
0.5330267
0
LINE
8
DEFAULT_255_1_388
10
13.721951
20
0.5330267
11
13.0686739
21
0.5330267
0
LINE
8
DEFAULT_255_1_388
10
13.0686739
20
0.5330267
11
13.0686739
21
0.1101585
0
LINE
8
DEFAULT_255_1_388
10
13.0686739
20
0.1101585
11
13.6388231
21
0.1101585
0
LINE
8
DEFAULT_255_1_388
10
14.008381
20
0.6757898
11
14.3824566
21
-0.4093911
0
LINE
8
DEFAULT_255_1_388
10
14.3824566
20
-0.4093911
11
14.7583395
21
0.6757898
0
LINE
8
DEFAULT_255_1_388
10
14.7583395
20
0.6757898
11
14.948088
21
0.6757898
0
LINE
8
DEFAULT_255_1_388
10
14.948088
20
0.6757898
11
14.4601632
21
-0.6398
0
LINE
8
DEFAULT_255_1_388
10
14.4601632
20
-0.6398
11
14.3065572
21
-0.6398
0
LINE
8
DEFAULT_255_1_388
10
14.3065572
20
-0.6398
11
13.819536
21
0.6757898
0
LINE
8
DEFAULT_255_1_388
10
13.819536
20
0.6757898
11
14.008381
21
0.6757898
0
LINE
8
DEFAULT_255_1_388
10
16.1353717
20
0.6757898
11
16.1353717
21
-0.6398
0
LINE
8
DEFAULT_255_1_388
10
16.1353717
20
-0.6398
11
15.9609837
21
-0.6398
0
LINE
8
DEFAULT_255_1_388
10
15.9609837
20
-0.6398
11
15.298671
21
0.3739993
0
LINE
8
DEFAULT_255_1_388
10
15.298671
20
0.3739993
11
15.298671
21
-0.6398
0
LINE
8
DEFAULT_255_1_388
10
15.298671
20
-0.6398
11
15.1242831
21
-0.6398
0
LINE
8
DEFAULT_255_1_388
10
15.1242831
20
-0.6398
11
15.1242831
21
0.6757898
0
LINE
8
DEFAULT_255_1_388
10
15.1242831
20
0.6757898
11
15.298671
21
0.6757898
0
LINE
8
DEFAULT_255_1_388
10
15.298671
20
0.6757898
11
15.9627909
21
-0.3425273
0
LINE
8
DEFAULT_255_1_388
10
15.9627909
20
-0.3425273
11
15.9627909
21
0.6757898
0
LINE
8
DEFAULT_255_1_388
10
15.9627909
20
0.6757898
11
16.1353717
21
0.6757898
0
LINE
8
DEFAULT_255_1_388
10
17.1871207
20
0.1101585
11
17.1871207
21
-0.0317011
0
LINE
8
DEFAULT_255_1_388
10
17.1871207
20
-0.0317011
11
16.6169715
21
-0.0317011
0
LINE
8
DEFAULT_255_1_388
10
16.6169715
20
-0.0317011
11
16.6169715
21
-0.4979404
0
LINE
8
DEFAULT_255_1_388
10
16.6169715
20
-0.4979404
11
17.2792843
21
-0.4979404
0
LINE
8
DEFAULT_255_1_388
10
17.2792843
20
-0.4979404
11
17.2792843
21
-0.6398
0
LINE
8
DEFAULT_255_1_388
10
17.2792843
20
-0.6398
11
16.4434872
21
-0.6398
0
LINE
8
DEFAULT_255_1_388
10
16.4434872
20
-0.6398
11
16.4434872
21
0.6757898
0
LINE
8
DEFAULT_255_1_388
10
16.4434872
20
0.6757898
11
17.2702486
21
0.6757898
0
LINE
8
DEFAULT_255_1_388
10
17.2702486
20
0.6757898
11
17.2702486
21
0.5330267
0
LINE
8
DEFAULT_255_1_388
10
17.2702486
20
0.5330267
11
16.6169715
21
0.5330267
0
LINE
8
DEFAULT_255_1_388
10
16.6169715
20
0.5330267
11
16.6169715
21
0.1101585
0
LINE
8
DEFAULT_255_1_388
10
16.6169715
20
0.1101585
11
17.1871207
21
0.1101585
0
LINE
8
DEFAULT_255_1_388
10
18.4222933
20
0.6757898
11
18.4222933
21
0.5330267
0
LINE
8
DEFAULT_255_1_388
10
18.4222933
20
0.5330267
11
17.9994251
21
0.5330267
0
LINE
8
DEFAULT_255_1_388
10
17.9994251
20
0.5330267
11
17.9994251
21
-0.6398
0
LINE
8
DEFAULT_255_1_388
10
17.9994251
20
-0.6398
11
17.8268443
21
-0.6398
0
LINE
8
DEFAULT_255_1_388
10
17.8268443
20
-0.6398
11
17.8268443
21
0.5330267
0
LINE
8
DEFAULT_255_1_388
10
17.8268443
20
0.5330267
11
17.4048797
21
0.5330267
0
LINE
8
DEFAULT_255_1_388
10
17.4048797
20
0.5330267
11
17.4048797
21
0.6757898
0
LINE
8
DEFAULT_255_1_388
10
17.4048797
20
0.6757898
11
18.4222933
21
0.6757898
0
LINE
8
DEFAULT_255_1_388
10
19.4758495
20
0.2953892
11
19.3014615
21
0.2953892
0
LINE
8
DEFAULT_255_1_388
10
18.522589
20
-0.2584958
11
18.6969769
21
-0.2584958
0
ARC
8
DEFAULT_255_1_388
10
19.3755342
20
1.3017821
40
1.4087688
50
248.9196578
51
254.1442424
0
ARC
8
DEFAULT_255_1_388
10
19.1865222
20
0.8151805
40
0.8867498
50
241.6337352
51
249.0064643
0
ARC
8
DEFAULT_255_1_388
10
19.0145536
20
0.5000764
40
0.5277799
50
230.4982261
51
241.8087583
0
ARC
8
DEFAULT_255_1_388
10
18.9263307
20
0.3876686
40
0.3849419
50
227.4062979
51
229.9877433
0
ARC
8
DEFAULT_255_1_388
10
18.8714653
20
0.3341155
40
0.3084129
50
200.6782127
51
228.1765252
0
ARC
8
DEFAULT_255_1_388
10
18.8796022
20
0.3324277
40
0.315461
50
179.506278
51
199.8695278
0
ARC
8
DEFAULT_255_1_388
10
18.8785611
20
0.3407671
40
0.3144584
50
132.4834401
51
181.0242352
0
ARC
8
DEFAULT_255_1_388
10
18.9454815
20
0.2775788
40
0.4063094
50
129.2526113
51
133.4249077
0
ARC
8
DEFAULT_255_1_388
10
18.9620408
20
0.2527619
40
0.436014
50
101.9878945
51
128.8741833
0
ARC
8
DEFAULT_255_1_388
10
19.0068823
20
0.059136
40
0.6347415
50
89.5906376
51
102.3170567
0
ARC
8
DEFAULT_255_1_388
10
19.0148135
20
0.0949586
40
0.5989122
50
77.2359491
51
90.3248968
0
ARC
8
DEFAULT_255_1_388
10
19.0381066
20
0.2037554
40
0.4876594
50
63.8379856
51
77.0808925
0
ARC
8
DEFAULT_255_1_388
10
19.0693599
20
0.2619882
40
0.4216191
50
45.9863127
51
64.1608798
0
ARC
8
DEFAULT_255_1_388
10
19.0986993
20
0.295499
40
0.3771394
50
32.2747934
51
45.6544796
0
ARC
8
DEFAULT_255_1_388
10
19.1061799
20
0.2976426
40
0.3696765
50
359.6507495
51
32.6129943
0
ARC
8
DEFAULT_255_1_388
10
19.0000982
20
0.2981788
40
0.3013762
50
359.469654
51
14.983205
0
ARC
8
DEFAULT_255_1_388
10
19.0794234
20
0.3194288
40
0.2192542
50
14.9781954
51
48.2004799
0
ARC
8
DEFAULT_255_1_388
10
19.0609345
20
0.2961937
40
0.2489048
50
48.5926661
51
74.1242559
0
ARC
8
DEFAULT_255_1_388
10
19.0234148
20
0.1723607
40
0.3782845
50
73.7889321
51
86.6653996
0
ARC
8
DEFAULT_255_1_388
10
19.0118962
20
0.0365955
40
0.5145025
50
86.2642725
51
90.0533288
0
ARC
8
DEFAULT_255_1_388
10
19.0087055
20
0.0810376
40
0.4700681
50
89.669455
51
99.2313411
0
ARC
8
DEFAULT_255_1_388
10
18.9814215
20
0.2435401
40
0.3052945
50
99.0695987
51
113.7659242
0
ARC
8
DEFAULT_255_1_388
10
18.9506209
20
0.3161772
40
0.226407
50
114.0402885
51
127.9848946
0
ARC
8
DEFAULT_255_1_388
10
18.9235685
20
0.3494884
40
0.1835045
50
127.7287217
51
176.7106493
0
ARC
8
DEFAULT_255_1_388
10
18.999935
20
0.338121
40
0.2604907
50
175.1780759
51
180.0581213
0
ARC
8
DEFAULT_255_1_388
10
18.9050694
20
0.3367411
40
0.1656287
50
179.6140658
51
228.124674
0
ARC
8
DEFAULT_255_1_388
10
18.9548051
20
0.382794
40
0.2332038
50
226.5785315
51
230.8792476
0
ARC
8
DEFAULT_255_1_388
10
19.0077538
20
0.4530908
40
0.3211664
50
231.4636401
51
241.9261664
0
ARC
8
DEFAULT_255_1_388
10
19.1424321
20
0.7009349
40
0.6032345
50
241.7177136
51
248.3259138
0
ARC
8
DEFAULT_255_1_388
10
19.2982916
20
1.0870771
40
1.0196417
50
248.2007377
51
252.4527713
0
ARC
8
DEFAULT_255_1_388
10
19.4336443
20
1.5055092
40
1.4594143
50
252.3388938
51
254.347037
0
ARC
8
DEFAULT_255_1_388
10
18.5851743
20
-1.5292905
40
1.6917621
50
71.0197462
51
74.4085467
0
ARC
8
DEFAULT_255_1_388
10
18.7758831
20
-0.9787856
40
1.1091618
50
66.1845203
51
71.086519
0
ARC
8
DEFAULT_255_1_388
10
18.950938
20
-0.5846561
40
0.6779073
50
59.3537334
51
66.269255
0
ARC
8
DEFAULT_255_1_388
10
19.0509106
20
-0.4155223
40
0.4814366
50
49.1021732
51
59.3294421
0
ARC
8
DEFAULT_255_1_388
10
19.1430094
20
-0.3105425
40
0.3417875
50
32.7924183
51
49.2503526
0
ARC
8
DEFAULT_255_1_388
10
19.1779708
20
-0.2855689
40
0.2988789
50
31.121225
51
32.3977355
0
ARC
8
DEFAULT_255_1_388
10
19.1691886
20
-0.2888272
40
0.3080861
50
8.1116803
51
30.7958224
0
ARC
8
DEFAULT_255_1_388
10
19.0780232
20
-0.3043563
40
0.4005385
50
359.8390945
51
8.4707348
0
ARC
8
DEFAULT_255_1_388
10
19.148428
20
-0.3098249
40
0.3301608
50
337.4732479
51
0.7538283
0
ARC
8
DEFAULT_255_1_388
10
19.1685305
20
-0.3120446
40
0.3107929
50
307.5917028
51
336.4313755
0
ARC
8
DEFAULT_255_1_388
10
19.1174363
20
-0.2552491
40
0.3870096
50
307.6560665
51
308.4561779
0
ARC
8
DEFAULT_255_1_388
10
19.0908579
20
-0.2144168
40
0.435591
50
284.3733666
51
307.1426212
0
ARC
8
DEFAULT_255_1_388
10
19.0351473
20
-0.0094609
40
0.6479685
50
272.4384566
51
284.6464689
0
ARC
8
DEFAULT_255_1_388
10
19.0208858
20
0.1929434
40
0.8508149
50
269.9708517
51
272.8180721
0
ARC
8
DEFAULT_255_1_388
10
19.0160541
20
-0.0362717
40
0.6216151
50
248.2707343
51
270.4054609
0
ARC
8
DEFAULT_255_1_388
10
19.0099412
20
-0.0577327
40
0.5994203
50
246.1380358
51
248.054058
0
ARC
8
DEFAULT_255_1_388
10
18.9628555
20
-0.1566295
40
0.4899388
50
233.1671897
51
246.4951656
0
ARC
8
DEFAULT_255_1_388
10
18.900519
20
-0.2407863
40
0.3852115
50
215.3403381
51
233.084328
0
ARC
8
DEFAULT_255_1_388
10
18.8698554
20
-0.2630907
40
0.3472969
50
179.2419235
51
215.2648426
0
ARC
8
DEFAULT_255_1_388
10
18.9562105
20
-0.2615021
40
0.259251
50
179.3355796
51
199.1045873
0
ARC
8
DEFAULT_255_1_388
10
18.9188247
20
-0.2712777
40
0.2207454
50
199.8830064
51
232.7061328
0
ARC
8
DEFAULT_255_1_388
10
18.9719521
20
-0.2044544
40
0.306101
50
232.3736206
51
255.5136621
0
ARC
8
DEFAULT_255_1_388
10
19.0103027
20
-0.0644823
40
0.4512213
50
255.2447928
51
267.5318292
0
ARC
8
DEFAULT_255_1_388
10
19.0201494
20
0.0741709
40
0.5901825
50
267.1564563
51
270.0294721
0
ARC
8
DEFAULT_255_1_388
10
19.0232819
20
0.0242623
40
0.5402814
50
269.6999944
51
278.1662446
0
ARC
8
DEFAULT_255_1_388
10
19.0520847
20
-0.1704026
40
0.3435003
50
278.0229022
51
290.6255326
0
ARC
8
DEFAULT_255_1_388
10
19.0912013
20
-0.2747453
40
0.2320666
50
290.6616368
51
307.0374127
0
ARC
8
DEFAULT_255_1_388
10
19.1249913
20
-0.316196
40
0.1786372
50
306.3942078
51
355.303191
0
ARC
8
DEFAULT_255_1_388
10
19.0674206
20
-0.3075814
40
0.2367516
50
354.3662092
51
0.0709489
0
ARC
8
DEFAULT_255_1_388
10
19.0834075
20
-0.3050439
40
0.2207761
50
359.4175379
51
16.1975911
0
ARC
8
DEFAULT_255_1_388
10
19.1346193
20
-0.2910046
40
0.1676828
50
16.4721294
51
52.6261798
0
ARC
8
DEFAULT_255_1_388
10
19.04227
20
-0.4129394
40
0.3206412
50
52.7381828
51
62.4979144
0
ARC
8
DEFAULT_255_1_388
10
18.8864453
20
-0.7061764
40
0.6527035
50
62.2517425
51
68.1219454
0
ARC
8
DEFAULT_255_1_388
10
18.6929941
20
-1.1816049
40
1.1659797
50
68.006043
51
71.8055127
0
ARC
8
DEFAULT_255_1_388
10
18.4909849
20
-1.7874277
40
1.8045908
50
71.718361
51
73.9260743
0
ARC
8
DEFAULT_255_2_778
10
13.4953021
20
34.1985533
40
2.3035416
50
339.8907409
51
346.994376
0
ARC
8
DEFAULT_255_2_778
10
14.4646357
20
33.8384276
40
1.2694939
50
328.7691853
51
340.1120733
0
ARC
8
DEFAULT_255_2_778
10
14.9922733
20
33.5117249
40
0.6489533
50
308.240385
51
329.2799976
0
ARC
8
DEFAULT_255_2_778
10
15.1335254
20
33.3428956
40
0.42897
50
290.2149747
51
307.3797345
0
ARC
8
DEFAULT_255_2_778
10
14.8550836
20
33.6055832
40
0.5085768
50
279.0582472
51
335.0254579
0
ARC
8
DEFAULT_255_2_778
10
14.4035606
20
33.8538036
40
1.0232605
50
333.100566
51
347.4967948
0
ARC
8
DEFAULT_255_2_778
10
13.9267879
20
33.9777273
40
1.515659
50
346.8251736
51
349.6433145
0
ARC
8
DEFAULT_255_2_778
10
16.7325297
20
34.2502541
40
0.6340004
50
90.2418805
51
180.4975197
0
ARC
8
DEFAULT_255_2_778
10
16.7271765
20
34.250254
40
0.6340006
50
359.5024881
51
89.7581009
0
ARC
8
DEFAULT_255_2_778
10
16.7271768
20
34.2392436
40
0.6340003
50
270.2418684
51
0.4975336
0
ARC
8
DEFAULT_255_2_778
10
16.7325299
20
34.2392437
40
0.6340005
50
179.5024805
51
269.758104
0
ARC
8
DEFAULT_255_2_778
10
17.1189581
20
34.2646235
40
0.5748535
50
158.6224664
51
180.7450103
0
ARC
8
DEFAULT_255_2_778
10
16.8143054
20
34.3916995
40
0.2449488
50
125.6968143
51
160.3264119
0
ARC
8
DEFAULT_255_2_778
10
16.7310393
20
34.4984868
40
0.1097683
50
90.6191325
51
122.9231799
0
ARC
8
DEFAULT_255_2_778
10
16.7161984
20
34.4603461
40
0.1485318
50
26.6299238
51
84.7252528
0
ARC
8
DEFAULT_255_2_778
10
16.4561415
20
34.294902
40
0.4562354
50
6.9672199
51
30.5675002
0
ARC
8
DEFAULT_255_2_778
10
16.261361
20
34.2579325
40
0.6541928
50
359.9313724
51
8.1119436
0
ARC
8
DEFAULT_255_2_778
10
16.3407903
20
34.2497075
40
0.5748111
50
338.6217917
51
0.7417631
0
ARC
8
DEFAULT_255_2_778
10
16.6452775
20
34.1226776
40
0.2450776
50
305.7107467
51
340.3279893
0
ARC
8
DEFAULT_255_2_778
10
16.7286626
20
34.0157757
40
0.1097331
50
270.6216799
51
302.9378787
0
ARC
8
DEFAULT_255_2_778
10
16.7435343
20
34.0539636
40
0.148546
50
206.6181959
51
264.7155805
0
ARC
8
DEFAULT_255_2_778
10
17.0037331
20
34.2194852
40
0.456409
50
186.9714802
51
210.5628916
0
ARC
8
DEFAULT_255_2_778
10
17.1979553
20
34.2563721
40
0.6538026
50
179.9319269
51
188.1143536
0
ARC
8
DEFAULT_255_2_778
10
14.2076298
20
34.2502541
40
0.6340005
50
90.2418914
51
180.4975151
0
ARC
8
DEFAULT_255_2_778
10
14.2022765
20
34.250254
40
0.6340006
50
359.5024881
51
89.7581009
0
ARC
8
DEFAULT_255_2_778
10
14.2022768
20
34.2392436
40
0.6340003
50
270.2418684
51
0.4975336
0
ARC
8
DEFAULT_255_2_778
10
14.2076299
20
34.2392437
40
0.6340005
50
179.5024805
51
269.758104
0
ARC
8
DEFAULT_255_2_778
10
14.5935296
20
34.2646068
40
0.5744248
50
158.6039448
51
180.7439081
0
ARC
8
DEFAULT_255_2_778
10
14.2894145
20
34.391583
40
0.2450547
50
125.6846154
51
160.3063409
0
ARC
8
DEFAULT_255_2_778
10
14.2061439
20
34.498437
40
0.1098183
50
90.6212609
51
122.9155624
0
ARC
8
DEFAULT_255_2_778
10
14.1912984
20
34.4603461
40
0.1485318
50
26.6299238
51
84.7252528
0
ARC
8
DEFAULT_255_2_778
10
13.9312415
20
34.294902
40
0.4562354
50
6.9672199
51
30.5675002
0
ARC
8
DEFAULT_255_2_778
10
13.736461
20
34.2579325
40
0.6541928
50
359.9313724
51
8.1119436
0
ARC
8
DEFAULT_255_2_778
10
13.8158903
20
34.2497075
40
0.5748111
50
338.6217917
51
0.7417631
0
ARC
8
DEFAULT_255_2_778
10
14.1203775
20
34.1226776
40
0.2450776
50
305.7107467
51
340.3279893
0
ARC
8
DEFAULT_255_2_778
10
14.2037626
20
34.0157757
40
0.1097331
50
270.6216799
51
302.9378787
0
ARC
8
DEFAULT_255_2_778
10
14.2183015
20
34.0532507
40
0.1478058
50
207.0367178
51
264.8185874
0
ARC
8
DEFAULT_255_2_778
10
14.4731143
20
34.2174943
40
0.4504617
50
187.4901111
51
210.9147812
0
ARC
8
DEFAULT_255_2_778
10
14.6699142
20
34.2562625
40
0.6507616
50
179.9219565
51
188.6157011
0
LINE
8
DEFAULT_255_2_778
10
14.8857532
20
34.8591489
11
15.3807532
21
34.8591489
0
LINE
8
DEFAULT_255_2_778
10
15.3807532
20
34.8591489
11
15.5540532
21
34.1944489
0
LINE
8
DEFAULT_255_2_778
10
15.5540532
20
34.1944489
11
15.7397532
21
34.8715489
0
LINE
8
DEFAULT_255_2_778
10
15.7397532
20
34.8715489
11
16.0369532
21
34.7837489
0
LINE
8
DEFAULT_255_2_778
10
16.0369532
20
34.7837489
11
15.7397532
21
33.6801489
0
LINE
8
DEFAULT_255_2_778
10
15.2817532
20
32.9403489
11
14.9351532
21
33.1033489
0
LINE
8
DEFAULT_255_2_778
10
15.4177532
20
33.7052489
11
15.2074532
21
33.7052489
0
LINE
8
DEFAULT_255_2_778
10
15.2074532
20
33.7052489
11
14.8857532
21
34.8591489
0
LINE
8
DEFAULT_255_2_778
10
16.0985532
20
34.2447489
11
16.0985532
21
34.2447489
0
LINE
8
DEFAULT_255_2_778
10
16.5441532
20
34.2571489
11
16.5441532
21
34.2571489
0
LINE
8
DEFAULT_255_2_778
10
13.5736532
20
34.2447489
11
13.5736532
21
34.2447489
0
LINE
8
DEFAULT_255_2_778
10
14.0191532
20
34.2571489
11
14.0191532
21
34.2571489
0
LINE
8
DEFAULT_255_2_778
10
12.0390532
20
35.5864489
11
12.5835532
21
35.5864489
0
LINE
8
DEFAULT_255_2_778
10
12.5835532
20
35.5864489
11
12.5835532
21
34.8591489
0
LINE
8
DEFAULT_255_2_778
10
12.5835532
20
34.8591489
11
13.0291532
21
35.5864489
0
LINE
8
DEFAULT_255_2_778
10
13.0291532
20
35.5864489
11
13.4995532
21
35.5864489
0
LINE
8
DEFAULT_255_2_778
10
13.4995532
20
35.5864489
11
12.9796532
21
34.7336489
0
LINE
8
DEFAULT_255_2_778
10
12.9796532
20
34.7336489
11
13.5985532
21
33.6803489
0
LINE
8
DEFAULT_255_2_778
10
13.5985532
20
33.6803489
11
13.0291532
21
33.6803489
0
LINE
8
DEFAULT_255_2_778
10
13.0291532
20
33.6803489
11
12.5586532
21
34.4828489
0
LINE
8
DEFAULT_255_2_778
10
12.5586532
20
34.4828489
11
12.5586532
21
33.6803489
0
LINE
8
DEFAULT_255_2_778
10
12.5586532
20
33.6803489
11
12.0390532
21
33.6803489
0
LINE
8
DEFAULT_255_2_778
10
12.0390532
20
33.6803489
11
12.0390532
21
35.5864489
0
LINE
8
DEFAULT_255_1_388
10
6.9848389
20
30.4488
11
6.6207024
21
30.4488
0
LINE
8
DEFAULT_255_1_388
10
6.6207024
20
30.4488
11
6.6207024
21
31.7643898
0
LINE
8
DEFAULT_255_1_388
10
6.6207024
20
31.7643898
11
6.9920674
21
31.7643898
0
LINE
8
DEFAULT_255_1_388
10
7.5721558
20
31.1508696
11
7.5721558
21
31.0668381
0
LINE
8
DEFAULT_255_1_388
10
6.9965852
20
31.6216267
11
6.7941868
21
31.6216267
0
LINE
8
DEFAULT_255_1_388
10
6.7941868
20
31.6216267
11
6.7941868
21
30.5906596
0
LINE
8
DEFAULT_255_1_388
10
6.7941868
20
30.5906596
11
6.9767068
21
30.5906596
0
LINE
8
DEFAULT_255_1_388
10
7.4004785
20
31.0704523
11
7.4004785
21
31.1472553
0
ARC
8
DEFAULT_255_1_388
10
6.9964469
20
31.1045436
40
0.6598608
50
75.4100343
51
90.3802731
0
ARC
8
DEFAULT_255_1_388
10
7.0222714
20
31.2121691
40
0.5492049
50
60.1455157
51
75.1889627
0
ARC
8
DEFAULT_255_1_388
10
7.0401306
20
31.2432914
40
0.5133226
50
26.525419
51
60.1451222
0
ARC
8
DEFAULT_255_1_388
10
6.9141092
20
31.1764642
40
0.6559324
50
7.4029944
51
26.832209
0
ARC
8
DEFAULT_255_1_388
10
6.7347489
20
31.1485229
40
0.8374103
50
0.1605597
51
7.7176135
0
ARC
8
DEFAULT_255_1_388
10
6.7531889
20
31.0625321
40
0.8189782
50
348.7289744
51
0.30125
0
ARC
8
DEFAULT_255_1_388
10
6.9395353
20
31.0255156
40
0.628991
50
333.0706936
51
348.7181455
0
ARC
8
DEFAULT_255_1_388
10
7.0482981
20
30.9664449
40
0.5052808
50
299.2531435
51
333.4571133
0
ARC
8
DEFAULT_255_1_388
10
7.0077012
20
31.0435629
40
0.5924066
50
278.1072193
51
299.0340218
0
ARC
8
DEFAULT_255_1_388
10
6.9789061
20
31.2131979
40
0.7644209
50
270.4446841
51
278.4508355
0
ARC
8
DEFAULT_255_1_388
10
6.9812545
20
31.10863
40
0.5179903
50
269.4969684
51
284.0204874
0
ARC
8
DEFAULT_255_1_388
10
7.0212263
20
30.9550415
40
0.3592968
50
283.7699076
51
318.1557121
0
ARC
8
DEFAULT_255_1_388
10
6.9832808
20
30.9834399
40
0.4065308
50
318.7417595
51
343.687252
0
ARC
8
DEFAULT_255_1_388
10
6.7803387
20
31.0468275
40
0.6191194
50
343.3324891
51
355.8548594
0
ARC
8
DEFAULT_255_1_388
10
6.5442424
20
31.0692719
40
0.856237
50
355.4988754
51
0.0789913
0
ARC
8
DEFAULT_255_1_388
10
6.6323224
20
31.152008
40
0.7681709
50
359.6455047
51
9.8607559
0
ARC
8
DEFAULT_255_1_388
10
6.8978947
20
31.1999664
40
0.498312
50
9.6573037
51
26.1931522
0
ARC
8
DEFAULT_255_1_388
10
7.0023022
20
31.2484587
40
0.3832303
50
26.5777895
51
40.1533752
0
ARC
8
DEFAULT_255_1_388
10
7.0310687
20
31.270902
40
0.3467742
50
40.3839958
51
80.1430923
0
ARC
8
DEFAULT_255_1_388
10
6.9942942
20
31.1078486
40
0.5137832
50
79.2153636
51
89.7445174
0
LINE
8
DEFAULT_255_1_388
10
7.9896025
20
31.4264567
11
7.9896025
21
30.4488
0
LINE
8
DEFAULT_255_1_388
10
7.9896025
20
30.4488
11
7.8224431
21
30.4488
0
LINE
8
DEFAULT_255_1_388
10
7.8224431
20
30.4488
11
7.8224431
21
31.4264567
0
LINE
8
DEFAULT_255_1_388
10
7.8224431
20
31.4264567
11
7.9896025
21
31.4264567
0
ARC
8
DEFAULT_255_1_388
10
7.9189793
20
31.6868428
40
0.1100948
50
161.4148232
51
180.5532607
0
ARC
8
DEFAULT_255_1_388
10
7.9050103
20
31.6906875
40
0.0956324
50
138.1830164
51
160.9307633
0
ARC
8
DEFAULT_255_1_388
10
7.892629
20
31.7014313
40
0.0792417
50
104.6371663
51
138.0036136
0
ARC
8
DEFAULT_255_1_388
10
7.9046829
20
31.6601963
40
0.1221906
50
92.0601206
51
105.2198859
0
ARC
8
DEFAULT_255_1_388
10
7.9073193
20
31.6213583
40
0.161103
50
89.9790681
51
92.5006086
0
ARC
8
DEFAULT_255_1_388
10
7.9084369
20
31.6469998
40
0.1354654
50
78.0234649
51
90.4478111
0
ARC
8
DEFAULT_255_1_388
10
7.9187954
20
31.6935203
40
0.0878096
50
55.0521508
51
78.336297
0
ARC
8
DEFAULT_255_1_388
10
7.9244488
20
31.7030168
40
0.0767913
50
42.0506198
51
54.4508489
0
ARC
8
DEFAULT_255_1_388
10
7.9092521
20
31.6890821
40
0.0974091
50
1.7493657
51
42.1498724
0
ARC
8
DEFAULT_255_1_388
10
7.8806427
20
31.6858166
40
0.1261276
50
359.9832635
51
2.8353994
0
ARC
8
DEFAULT_255_1_388
10
7.8992837
20
31.6847412
40
0.1074916
50
342.1062453
51
0.5535864
0
ARC
8
DEFAULT_255_1_388
10
7.9153261
20
31.6803197
40
0.0908695
50
316.7110111
51
341.6513114
0
ARC
8
DEFAULT_255_1_388
10
7.9228693
20
31.6735607
40
0.0807447
50
285.4398289
51
316.5320129
0
ARC
8
DEFAULT_255_1_388
10
7.9104863
20
31.7147023
40
0.1237022
50
272.3543902
51
285.8951677
0
ARC
8
DEFAULT_255_1_388
10
7.9074573
20
31.7562742
40
0.1653687
50
269.9725761
51
272.8112722
0
ARC
8
DEFAULT_255_1_388
10
7.9063625
20
31.7311727
40
0.1402709
50
258.8433431
51
270.4148607
0
ARC
8
DEFAULT_255_1_388
10
7.8962405
20
31.6821739
40
0.0902407
50
238.54281
51
259.1289544
0
ARC
8
DEFAULT_255_1_388
10
7.8885727
20
31.6682694
40
0.0743817
50
222.5056676
51
237.9918132
0
ARC
8
DEFAULT_255_1_388
10
7.902932
20
31.6813295
40
0.0937918
50
184.1070774
51
222.4604165
0
ARC
8
DEFAULT_255_1_388
10
7.9331734
20
31.6856538
40
0.1242838
50
179.9419581
51
185.0970785
0
LINE
8
DEFAULT_255_1_388
10
8.7296218
20
31.4318781
11
8.7296218
21
31.276465
0
LINE
8
DEFAULT_255_1_388
10
8.424217
20
31.1427375
11
8.424217
21
30.4488
0
LINE
8
DEFAULT_255_1_388
10
8.424217
20
30.4488
11
8.2570576
21
30.4488
0
LINE
8
DEFAULT_255_1_388
10
8.2570576
20
30.4488
11
8.2570576
21
31.4264567
0
LINE
8
DEFAULT_255_1_388
10
8.2570576
20
31.4264567
11
8.4196992
21
31.4264567
0
LINE
8
DEFAULT_255_1_388
10
8.4196992
20
31.4264567
11
8.4224099
21
31.3135112
0
ARC
8
DEFAULT_255_1_388
10
8.6546378
20
30.8198068
40
0.4627735
50
80.6751522
51
86.893806
0
ARC
8
DEFAULT_255_1_388
10
8.6478208
20
30.7106103
40
0.5721798
50
86.8046851
51
90.0423898
0
ARC
8
DEFAULT_255_1_388
10
8.6436628
20
30.9873197
40
0.2954939
50
89.2758283
51
106.6212906
0
ARC
8
DEFAULT_255_1_388
10
8.6206652
20
31.0709009
40
0.2088351
50
107.1347109
51
157.6456887
0
ARC
8
DEFAULT_255_1_388
10
8.6974714
20
31.0281908
40
0.296292
50
155.6557383
51
157.256838
0
ARC
8
DEFAULT_255_1_388
10
8.6754329
20
31.1592472
40
0.296341
50
127.8167201
51
148.6300223
0
ARC
8
DEFAULT_255_1_388
10
8.6469076
20
31.1885066
40
0.2557782
50
91.3329934
51
126.7875218
0
ARC
8
DEFAULT_255_1_388
10
8.6554463
20
31.1081718
40
0.3363561
50
89.9858247
51
92.4688453
0
ARC
8
DEFAULT_255_1_388
10
8.6563956
20
31.1390114
40
0.3055179
50
85.3587643
51
90.1624243
0
ARC
8
DEFAULT_255_1_388
10
8.6659021
20
31.2519458
40
0.1921848
50
78.4019195
51
85.4592653
0
ARC
8
DEFAULT_255_1_388
10
8.6822082
20
31.3297142
40
0.1127267
50
67.7849217
51
78.573798
0
ARC
8
DEFAULT_255_1_388
10
8.6943717
20
31.3612374
40
0.0789473
50
63.4805074
51
67.3074739
0
LINE
8
DEFAULT_255_1_388
10
8.8235925
20
30.9105214
11
8.8235925
21
30.9412426
0
LINE
8
DEFAULT_255_1_388
10
9.6530647
20
30.9593139
11
9.6530647
21
30.8897395
0
LINE
8
DEFAULT_255_1_388
10
9.6530647
20
30.8897395
11
8.990752
21
30.8897395
0
LINE
8
DEFAULT_255_1_388
10
9.538312
20
30.6990874
11
9.6404148
21
30.6195737
0
LINE
8
DEFAULT_255_1_388
10
8.9961733
20
31.0270813
11
9.4859053
21
31.0270813
0
LINE
8
DEFAULT_255_1_388
10
9.4859053
20
31.0270813
11
9.4859053
21
31.0397312
0
ARC
8
DEFAULT_255_1_388
10
9.2667686
20
30.923021
40
0.4923176
50
252.326534
51
270.5809615
0
ARC
8
DEFAULT_255_1_388
10
9.2437151
20
30.839694
40
0.4059384
50
223.3000488
51
251.8562489
0
ARC
8
DEFAULT_255_1_388
10
9.2674931
20
30.8627898
40
0.4390832
50
190.9374369
51
223.3654369
0
ARC
8
DEFAULT_255_1_388
10
9.4615609
20
30.9066598
40
0.63798
50
179.6531919
51
191.4988561
0
ARC
8
DEFAULT_255_1_388
10
9.4752636
20
30.9448571
40
0.6516811
50
167.4005523
51
180.3177836
0
ARC
8
DEFAULT_255_1_388
10
9.3569307
20
30.9698853
40
0.5307402
50
154.1835149
51
167.2508278
0
ARC
8
DEFAULT_255_1_388
10
9.2858898
20
31.0072925
40
0.4505076
50
134.3150225
51
154.5315008
0
ARC
8
DEFAULT_255_1_388
10
9.2614233
20
31.028755
40
0.4180662
50
122.8617482
51
133.9707159
0
ARC
8
DEFAULT_255_1_388
10
9.249784
20
31.0537882
40
0.3907416
50
89.8248474
51
123.4199325
0
ARC
8
DEFAULT_255_1_388
10
9.2554138
20
30.9810352
40
0.4635141
50
74.7874349
51
90.5482648
0
ARC
8
DEFAULT_255_1_388
10
9.2884602
20
31.1030987
40
0.3370565
50
39.8178888
51
74.7634383
0
ARC
8
DEFAULT_255_1_388
10
9.2307844
20
31.0581356
40
0.4101553
50
16.8990848
51
39.4830125
0
ARC
8
DEFAULT_255_1_388
10
9.0176459
20
30.9898711
40
0.6339427
50
4.9634768
51
17.2027767
0
ARC
8
DEFAULT_255_1_388
10
8.7455863
20
30.96116
40
0.9074803
50
359.8834402
51
5.2832409
0
ARC
8
DEFAULT_255_1_388
10
9.4248221
20
30.8971981
40
0.4341343
50
180.9844233
51
194.9402766
0
ARC
8
DEFAULT_255_1_388
10
9.3067387
20
30.864917
40
0.3117211
50
194.8030557
51
222.0412897
0
ARC
8
DEFAULT_255_1_388
10
9.2725259
20
30.8309715
40
0.2635903
50
221.541578
51
268.8616004
0
ARC
8
DEFAULT_255_1_388
10
9.280738
20
30.907028
40
0.3398611
50
267.7321071
51
270.009808
0
ARC
8
DEFAULT_255_1_388
10
9.2827443
20
30.9297178
40
0.3625561
50
269.6921218
51
280.4122297
0
ARC
8
DEFAULT_255_1_388
10
9.3025855
20
30.8263767
40
0.2573323
50
280.2257165
51
298.633539
0
ARC
8
DEFAULT_255_1_388
10
9.3151268
20
30.7999578
40
0.2281403
50
299.0485543
51
300.4624141
0
ARC
8
DEFAULT_255_1_388
10
9.2392249
20
30.9264796
40
0.3756797
50
300.6578578
51
322.037749
0
ARC
8
DEFAULT_255_1_388
10
9.202177
20
30.9588266
40
0.4247956
50
321.671786
51
322.3059078
0
ARC
8
DEFAULT_255_1_388
10
9.3045333
20
30.8294267
40
0.3960488
50
276.9729088
51
328.0035579
0
ARC
8
DEFAULT_255_1_388
10
9.2733804
20
30.9959609
40
0.5652345
50
269.8358003
51
278.0581296
0
ARC
8
DEFAULT_255_1_388
10
9.2478103
20
31.079782
40
0.2274263
50
89.2017936
51
117.2852353
0
ARC
8
DEFAULT_255_1_388
10
9.2537853
20
31.0750637
40
0.2343798
50
118.0546404
51
137.4544511
0
ARC
8
DEFAULT_255_1_388
10
9.2959497
20
31.0367556
40
0.2913471
50
137.5109688
51
158.8516701
0
ARC
8
DEFAULT_255_1_388
10
9.4239597
20
30.9850902
40
0.4293804
50
158.5845496
51
170.1719753
0
ARC
8
DEFAULT_255_1_388
10
9.5555933
20
30.9589519
40
0.5635533
50
169.8378964
51
173.0563877
0
ARC
8
DEFAULT_255_1_388
10
9.0271217
20
31.0164187
40
0.4593755
50
2.9089079
51
12.88469
0
ARC
8
DEFAULT_255_1_388
10
9.1813136
20
31.0527082
40
0.3009753
50
12.6957404
51
28.6405841
0
ARC
8
DEFAULT_255_1_388
10
9.2422633
20
31.0842577
40
0.232366
50
29.016559
51
41.1492981
0
ARC
8
DEFAULT_255_1_388
10
9.2650612
20
31.104108
40
0.2021373
50
41.1646967
51
85.001362
0
ARC
8
DEFAULT_255_1_388
10
9.2514616
20
31.0214775
40
0.2857091
50
83.728216
51
90.0968824
0
LINE
8
DEFAULT_255_1_388
10
10.4689834
20
30.7569155
11
10.6271072
21
30.7569155
0
LINE
8
DEFAULT_255_1_388
10
9.8030564
20
30.9285927
11
9.8030564
21
30.9566032
0
LINE
8
DEFAULT_255_1_388
10
10.6271072
20
31.0903308
11
10.4689834
21
31.0903308
0
LINE
8
DEFAULT_255_1_388
10
9.9702158
20
30.9502783
11
9.9702158
21
30.9186535
0
ARC
8
DEFAULT_255_1_388
10
10.2426391
20
30.8079109
40
0.2407783
50
269.0327343
51
309.2224588
0
ARC
8
DEFAULT_255_1_388
10
10.2662395
20
30.783719
40
0.207135
50
308.3965377
51
329.6987678
0
ARC
8
DEFAULT_255_1_388
10
10.2817453
20
30.7719899
40
0.1878439
50
330.4013397
51
355.3970937
0
ARC
8
DEFAULT_255_1_388
10
10.3331437
20
30.7739312
40
0.2944555
50
329.2357424
51
356.6872018
0
ARC
8
DEFAULT_255_1_388
10
10.2713332
20
30.8066153
40
0.3643032
50
324.8702872
51
329.7911998
0
ARC
8
DEFAULT_255_1_388
10
10.2624614
20
30.8142113
40
0.3759315
50
298.8769973
51
324.7015261
0
ARC
8
DEFAULT_255_1_388
10
10.2251158
20
30.873729
40
0.4461015
50
296.902888
51
299.3854973
0
ARC
8
DEFAULT_255_1_388
10
10.2397155
20
30.8413595
40
0.4106323
50
269.8407861
51
297.1298875
0
ARC
8
DEFAULT_255_1_388
10
10.2337151
20
30.9131354
40
0.4824312
50
253.3156606
51
270.5771301
0
ARC
8
DEFAULT_255_1_388
10
10.2059329
20
30.8125943
40
0.3781531
50
221.1002518
51
252.9743523
0
ARC
8
DEFAULT_255_1_388
10
10.2576799
20
30.8570131
40
0.4463481
50
194.5394284
51
221.0302764
0
ARC
8
DEFAULT_255_1_388
10
10.465662
20
30.9149897
40
0.6622359
50
182.0498004
51
194.8774376
0
ARC
8
DEFAULT_255_1_388
10
10.664971
20
30.9282778
40
0.8619146
50
179.9790673
51
182.4586753
0
ARC
8
DEFAULT_255_1_388
10
10.4693024
20
30.9599412
40
0.6662543
50
168.615001
51
180.2870547
0
ARC
8
DEFAULT_255_1_388
10
10.3340932
20
30.9864636
40
0.5284705
50
154.9162417
51
168.5402053
0
ARC
8
DEFAULT_255_1_388
10
10.2304208
20
31.0376942
40
0.4128641
50
133.5745308
51
155.2559538
0
ARC
8
DEFAULT_255_1_388
10
10.2121051
20
31.0533116
40
0.3889328
50
122.0165845
51
133.2056002
0
ARC
8
DEFAULT_255_1_388
10
10.2161375
20
31.0433977
40
0.3994808
50
97.8732516
51
121.753124
0
ARC
8
DEFAULT_255_1_388
10
10.2362833
20
30.924459
40
0.5200708
50
89.8471322
51
98.2768545
0
ARC
8
DEFAULT_255_1_388
10
10.2417681
20
30.9930809
40
0.4514657
50
73.3760755
51
90.5199878
0
ARC
8
DEFAULT_255_1_388
10
10.2638597
20
31.074355
40
0.3672743
50
47.7085939
51
73.0510707
0
ARC
8
DEFAULT_255_1_388
10
10.27847
20
31.0870231
40
0.3480795
50
3.7442743
51
48.0844373
0
ARC
8
DEFAULT_255_1_388
10
10.1672694
20
31.0692946
40
0.4603187
50
2.6192831
51
5.0424684
0
ARC
8
DEFAULT_255_1_388
10
10.2188165
20
31.0737986
40
0.2507126
50
3.78087
51
23.9354314
0
ARC
8
DEFAULT_255_1_388
10
10.2445424
20
31.0828644
40
0.2235311
50
24.4867863
51
46.9439952
0
ARC
8
DEFAULT_255_1_388
10
10.244637
20
31.0854874
40
0.2215567
50
46.4987715
51
89.3298168
0
ARC
8
DEFAULT_255_1_388
10
10.2377029
20
31.0188742
40
0.2883121
50
88.1066411
51
90.0063536
0
ARC
8
DEFAULT_255_1_388
10
10.2346005
20
31.0246548
40
0.2825481
50
89.3773571
51
107.2070287
0
ARC
8
DEFAULT_255_1_388
10
10.2185273
20
31.0828667
40
0.2221946
50
107.688418
51
143.3582986
0
ARC
8
DEFAULT_255_1_388
10
10.2823567
20
31.0349064
40
0.3020337
50
143.2845866
51
162.9352432
0
ARC
8
DEFAULT_255_1_388
10
10.4517583
20
30.9805401
40
0.4799362
50
162.6652705
51
174.0802646
0
ARC
8
DEFAULT_255_1_388
10
10.6928064
20
30.9525287
40
0.7225942
50
173.8422673
51
180.1784414
0
ARC
8
DEFAULT_255_1_388
10
10.6311735
20
30.9152276
40
0.6609665
50
179.7030218
51
188.2277356
0
ARC
8
DEFAULT_255_1_388
10
10.3947342
20
30.8798143
40
0.4218948
50
188.0630838
51
201.115837
0
ARC
8
DEFAULT_255_1_388
10
10.2712227
20
30.832673
40
0.2896941
50
201.2186162
51
216.9761863
0
ARC
8
DEFAULT_255_1_388
10
10.2204384
20
30.7946225
40
0.2262366
50
217.0136373
51
265.2055518
0
ARC
8
DEFAULT_255_1_388
10
10.2379721
20
30.8983503
40
0.3311837
50
263.6824874
51
270.1042034
0
LINE
8
DEFAULT_255_1_388
10
10.8746838
20
31.6631906
11
11.0418433
21
31.6631906
0
LINE
8
DEFAULT_255_1_388
10
11.0418433
20
31.6631906
11
11.0418433
21
31.4264567
0
LINE
8
DEFAULT_255_1_388
10
11.0418433
20
31.4264567
11
11.2243633
21
31.4264567
0
LINE
8
DEFAULT_255_1_388
10
11.2243633
20
31.4264567
11
11.2243633
21
31.297247
0
LINE
8
DEFAULT_255_1_388
10
11.2243633
20
31.297247
11
11.0418433
21
31.297247
0
LINE
8
DEFAULT_255_1_388
10
11.0418433
20
31.297247
11
11.0418433
21
30.6909553
0
LINE
8
DEFAULT_255_1_388
10
11.2288811
20
30.5843347
11
11.2288811
21
30.4488
0
LINE
8
DEFAULT_255_1_388
10
10.8746838
20
30.6909553
11
10.8746838
21
31.297247
0
LINE
8
DEFAULT_255_1_388
10
10.8746838
20
31.297247
11
10.6966816
21
31.297247
0
LINE
8
DEFAULT_255_1_388
10
10.6966816
20
31.297247
11
10.6966816
21
31.4264567
0
LINE
8
DEFAULT_255_1_388
10
10.6966816
20
31.4264567
11
10.8746838
21
31.4264567
0
LINE
8
DEFAULT_255_1_388
10
10.8746838
20
31.4264567
11
10.8746838
21
31.6631906
0
ARC
8
DEFAULT_255_1_388
10
11.267694
20
30.6897842
40
0.2258538
50
179.7029045
51
187.9180047
0
ARC
8
DEFAULT_255_1_388
10
11.1837514
20
30.6777019
40
0.1410477
50
187.7540838
51
200.2454047
0
ARC
8
DEFAULT_255_1_388
10
11.136442
20
30.6600591
40
0.0905561
50
200.1304287
51
219.1733455
0
ARC
8
DEFAULT_255_1_388
10
11.1211586
20
30.6496695
40
0.0721626
50
220.4434631
51
249.6169985
0
ARC
8
DEFAULT_255_1_388
10
11.1385813
20
30.6934919
40
0.1193141
50
249.1038184
51
262.7745376
0
ARC
8
DEFAULT_255_1_388
10
11.1484995
20
30.7642481
40
0.1907583
50
262.4921618
51
270.2607019
0
ARC
8
DEFAULT_255_1_388
10
11.1482077
20
30.7884817
40
0.2149929
50
270.309081
51
275.6615459
0
ARC
8
DEFAULT_255_1_388
10
11.1321484
20
30.9573342
40
0.3846066
50
275.5607354
51
279.087751
0
ARC
8
DEFAULT_255_1_388
10
11.0949416
20
31.1934428
40
0.6236283
50
279.0369545
51
281.5000133
0
ARC
8
DEFAULT_255_1_388
10
11.0558684
20
31.3911499
40
0.825157
50
281.4217093
51
282.1031556
0
ARC
8
DEFAULT_255_1_388
10
11.093466
20
30.9368229
40
0.5064619
50
275.2597791
51
285.5081125
0
ARC
8
DEFAULT_255_1_388
10
11.1003674
20
30.8742452
40
0.4435166
50
270.0268175
51
275.1130565
0
ARC
8
DEFAULT_255_1_388
10
11.0981125
20
30.7249367
40
0.2942182
50
257.3572424
51
270.4795428
0
ARC
8
DEFAULT_255_1_388
10
11.0741395
20
30.6238952
40
0.1903838
50
230.8036715
51
257.7414447
0
ARC
8
DEFAULT_255_1_388
10
11.0664891
20
30.6115723
40
0.1760087
50
219.9745381
51
230.1985446
0
ARC
8
DEFAULT_255_1_388
10
11.1038179
20
30.6401116
40
0.2229598
50
196.5081334
51
219.4319996
0
ARC
8
DEFAULT_255_1_388
10
11.218079
20
30.6759617
40
0.3427033
50
184.6408645
51
196.8266009
0
ARC
8
DEFAULT_255_1_388
10
11.3581696
20
30.690101
40
0.4834863
50
179.8987586
51
184.9677262
0
LINE
8
DEFAULT_255_1_388
10
11.6201245
20
31.7643898
11
11.6201245
21
30.5906596
0
LINE
8
DEFAULT_255_1_388
10
11.6201245
20
30.5906596
11
12.243584
21
30.5906596
0
LINE
8
DEFAULT_255_1_388
10
12.243584
20
30.5906596
11
12.243584
21
30.4488
0
LINE
8
DEFAULT_255_1_388
10
12.243584
20
30.4488
11
11.4457366
21
30.4488
0
LINE
8
DEFAULT_255_1_388
10
11.4457366
20
30.4488
11
11.4457366
21
31.7643898
0
LINE
8
DEFAULT_255_1_388
10
11.4457366
20
31.7643898
11
11.6201245
21
31.7643898
0
LINE
8
DEFAULT_255_1_388
10
13.3947251
20
31.1472553
11
13.3947251
21
31.0641274
0
LINE
8
DEFAULT_255_1_388
10
12.3366511
20
31.0523811
11
12.3366511
21
31.1472553
0
LINE
8
DEFAULT_255_1_388
10
13.2221443
20
31.0514775
11
13.2221443
21
31.1490625
0
LINE
8
DEFAULT_255_1_388
10
12.5092319
20
31.1608088
11
12.5092319
21
31.0641274
0
ARC
8
DEFAULT_255_1_388
10
12.4224989
20
31.0596726
40
0.9722364
50
350.4878118
51
0.2625322
0
ARC
8
DEFAULT_255_1_388
10
12.6804949
20
31.0152994
40
0.7104556
50
336.0277991
51
350.5787241
0
ARC
8
DEFAULT_255_1_388
10
12.8318056
20
30.9469243
40
0.544417
50
319.887443
51
336.1331163
0
ARC
8
DEFAULT_255_1_388
10
12.8995868
20
30.8926733
40
0.4576311
50
302.4806296
51
319.6144102
0
ARC
8
DEFAULT_255_1_388
10
12.886649
20
30.9176067
40
0.4856183
50
275.8196423
51
302.1885521
0
ARC
8
DEFAULT_255_1_388
10
12.8679351
20
31.0461466
40
0.6154183
50
269.9169897
51
276.339506
0
ARC
8
DEFAULT_255_1_388
10
12.8628952
20
30.968968
40
0.5382553
50
252.5221437
51
270.441579
0
ARC
8
DEFAULT_255_1_388
10
12.8467202
20
30.9083046
40
0.4755426
50
237.5349961
51
252.1858334
0
ARC
8
DEFAULT_255_1_388
10
12.8567578
20
30.921112
40
0.4917393
50
209.0632754
51
237.3492577
0
ARC
8
DEFAULT_255_1_388
10
12.9546904
20
30.9826104
40
0.6072464
50
205.118533
51
209.6465345
0
ARC
8
DEFAULT_255_1_388
10
13.0442906
20
31.0206174
40
0.7045164
50
188.7216633
51
204.8239753
0
ARC
8
DEFAULT_255_1_388
10
13.2689682
20
31.0584387
40
0.9323368
50
180.3722704
51
188.9253909
0
ARC
8
DEFAULT_255_1_388
10
13.2659243
20
31.1517416
40
0.929284
50
169.5253055
51
180.2766048
0
ARC
8
DEFAULT_255_1_388
10
13.0519042
20
31.1911024
40
0.7116745
50
155.8314601
51
169.5088611
0
ARC
8
DEFAULT_255_1_388
10
12.9078505
20
31.2579312
40
0.5528904
50
139.6259579
51
156.0379072
0
ARC
8
DEFAULT_255_1_388
10
12.8415039
20
31.3113143
40
0.4677708
50
122.6414784
51
139.3431662
0
ARC
8
DEFAULT_255_1_388
10
12.8528294
20
31.2906787
40
0.4912586
50
93.0224537
51
122.4556091
0
ARC
8
DEFAULT_255_1_388
10
12.8649815
20
31.1820776
40
0.6003837
50
89.9756766
51
93.6340839
0
ARC
8
DEFAULT_255_1_388
10
12.8693412
20
31.2269879
40
0.5554884
50
73.7463329
51
90.4234008
0
ARC
8
DEFAULT_255_1_388
10
12.8890885
20
31.3034772
40
0.4765353
50
57.663051
51
73.4516911
0
ARC
8
DEFAULT_255_1_388
10
12.8881923
20
31.3059108
40
0.4749629
50
29.1441355
51
57.4146687
0
ARC
8
DEFAULT_255_1_388
10
12.7829734
20
31.2402046
40
0.5988917
50
24.0985653
51
29.732054
0
ARC
8
DEFAULT_255_1_388
10
12.6667366
20
31.1920154
40
0.7246823
50
8.6654943
51
23.8241215
0
ARC
8
DEFAULT_255_1_388
10
12.4153785
20
31.1510037
40
0.9793537
50
359.7807044
51
8.8218476
0
ARC
8
DEFAULT_255_1_388
10
12.2863489
20
31.1538731
40
0.9358078
50
359.7054632
51
8.0359751
0
ARC
8
DEFAULT_255_1_388
10
12.623854
20
31.2030252
40
0.5947474
50
7.8926278
51
20.2962188
0
ARC
8
DEFAULT_255_1_388
10
12.8069391
20
31.2705367
40
0.3996117
50
20.3231056
51
36.4990255
0
ARC
8
DEFAULT_255_1_388
10
12.8840688
20
31.3299399
40
0.3022818
50
36.1436715
51
85.6627846
0
ARC
8
DEFAULT_255_1_388
10
12.8657943
20
31.2129881
40
0.4203853
50
84.3845912
51
90.076054
0
ARC
8
DEFAULT_255_1_388
10
12.8610298
20
31.2872416
40
0.346157
50
89.3037228
51
109.9046209
0
ARC
8
DEFAULT_255_1_388
10
12.8506131
20
31.3302379
40
0.3022217
50
110.8229774
51
143.917961
0
ARC
8
DEFAULT_255_1_388
10
12.9556491
20
31.2500455
40
0.434348
50
143.5289166
51
163.2980252
0
ARC
8
DEFAULT_255_1_388
10
13.1702778
20
31.1825685
40
0.659321
50
163.0418884
51
174.3139873
0
ARC
8
DEFAULT_255_1_388
10
13.4407742
20
31.1513378
40
0.9315905
50
174.050934
51
179.4174954
0
ARC
8
DEFAULT_255_1_388
10
13.3839686
20
31.0594382
40
0.8747493
50
179.6928582
51
188.7908948
0
ARC
8
DEFAULT_255_1_388
10
13.0843486
20
31.0115086
40
0.5713262
50
188.6328449
51
202.5630732
0
ARC
8
DEFAULT_255_1_388
10
12.9432323
20
30.9548142
40
0.4192612
50
202.8078931
51
216.1195888
0
ARC
8
DEFAULT_255_1_388
10
12.852184
20
30.8815479
40
0.3025752
50
215.0755613
51
264.6379773
0
ARC
8
DEFAULT_255_1_388
10
12.8664678
20
30.9750376
40
0.3970284
50
263.8464302
51
270.0830805
0
ARC
8
DEFAULT_255_1_388
10
12.8711222
20
30.9459808
40
0.3679937
50
269.3649295
51
287.5149684
0
ARC
8
DEFAULT_255_1_388
10
12.8911663
20
30.8731714
40
0.2925408
50
288.0629019
51
323.8115617
0
ARC
8
DEFAULT_255_1_388
10
12.7931639
20
30.9462754
40
0.4148018
50
323.6546541
51
342.6591359
0
ARC
8
DEFAULT_255_1_388
10
12.5646297
20
31.020628
40
0.6551163
50
342.4092446
51
353.6451501
0
ARC
8
DEFAULT_255_1_388
10
12.2461091
20
31.0602565
40
0.9760748
50
353.4027553
51
359.4846611
0
LINE
8
DEFAULT_255_1_388
10
14.6262834
20
31.1038842
11
14.6262834
21
30.6213808
0
LINE
8
DEFAULT_255_1_388
10
13.6124841
20
31.0433454
11
13.6124841
21
31.1580981
0
LINE
8
DEFAULT_255_1_388
10
14.6262834
20
31.3785678
11
14.4527991
21
31.3785678
0
LINE
8
DEFAULT_255_1_388
10
13.7868721
20
31.1626159
11
13.7868721
21
31.0550917
0
LINE
8
DEFAULT_255_1_388
10
14.4537026
20
30.6674626
11
14.4537026
21
30.9629282
0
LINE
8
DEFAULT_255_1_388
10
14.4537026
20
30.9629282
11
14.1492014
21
30.9629282
0
LINE
8
DEFAULT_255_1_388
10
14.1492014
20
30.9629282
11
14.1492014
21
31.1038842
0
LINE
8
DEFAULT_255_1_388
10
14.1492014
20
31.1038842
11
14.6262834
21
31.1038842
0
ARC
8
DEFAULT_255_1_388
10
14.3077435
20
30.8456284
40
0.3895571
50
295.8437277
51
324.8549962
0
ARC
8
DEFAULT_255_1_388
10
14.2609817
20
30.9302619
40
0.4861381
50
291.5691164
51
296.4556269
0
ARC
8
DEFAULT_255_1_388
10
14.203482
20
31.0838801
40
0.6501442
50
278.6622213
51
291.3047061
0
ARC
8
DEFAULT_255_1_388
10
14.1652852
20
31.3255557
40
0.8948168
50
270.0200506
51
278.7494673
0
ARC
8
DEFAULT_255_1_388
10
14.1609056
20
31.5101453
40
1.0794166
50
270.0022372
51
270.2490917
0
ARC
8
DEFAULT_255_1_388
10
14.1566948
20
31.0142827
40
0.5835695
50
253.5785313
51
270.4175629
0
ARC
8
DEFAULT_255_1_388
10
14.1371944
20
30.9387625
40
0.5056241
50
238.8203954
51
253.2788387
0
ARC
8
DEFAULT_255_1_388
10
14.134986
20
30.9330224
40
0.4995712
50
206.7883476
51
238.696262
0
ARC
8
DEFAULT_255_1_388
10
14.2225256
20
30.9854847
40
0.6014056
50
206.1137778
51
207.4912776
0
ARC
8
DEFAULT_255_1_388
10
14.2892092
20
31.0138284
40
0.6737692
50
188.6922336
51
205.782076
0
ARC
8
DEFAULT_255_1_388
10
14.4980451
20
31.0493455
40
0.8855812
50
180.3881972
51
188.9218085
0
ARC
8
DEFAULT_255_1_388
10
14.6361608
20
31.1644622
40
1.0236965
50
170.2024645
51
180.3561986
0
ARC
8
DEFAULT_255_1_388
10
14.2802759
20
31.2281101
40
0.6621746
50
154.2856519
51
170.3893388
0
ARC
8
DEFAULT_255_1_388
10
14.1360722
20
31.2941192
40
0.5036209
50
139.8400879
51
153.9334639
0
ARC
8
DEFAULT_255_1_388
10
14.0956626
20
31.3264716
40
0.4518751
50
98.4190017
51
139.6707015
0
ARC
8
DEFAULT_255_1_388
10
14.1383593
20
31.1188755
40
0.6635912
50
89.7660128
51
99.4415389
0
ARC
8
DEFAULT_255_1_388
10
14.145699
20
31.1262517
40
0.6562258
50
78.0552044
51
90.4042252
0
ARC
8
DEFAULT_255_1_388
10
14.1912053
20
31.3308661
40
0.4466287
50
54.6380186
51
78.3338577
0
ARC
8
DEFAULT_255_1_388
10
14.2126352
20
31.3669444
40
0.4048184
50
50.0313964
51
54.1562739
0
ARC
8
DEFAULT_255_1_388
10
14.2005246
20
31.3560798
40
0.4209308
50
18.1092229
51
49.7179911
0
ARC
8
DEFAULT_255_1_388
10
14.0366326
20
31.2960399
40
0.5953982
50
7.967396
51
18.698492
0
ARC
8
DEFAULT_255_1_388
10
14.0535587
20
31.3099236
40
0.4050986
50
9.7558763
51
27.3214087
0
ARC
8
DEFAULT_255_1_388
10
14.1804051
20
31.3733087
40
0.2633168
50
27.736147
51
84.5257861
0
ARC
8
DEFAULT_255_1_388
10
14.1435461
20
31.1883988
40
0.4513019
50
82.1064239
51
90.1997295
0
ARC
8
DEFAULT_255_1_388
10
14.1379477
20
31.2455501
40
0.3941684
50
89.4148952
51
105.5824837
0
ARC
8
DEFAULT_255_1_388
10
14.1090358
20
31.3508043
40
0.2850167
50
105.6678541
51
144.2649156
0
ARC
8
DEFAULT_255_1_388
10
14.209525
20
31.2793024
40
0.4083468
50
144.3560675
51
162.8564185
0
ARC
8
DEFAULT_255_1_388
10
14.4439693
20
31.2040083
40
0.6545749
50
162.6076338
51
173.6779811
0
ARC
8
DEFAULT_255_1_388
10
14.7883808
20
31.1621422
40
1.0015089
50
173.4670996
51
179.9729015
0
ARC
8
DEFAULT_255_1_388
10
14.5736679
20
31.0503636
40
0.78681
50
179.6556955
51
190.007958
0
ARC
8
DEFAULT_255_1_388
10
14.313096
20
31.002566
40
0.5218997
50
189.8117884
51
206.6795375
0
ARC
8
DEFAULT_255_1_388
10
14.2180406
20
30.9582514
40
0.4170788
50
207.1031171
51
217.7074698
0
ARC
8
DEFAULT_255_1_388
10
14.1466837
20
30.8961596
40
0.3226945
50
216.7345117
51
265.6812141
0
ARC
8
DEFAULT_255_1_388
10
14.1613979
20
30.997903
40
0.4253149
50
264.7367524
51
270.0610826
0
ARC
8
DEFAULT_255_1_388
10
14.1640164
20
31.3174173
40
0.7448321
50
269.8334494
51
276.0538364
0
ARC
8
DEFAULT_255_1_388
10
14.1873027
20
31.1034924
40
0.5296446
50
275.9894423
51
284.4615914
0
ARC
8
DEFAULT_255_1_388
10
14.209454
20
31.010257
40
0.4338353
50
284.7038488
51
286.4938196
0
ARC
8
DEFAULT_255_1_388
10
14.2553689
20
30.8623371
40
0.2789738
50
286.0770429
51
304.2629628
0
ARC
8
DEFAULT_255_1_388
10
14.2703847
20
30.837768
40
0.2502188
50
304.5886247
51
317.1074126
0
LINE
8
DEFAULT_255_1_388
10
15.1015583
20
31.7643898
11
15.1015583
21
30.4488
0
LINE
8
DEFAULT_255_1_388
10
15.1015583
20
30.4488
11
14.928074
21
30.4488
0
LINE
8
DEFAULT_255_1_388
10
14.928074
20
30.4488
11
14.928074
21
31.7643898
0
LINE
8
DEFAULT_255_1_388
10
14.928074
20
31.7643898
11
15.1015583
21
31.7643898
0
LINE
8
DEFAULT_255_1_388
10
16.2120391
20
30.8662468
11
16.386427
21
30.8662468
0
LINE
8
DEFAULT_255_1_388
10
15.3735313
20
31.0451525
11
15.3735313
21
31.1716516
0
LINE
8
DEFAULT_255_1_388
10
16.386427
20
31.3415217
11
16.2120391
21
31.3415217
0
LINE
8
DEFAULT_255_1_388
10
15.5479192
20
31.1671337
11
15.5479192
21
31.0397312
0
ARC
8
DEFAULT_255_1_388
10
15.7698504
20
30.9334329
40
0.6202263
50
340.1774904
51
353.7812217
0
ARC
8
DEFAULT_255_1_388
10
15.9466357
20
30.8675893
40
0.4315926
50
311.4560052
51
340.4420756
0
ARC
8
DEFAULT_255_1_388
10
15.9428897
20
30.8800665
40
0.4434573
50
282.4332229
51
310.7514507
0
ARC
8
DEFAULT_255_1_388
10
15.8934714
20
31.0842703
40
0.6535262
50
269.9358869
51
282.8096729
0
ARC
8
DEFAULT_255_1_388
10
15.8876654
20
31.2355329
40
0.8048043
50
269.9995752
51
270.3612856
0
ARC
8
DEFAULT_255_1_388
10
15.8817144
20
30.9556781
40
0.5249831
50
250.7885263
51
270.6488451
0
ARC
8
DEFAULT_255_1_388
10
15.8627969
20
30.8839853
40
0.4510942
50
219.3628377
51
250.0611024
0
ARC
8
DEFAULT_255_1_388
10
15.9560843
20
30.9632653
40
0.5735046
50
193.5480293
51
219.5755675
0
ARC
8
DEFAULT_255_1_388
10
16.2229052
20
31.032552
40
0.849146
50
181.1220183
51
193.8754971
0
ARC
8
DEFAULT_255_1_388
10
16.4552285
20
31.0449914
40
1.0816971
50
179.9914644
51
181.5398227
0
ARC
8
DEFAULT_255_1_388
10
16.2475595
20
31.1758586
40
0.8740384
50
169.5837606
51
180.275782
0
ARC
8
DEFAULT_255_1_388
10
16.0408944
20
31.2140439
40
0.6638751
50
155.0367033
51
169.6002779
0
ARC
8
DEFAULT_255_1_388
10
15.9131402
20
31.2756336
40
0.5220662
50
136.7831557
51
155.2472983
0
ARC
8
DEFAULT_255_1_388
10
15.8693192
20
31.3128577
40
0.4646502
50
121.7633063
51
136.4281161
0
ARC
8
DEFAULT_255_1_388
10
15.8845032
20
31.2848049
40
0.4964979
50
95.6460018
51
121.5489589
0
ARC
8
DEFAULT_255_1_388
10
15.9022007
20
31.1600704
40
0.6223912
50
89.9245727
51
96.1375919
0
ARC
8
DEFAULT_255_1_388
10
15.9078712
20
31.1734721
40
0.6090084
50
76.6779212
51
90.456405
0
ARC
8
DEFAULT_255_1_388
10
15.9521525
20
31.352406
40
0.42469
50
47.4858803
51
76.9287069
0
ARC
8
DEFAULT_255_1_388
10
15.9356139
20
31.3411623
40
0.4441778
50
16.5424081
51
46.8934505
0
ARC
8
DEFAULT_255_1_388
10
15.7547188
20
31.2817265
40
0.6345318
50
5.4072971
51
17.0363711
0
ARC
8
DEFAULT_255_1_388
10
15.5928914
20
31.2557304
40
0.6250632
50
7.8888693
51
15.9242022
0
ARC
8
DEFAULT_255_1_388
10
15.8163899
20
31.3206309
40
0.3923364
50
15.7650676
51
27.9410069
0
ARC
8
DEFAULT_255_1_388
10
15.9406068
20
31.3871317
40
0.2514401
50
27.8167196
51
46.4007942
0
ARC
8
DEFAULT_255_1_388
10
15.946191
20
31.3864882
40
0.2480958
50
47.4372362
51
75.0695672
0
ARC
8
DEFAULT_255_1_388
10
15.9114746
20
31.2656277
40
0.3738281
50
74.7009379
51
87.8124314
0
ARC
8
DEFAULT_255_1_388
10
15.9032363
20
31.1472659
40
0.4924321
50
87.3802571
51
90.0251599
0
ARC
8
DEFAULT_255_1_388
10
15.898901
20
31.2792997
40
0.3604218
50
89.3451886
51
108.5744412
0
ARC
8
DEFAULT_255_1_388
10
15.8835002
20
31.3370836
40
0.3007661
50
109.2998307
51
143.3037387
0
ARC
8
DEFAULT_255_1_388
10
15.9692292
20
31.2711584
40
0.4089031
50
143.075267
51
163.1918576
0
ARC
8
DEFAULT_255_1_388
10
16.1888126
20
31.2018652
40
0.6391492
50
162.9375929
51
174.6208776
0
ARC
8
DEFAULT_255_1_388
10
16.4842508
20
31.1694711
40
0.9363344
50
174.342123
51
180.1430283
0
ARC
8
DEFAULT_255_1_388
10
16.3795049
20
31.0351117
40
0.8315986
50
179.6817261
51
189.150555
0
ARC
8
DEFAULT_255_1_388
10
16.0981798
20
30.9882559
40
0.5464044
50
188.9911061
51
203.5772363
0
ARC
8
DEFAULT_255_1_388
10
15.976709
20
30.9378539
40
0.4149206
50
203.9075402
51
215.1312435
0
ARC
8
DEFAULT_255_1_388
10
15.8728888
20
30.8573907
40
0.2837747
50
213.9071511
51
263.8848919
0
ARC
8
DEFAULT_255_1_388
10
15.8869881
20
30.9456519
40
0.3730641
50
263.1757928
51
270.1031044
0
ARC
8
DEFAULT_255_1_388
10
15.8905961
20
31.0859511
40
0.5133712
50
269.6722503
51
279.0606936
0
ARC
8
DEFAULT_255_1_388
10
15.9206116
20
30.904515
40
0.3294739
50
278.8749101
51
293.6349581
0
ARC
8
DEFAULT_255_1_388
10
15.956632
20
30.8199251
40
0.2375405
50
293.8553806
51
310.0518171
0
ARC
8
DEFAULT_255_1_388
10
15.9571828
20
30.8129021
40
0.2318463
50
311.0644687
51
332.0111037
0
ARC
8
DEFAULT_255_1_388
10
15.8230502
20
30.8868702
40
0.3850112
50
331.6586806
51
343.2877423
0
ARC
8
DEFAULT_255_1_388
10
15.5909967
20
30.9581806
40
0.6277712
50
343.1446576
51
351.0103568
0
ARC
8
DEFAULT_255_1_388
10
15.427729
20
30.9881873
40
0.7937327
50
350.71248
51
351.1626997
0
LINE
8
DEFAULT_255_1_388
10
17.8628513
20
31.226769
11
17.8628513
21
31.0099135
0
LINE
8
DEFAULT_255_1_388
10
17.0324756
20
30.9873244
11
17.0324756
21
31.2105048
0
LINE
8
DEFAULT_255_1_388
10
17.6956919
20
30.9647353
11
17.6956919
21
31.2385153
0
LINE
8
DEFAULT_255_1_388
10
17.199635
20
31.2511652
11
17.199635
21
30.9837102
0
ARC
8
DEFAULT_255_1_388
10
16.4850847
20
31.0044118
40
1.3777776
50
353.8440855
51
0.2287917
0
ARC
8
DEFAULT_255_1_388
10
17.0069865
20
30.9461414
40
0.852639
50
344.4934746
51
353.9763743
0
ARC
8
DEFAULT_255_1_388
10
17.3436672
20
30.8504191
40
0.5026273
50
329.2803599
51
344.7473406
0
ARC
8
DEFAULT_255_1_388
10
17.4552167
20
30.7892038
40
0.3754848
50
324.9361395
51
328.6153007
0
ARC
8
DEFAULT_255_1_388
10
17.4977817
20
30.7594586
40
0.3235566
50
280.5801797
51
324.9173226
0
ARC
8
DEFAULT_255_1_388
10
17.4526446
20
30.9474236
40
0.5167077
50
269.5979457
51
281.6732777
0
ARC
8
DEFAULT_255_1_388
10
17.4445349
20
30.9339113
40
0.5032026
50
256.6228565
51
270.5105488
0
ARC
8
DEFAULT_255_1_388
10
17.3993092
20
30.7597345
40
0.3233092
50
215.8618351
51
257.2787793
0
ARC
8
DEFAULT_255_1_388
10
17.5141799
20
30.8368106
40
0.4615831
50
197.9695203
51
215.2622745
0
ARC
8
DEFAULT_255_1_388
10
17.7937475
20
30.9311641
40
0.7566307
50
187.8816486
51
198.2346584
0
ARC
8
DEFAULT_255_1_388
10
18.2390713
20
30.9954453
40
1.2065653
50
180.8977266
51
188.0054894
0
ARC
8
DEFAULT_255_1_388
10
18.5440927
20
31.00694
40
1.5117443
50
180.7434591
51
181.152202
0
ARC
8
DEFAULT_255_1_388
10
18.3765923
20
31.2159371
40
1.3441277
50
173.7674302
51
180.2315596
0
ARC
8
DEFAULT_255_1_388
10
17.8683792
20
31.2733779
40
0.8326847
50
164.3058537
51
173.9000553
0
ARC
8
DEFAULT_255_1_388
10
17.5407792
20
31.3677652
40
0.4917711
50
148.7922028
51
164.5682288
0
ARC
8
DEFAULT_255_1_388
10
17.4338529
20
31.4274457
40
0.3694204
50
144.5883979
51
148.1161588
0
ARC
8
DEFAULT_255_1_388
10
17.3951274
20
31.4544667
40
0.322202
50
101.6440149
51
144.5142619
0
ARC
8
DEFAULT_255_1_388
10
17.4429467
20
31.2644337
40
0.5180451
50
89.528284
51
102.5820197
0
ARC
8
DEFAULT_255_1_388
10
17.4518458
20
31.2600376
40
0.5224441
50
77.0437914
51
90.508231
0
ARC
8
DEFAULT_255_1_388
10
17.4970712
20
31.4448272
40
0.3322297
50
48.2777708
51
77.4996087
0
ARC
8
DEFAULT_255_1_388
10
17.5052452
20
31.4593557
40
0.315966
50
36.3141586
51
47.6307332
0
ARC
8
DEFAULT_255_1_388
10
17.4075174
20
31.3935159
40
0.4337313
50
18.2931065
51
35.6770203
0
ARC
8
DEFAULT_255_1_388
10
17.1214015
20
31.2953107
40
0.7362203
50
8.0246996
51
18.5605636
0
ARC
8
DEFAULT_255_1_388
10
16.6530371
20
31.2261432
40
1.2096583
50
1.127539
51
8.1718423
0
ARC
8
DEFAULT_255_1_388
10
16.2881504
20
31.2118374
40
1.5747719
50
0.5432713
51
1.38669
0
ARC
8
DEFAULT_255_1_388
10
16.4938883
20
31.2425163
40
1.2018103
50
359.8092569
51
4.9408001
0
ARC
8
DEFAULT_255_1_388
10
16.9675464
20
31.28479
40
0.7262727
50
4.8364937
51
12.2906017
0
ARC
8
DEFAULT_255_1_388
10
17.2774929
20
31.3538485
40
0.4087324
50
12.0806994
51
23.8171225
0
ARC
8
DEFAULT_255_1_388
10
17.4095325
20
31.4097508
40
0.2653719
50
24.2874621
51
31.3934353
0
ARC
8
DEFAULT_255_1_388
10
17.4685761
20
31.4483822
40
0.1948607
50
30.7407708
51
82.4658033
0
ARC
8
DEFAULT_255_1_388
10
17.4483422
20
31.3490017
40
0.2961198
50
81.1057101
51
90.2187368
0
ARC
8
DEFAULT_255_1_388
10
17.4443233
20
31.3780421
40
0.2670929
50
89.380395
51
105.6763916
0
ARC
8
DEFAULT_255_1_388
10
17.4236955
20
31.453032
40
0.1893189
50
105.7980655
51
149.7387869
0
ARC
8
DEFAULT_255_1_388
10
17.5434095
20
31.3810719
40
0.3289892
50
149.4208441
51
163.628295
0
ARC
8
DEFAULT_255_1_388
10
17.7786325
20
31.3093345
40
0.5749004
50
163.3764549
51
172.141138
0
ARC
8
DEFAULT_255_1_388
10
18.1499047
20
31.2561582
40
0.9499585
50
172.0258462
51
178.0705453
0
ARC
8
DEFAULT_255_1_388
10
18.4920599
20
31.2399682
40
1.2924734
50
177.8639301
51
179.5036263
0
ARC
8
DEFAULT_255_1_388
10
18.3701618
20
30.9796151
40
1.170534
50
179.7995545
51
185.246089
0
ARC
8
DEFAULT_255_1_388
10
17.9153211
20
30.9365404
40
0.7136613
50
185.1411911
51
193.0082205
0
ARC
8
DEFAULT_255_1_388
10
17.6179472
20
30.8662441
40
0.4080987
50
192.7897338
51
205.2507384
0
ARC
8
DEFAULT_255_1_388
10
17.5001682
20
30.8136538
40
0.2791522
50
205.8001921
51
211.2545876
0
ARC
8
DEFAULT_255_1_388
10
17.4413221
20
30.7742132
40
0.2084074
50
210.3789935
51
238.4007996
0
ARC
8
DEFAULT_255_1_388
10
17.4391307
20
30.7794786
40
0.2117943
50
239.6521916
51
265.9793852
0
ARC
8
DEFAULT_255_1_388
10
17.4487156
20
30.8551358
40
0.2879689
50
265.1324455
51
270.0603288
0
ARC
8
DEFAULT_255_1_388
10
17.4519533
20
30.8186418
40
0.2514919
50
269.3314378
51
287.2180039
0
ARC
8
DEFAULT_255_1_388
10
17.4674615
20
30.7620291
40
0.1928357
50
287.7957942
51
329.0808983
0
ARC
8
DEFAULT_255_1_388
10
17.3597372
20
30.8292651
40
0.319808
50
328.6635261
51
343.3325043
0
ARC
8
DEFAULT_255_1_388
10
17.1152831
20
30.9054195
40
0.5758408
50
343.0498092
51
351.9392499
0
ARC
8
DEFAULT_255_1_388
10
16.7252152
20
30.9629205
40
0.9701202
50
351.8071632
51
357.7957897
0
ARC
8
DEFAULT_255_1_388
10
16.3617629
20
30.9817724
40
1.3340376
50
357.5870923
51
359.2682493
0
LINE
8
DEFAULT_255_1_388
10
18.2875266
20
31.0740666
11
18.1537991
21
31.1084021
0
LINE
8
DEFAULT_255_1_388
10
18.1537991
20
31.1084021
11
18.2206628
21
31.7643898
0
LINE
8
DEFAULT_255_1_388
10
18.2206628
20
31.7643898
11
18.8947219
21
31.7643898
0
LINE
8
DEFAULT_255_1_388
10
18.8947219
20
31.7643898
11
18.8947219
21
31.6098803
0
LINE
8
DEFAULT_255_1_388
10
18.8947219
20
31.6098803
11
18.3625225
21
31.6098803
0
LINE
8
DEFAULT_255_1_388
10
18.3625225
20
31.6098803
11
18.3227656
21
31.2511652
0
LINE
8
DEFAULT_255_1_388
10
18.1068137
20
30.7948652
11
18.2649375
21
30.7948652
0
LINE
8
DEFAULT_255_1_388
10
18.3318013
20
31.1102092
11
18.2875266
21
31.0740666
0
ARC
8
DEFAULT_255_1_388
10
18.531427
20
30.8934241
40
0.4141476
50
93.7181681
51
120.253934
0
ARC
8
DEFAULT_255_1_388
10
18.5420322
20
30.8025284
40
0.5055616
50
89.9660471
51
94.2495185
0
ARC
8
DEFAULT_255_1_388
10
18.5466144
20
30.8688154
40
0.4392953
50
73.8045384
51
90.5585736
0
ARC
8
DEFAULT_255_1_388
10
18.5730401
20
30.965352
40
0.3392225
50
41.3071072
51
73.543002
0
ARC
8
DEFAULT_255_1_388
10
18.5262222
20
30.9250461
40
0.4009977
50
13.5075837
51
41.2174839
0
ARC
8
DEFAULT_255_1_388
10
18.3415319
20
30.8766907
40
0.5918864
50
1.1330171
51
13.8830737
0
ARC
8
DEFAULT_255_1_388
10
18.1818965
20
30.8681522
40
0.7516787
50
359.9925091
51
1.5431298
0
ARC
8
DEFAULT_255_1_388
10
18.326358
20
30.8635027
40
0.6072343
50
347.8572712
51
0.4294349
0
ARC
8
DEFAULT_255_1_388
10
18.5232714
20
30.8188898
40
0.4053482
50
323.6727442
51
348.1674594
0
ARC
8
DEFAULT_255_1_388
10
18.5563679
20
30.7987175
40
0.3667495
50
316.8171818
51
323.1486802
0
ARC
8
DEFAULT_255_1_388
10
18.5632803
20
30.7945612
40
0.358869
50
281.839603
51
316.5458142
0
ARC
8
DEFAULT_255_1_388
10
18.521009
20
30.9695363
40
0.5388223
50
269.5770964
51
282.4214641
0
ARC
8
DEFAULT_255_1_388
10
18.5130011
20
30.945493
40
0.5147801
50
256.2425863
51
270.4486481
0
ARC
8
DEFAULT_255_1_388
10
18.4793539
20
30.8105124
40
0.3756708
50
228.9024379
51
256.33135
0
ARC
8
DEFAULT_255_1_388
10
18.4710519
20
30.7974054
40
0.360344
50
193.7536029
51
228.5272638
0
ARC
8
DEFAULT_255_1_388
10
18.6103084
20
30.8382463
40
0.5053599
50
184.9244437
51
194.4976052
0
ARC
8
DEFAULT_255_1_388
10
18.6319725
20
30.8422722
40
0.3700839
50
187.3596909
51
198.6733728
0
ARC
8
DEFAULT_255_1_388
10
18.5138968
20
30.8013373
40
0.2451195
50
198.4453795
51
217.7945479
0
ARC
8
DEFAULT_255_1_388
10
18.4806141
20
30.7777563
40
0.2043754
50
218.2887146
51
228.5613203
0
ARC
8
DEFAULT_255_1_388
10
18.4916148
20
30.7925902
40
0.2227819
50
228.9652423
51
258.1237049
0
ARC
8
DEFAULT_255_1_388
10
18.5147585
20
30.8916964
40
0.3245374
50
257.7260585
51
270.4013717
0
ARC
8
DEFAULT_255_1_388
10
18.5198083
20
30.8416255
40
0.2744726
50
269.4204315
51
286.420998
0
ARC
8
DEFAULT_255_1_388
10
18.5365139
20
30.7809705
40
0.2115721
50
286.7250065
51
320.6004665
0
ARC
8
DEFAULT_255_1_388
10
18.4934055
20
30.8159527
40
0.2670878
50
320.6712228
51
344.5440474
0
ARC
8
DEFAULT_255_1_388
10
18.3632768
20
30.8541394
40
0.4026927
50
344.241448
51
356.735803
0
ARC
8
DEFAULT_255_1_388
10
18.2229076
20
30.8657656
40
0.5435085
50
356.3547471
51
0.0507222
0
ARC
8
DEFAULT_255_1_388
10
18.3731341
20
30.8692812
40
0.3932934
50
359.5579289
51
12.9534322
0
ARC
8
DEFAULT_255_1_388
10
18.4918181
20
30.8980586
40
0.2711827
50
12.6489751
51
41.608121
0
ARC
8
DEFAULT_255_1_388
10
18.5177341
20
30.9200946
40
0.2371737
50
41.7851122
51
85.9892156
0
ARC
8
DEFAULT_255_1_388
10
18.5038651
20
30.8285738
40
0.3295244
50
84.6965848
51
90.0672125
0
ARC
8
DEFAULT_255_1_388
10
18.5012218
20
30.7534118
40
0.4046926
50
89.6804991
51
99.161352
0
ARC
8
DEFAULT_255_1_388
10
18.4781227
20
30.8914848
40
0.2647044
50
98.9836248
51
113.8905702
0
ARC
8
DEFAULT_255_1_388
10
18.4522902
20
30.9524118
40
0.1985386
50
114.195234
51
127.3641866
0
LINE
8
DEFAULT_255_1_388
10
19.7151584
20
31.7643898
11
19.1666948
21
30.3358544
0
LINE
8
DEFAULT_255_1_388
10
19.1666948
20
30.3358544
11
19.0230281
21
30.3358544
0
LINE
8
DEFAULT_255_1_388
10
19.0230281
20
30.3358544
11
19.5723953
21
31.7643898
0
LINE
8
DEFAULT_255_1_388
10
19.5723953
20
31.7643898
11
19.7151584
21
31.7643898
0
LINE
8
DEFAULT_255_1_388
10
20.703658
20
31.226769
11
20.703658
21
31.0099135
0
LINE
8
DEFAULT_255_1_388
10
19.8732822
20
30.9873244
11
19.8732822
21
31.2105048
0
LINE
8
DEFAULT_255_1_388
10
20.5364985
20
30.9647353
11
20.5364985
21
31.2385153
0
LINE
8
DEFAULT_255_1_388
10
20.0404417
20
31.2511652
11
20.0404417
21
30.9837102
0
ARC
8
DEFAULT_255_1_388
10
19.3258914
20
31.0044118
40
1.3777776
50
353.8440855
51
0.2287917
0
ARC
8
DEFAULT_255_1_388
10
19.8477931
20
30.9461414
40
0.852639
50
344.4934746
51
353.9763743
0
ARC
8
DEFAULT_255_1_388
10
20.1844738
20
30.8504191
40
0.5026273
50
329.2803599
51
344.7473406
0
ARC
8
DEFAULT_255_1_388
10
20.2960234
20
30.7892038
40
0.3754848
50
324.9361395
51
328.6153007
0
ARC
8
DEFAULT_255_1_388
10
20.3385884
20
30.7594586
40
0.3235566
50
280.5801797
51
324.9173226
0
ARC
8
DEFAULT_255_1_388
10
20.2934512
20
30.9474236
40
0.5167077
50
269.5979457
51
281.6732777
0
ARC
8
DEFAULT_255_1_388
10
20.2853416
20
30.9339113
40
0.5032026
50
256.6228565
51
270.5105488
0
ARC
8
DEFAULT_255_1_388
10
20.2401159
20
30.7597345
40
0.3233092
50
215.8618351
51
257.2787793
0
ARC
8
DEFAULT_255_1_388
10
20.3549866
20
30.8368106
40
0.4615831
50
197.9695203
51
215.2622745
0
ARC
8
DEFAULT_255_1_388
10
20.6345541
20
30.9311641
40
0.7566307
50
187.8816486
51
198.2346584
0
ARC
8
DEFAULT_255_1_388
10
21.0798779
20
30.9954453
40
1.2065653
50
180.8977266
51
188.0054894
0
ARC
8
DEFAULT_255_1_388
10
21.3848993
20
31.00694
40
1.5117443
50
180.7434591
51
181.152202
0
ARC
8
DEFAULT_255_1_388
10
21.2173989
20
31.2159371
40
1.3441277
50
173.7674302
51
180.2315596
0
ARC
8
DEFAULT_255_1_388
10
20.7091858
20
31.2733779
40
0.8326847
50
164.3058537
51
173.9000553
0
ARC
8
DEFAULT_255_1_388
10
20.3815858
20
31.3677652
40
0.4917711
50
148.7922028
51
164.5682288
0
ARC
8
DEFAULT_255_1_388
10
20.2746595
20
31.4274457
40
0.3694204
50
144.5883979
51
148.1161588
0
ARC
8
DEFAULT_255_1_388
10
20.2359341
20
31.4544667
40
0.322202
50
101.6440149
51
144.5142619
0
ARC
8
DEFAULT_255_1_388
10
20.2837533
20
31.2644337
40
0.5180451
50
89.528284
51
102.5820197
0
ARC
8
DEFAULT_255_1_388
10
20.2926525
20
31.2600376
40
0.5224441
50
77.0437914
51
90.508231
0
ARC
8
DEFAULT_255_1_388
10
20.3378779
20
31.4448272
40
0.3322297
50
48.2777708
51
77.4996087
0
ARC
8
DEFAULT_255_1_388
10
20.3460519
20
31.4593557
40
0.315966
50
36.3141586
51
47.6307332
0
ARC
8
DEFAULT_255_1_388
10
20.2483241
20
31.3935159
40
0.4337313
50
18.2931065
51
35.6770203
0
ARC
8
DEFAULT_255_1_388
10
19.9622082
20
31.2953107
40
0.7362203
50
8.0246996
51
18.5605636
0
ARC
8
DEFAULT_255_1_388
10
19.4938437
20
31.2261432
40
1.2096583
50
1.127539
51
8.1718423
0
ARC
8
DEFAULT_255_1_388
10
19.1289571
20
31.2118374
40
1.5747719
50
0.5432713
51
1.38669
0
ARC
8
DEFAULT_255_1_388
10
19.3346949
20
31.2425163
40
1.2018103
50
359.8092569
51
4.9408001
0
ARC
8
DEFAULT_255_1_388
10
19.8083531
20
31.28479
40
0.7262727
50
4.8364937
51
12.2906017
0
ARC
8
DEFAULT_255_1_388
10
20.1182995
20
31.3538485
40
0.4087324
50
12.0806994
51
23.8171225
0
ARC
8
DEFAULT_255_1_388
10
20.2503391
20
31.4097508
40
0.2653719
50
24.2874621
51
31.3934353
0
ARC
8
DEFAULT_255_1_388
10
20.3093827
20
31.4483822
40
0.1948607
50
30.7407708
51
82.4658033
0
ARC
8
DEFAULT_255_1_388
10
20.2891488
20
31.3490017
40
0.2961198
50
81.1057101
51
90.2187368
0
ARC
8
DEFAULT_255_1_388
10
20.28513
20
31.3780421
40
0.2670929
50
89.380395
51
105.6763916
0
ARC
8
DEFAULT_255_1_388
10
20.2645022
20
31.453032
40
0.1893189
50
105.7980655
51
149.7387869
0
ARC
8
DEFAULT_255_1_388
10
20.3842162
20
31.3810719
40
0.3289892
50
149.4208441
51
163.628295
0
ARC
8
DEFAULT_255_1_388
10
20.6194392
20
31.3093345
40
0.5749004
50
163.3764549
51
172.141138
0
ARC
8
DEFAULT_255_1_388
10
20.9907113
20
31.2561582
40
0.9499585
50
172.0258462
51
178.0705453
0
ARC
8
DEFAULT_255_1_388
10
21.3328666
20
31.2399682
40
1.2924734
50
177.8639301
51
179.5036263
0
ARC
8
DEFAULT_255_1_388
10
21.2109684
20
30.9796151
40
1.170534
50
179.7995545
51
185.246089
0
ARC
8
DEFAULT_255_1_388
10
20.7561278
20
30.9365404
40
0.7136613
50
185.1411911
51
193.0082205
0
ARC
8
DEFAULT_255_1_388
10
20.4587538
20
30.8662441
40
0.4080987
50
192.7897338
51
205.2507384
0
ARC
8
DEFAULT_255_1_388
10
20.3409748
20
30.8136538
40
0.2791522
50
205.8001921
51
211.2545876
0
ARC
8
DEFAULT_255_1_388
10
20.2821287
20
30.7742132
40
0.2084074
50
210.3789935
51
238.4007996
0
ARC
8
DEFAULT_255_1_388
10
20.2799373
20
30.7794786
40
0.2117943
50
239.6521916
51
265.9793852
0
ARC
8
DEFAULT_255_1_388
10
20.2895222
20
30.8551358
40
0.2879689
50
265.1324455
51
270.0603288
0
ARC
8
DEFAULT_255_1_388
10
20.2927599
20
30.8186418
40
0.2514919
50
269.3314378
51
287.2180039
0
ARC
8
DEFAULT_255_1_388
10
20.3082682
20
30.7620291
40
0.1928357
50
287.7957942
51
329.0808983
0
ARC
8
DEFAULT_255_1_388
10
20.2005439
20
30.8292651
40
0.319808
50
328.6635261
51
343.3325043
0
ARC
8
DEFAULT_255_1_388
10
19.9560897
20
30.9054195
40
0.5758408
50
343.0498092
51
351.9392499
0
ARC
8
DEFAULT_255_1_388
10
19.5660219
20
30.9629205
40
0.9701202
50
351.8071632
51
357.7957897
0
ARC
8
DEFAULT_255_1_388
10
19.2025696
20
30.9817724
40
1.3340376
50
357.5870923
51
359.2682493
0
LINE
8
DEFAULT_255_1_388
10
21.5439729
20
31.7652934
11
21.5737905
21
31.7652934
0
LINE
8
DEFAULT_255_1_388
10
21.5737905
20
31.7652934
11
21.5737905
21
31.6234338
0
LINE
8
DEFAULT_255_1_388
10
21.5737905
20
31.6234338
11
21.5430693
21
31.6234338
0
LINE
8
DEFAULT_255_1_388
10
20.9277419
20
30.9493747
11
20.9277419
21
31.0135278
0
LINE
8
DEFAULT_255_1_388
10
21.0958049
20
30.9918422
11
21.0958049
21
30.9303999
0
ARC
8
DEFAULT_255_1_388
10
21.5489585
20
31.0611826
40
0.562282
50
90.6001079
51
104.5146616
0
ARC
8
DEFAULT_255_1_388
10
21.5052544
20
31.22371
40
0.3939917
50
104.2855758
51
133.8630124
0
ARC
8
DEFAULT_255_1_388
10
21.5236797
20
31.2115243
40
0.4155734
50
134.5304124
51
161.6210222
0
ARC
8
DEFAULT_255_1_388
10
21.7096729
20
31.1459421
40
0.6127682
50
161.2850533
51
174.2074364
0
ARC
8
DEFAULT_255_1_388
10
21.8686296
20
31.1240437
40
0.7731446
50
173.7817938
51
174.9251711
0
ARC
8
DEFAULT_255_1_388
10
21.356049
20
30.968527
40
0.3412588
50
95.8332067
51
138.995412
0
ARC
8
DEFAULT_255_1_388
10
21.381177
20
30.8246695
40
0.4870358
50
89.8755506
51
97.0540979
0
ARC
8
DEFAULT_255_1_388
10
21.3865159
20
30.9186841
40
0.3930432
50
71.6407016
51
90.6240821
0
ARC
8
DEFAULT_255_1_388
10
21.4034553
20
30.9810433
40
0.3285421
50
39.6368051
51
71.0190743
0
ARC
8
DEFAULT_255_1_388
10
21.331846
20
30.9191586
40
0.4231706
50
10.6588054
51
39.9044509
0
ARC
8
DEFAULT_255_1_388
10
21.1577006
20
30.8813223
40
0.60133
50
359.6827842
51
11.1326896
0
ARC
8
DEFAULT_255_1_388
10
21.1532342
20
30.8733715
40
0.6058047
50
347.2485908
51
0.4371098
0
ARC
8
DEFAULT_255_1_388
10
21.3408127
20
30.8282379
40
0.4128987
50
318.1408565
51
347.6118497
0
ARC
8
DEFAULT_255_1_388
10
21.3773724
20
30.7981903
40
0.3656244
50
275.6342406
51
317.824739
0
ARC
8
DEFAULT_255_1_388
10
21.3525245
20
30.9443827
40
0.513655
50
269.8872513
51
276.7916069
0
ARC
8
DEFAULT_255_1_388
10
21.3463437
20
30.8290181
40
0.398323
50
246.9139443
51
270.7436787
0
ARC
8
DEFAULT_255_1_388
10
21.3470633
20
30.8130044
40
0.3839368
50
218.1665534
51
245.8780431
0
ARC
8
DEFAULT_255_1_388
10
21.4460005
20
30.8957903
40
0.5128958
50
191.4115343
51
218.6077624
0
ARC
8
DEFAULT_255_1_388
10
21.6640321
20
30.9446777
40
0.7363054
50
179.6344971
51
191.7836758
0
ARC
8
DEFAULT_255_1_388
10
22.2920196
20
31.0210495
40
1.3642984
50
171.4523743
51
180.3158856
0
ARC
8
DEFAULT_255_1_388
10
21.7975923
20
31.0979895
40
0.8639311
50
157.9802296
51
171.6246761
0
ARC
8
DEFAULT_255_1_388
10
21.5485273
20
31.1973038
40
0.5958004
50
141.4299236
51
157.8541251
0
ARC
8
DEFAULT_255_1_388
10
21.4763357
20
31.2483746
40
0.5075416
50
102.871586
51
140.8564533
0
ARC
8
DEFAULT_255_1_388
10
21.549191
20
30.9738943
40
0.7914163
50
90.377773
51
103.5868422
0
ARC
8
DEFAULT_255_1_388
10
21.3536431
20
30.9058543
40
0.2667015
50
89.8751238
51
126.2072139
0
ARC
8
DEFAULT_255_1_388
10
21.3587902
20
30.8884847
40
0.2838229
50
124.9742447
51
144.8960197
0
ARC
8
DEFAULT_255_1_388
10
21.3390147
20
30.9045981
40
0.2583845
50
145.2974778
51
160.2660922
0
ARC
8
DEFAULT_255_1_388
10
21.6846635
20
30.9268151
40
0.5888695
50
179.6512124
51
190.285571
0
ARC
8
DEFAULT_255_1_388
10
21.4941115
20
30.8908968
40
0.3949683
50
190.0944895
51
207.5099647
0
ARC
8
DEFAULT_255_1_388
10
21.4304697
20
30.8606177
40
0.3245464
50
207.9585471
51
216.325377
0
ARC
8
DEFAULT_255_1_388
10
21.3922334
20
30.8291712
40
0.2751259
50
215.7661336
51
232.5457193
0
ARC
8
DEFAULT_255_1_388
10
21.3491449
20
30.7744273
40
0.2054668
50
232.8005815
51
270.6605497
0
ARC
8
DEFAULT_255_1_388
10
21.3542874
20
30.8153853
40
0.2464268
50
269.3550767
51
288.474612
0
ARC
8
DEFAULT_255_1_388
10
21.3647381
20
30.7760721
40
0.2058436
50
289.1831976
51
322.9685307
0
ARC
8
DEFAULT_255_1_388
10
21.2959482
20
30.8303279
40
0.2934408
50
322.6007085
51
346.5183319
0
ARC
8
DEFAULT_255_1_388
10
21.1657239
20
30.8635434
40
0.4278249
50
346.2584622
51
358.7739592
0
ARC
8
DEFAULT_255_1_388
10
21.0505814
20
30.8697829
40
0.5430876
50
358.3757628
51
0.0082477
0
ARC
8
DEFAULT_255_1_388
10
21.1362632
20
30.8728856
40
0.4574157
50
359.6211417
51
11.28403
0
ARC
8
DEFAULT_255_1_388
10
21.2799239
20
30.9028535
40
0.3106708
50
11.0483152
51
31.8145585
0
ARC
8
DEFAULT_255_1_388
10
21.3146944
20
30.9217045
40
0.2711963
50
32.3028554
51
38.0820598
0
ARC
8
DEFAULT_255_1_388
10
21.3620177
20
30.9645717
40
0.2075566
50
36.8249851
51
85.741667
0
ARC
8
DEFAULT_255_1_388
10
21.3544589
20
30.9082065
40
0.2643487
50
85.0150021
51
90.050843
0
LINE
8
DEFAULT_255_1_388
10
4.8809318
20
28.6008382
11
4.8809318
21
28.4644
0
LINE
8
DEFAULT_255_1_388
10
4.8809318
20
28.4644
11
4.0189313
21
28.4644
0
LINE
8
DEFAULT_255_1_388
10
4.0189313
20
28.4644
11
4.0189313
21
28.5845741
0
LINE
8
DEFAULT_255_1_388
10
4.0189313
20
28.5845741
11
4.4743278
21
29.0905702
0
LINE
8
DEFAULT_255_1_388
10
4.1607909
20
29.3923607
11
3.9936315
21
29.3923607
0
LINE
8
DEFAULT_255_1_388
10
4.5728163
20
28.983046
11
4.2204262
21
28.6008382
0
LINE
8
DEFAULT_255_1_388
10
4.2204262
20
28.6008382
11
4.8809318
21
28.6008382
0
ARC
8
DEFAULT_255_1_388
10
2.9567337
20
30.4325983
40
2.0258655
50
318.5132526
51
320.7829045
0
ARC
8
DEFAULT_255_1_388
10
3.5515294
20
29.9484929
40
1.2589638
50
320.7372878
51
323.9739031
0
ARC
8
DEFAULT_255_1_388
10
3.9924226
20
29.6290554
40
0.7145141
50
323.8962701
51
328.64194
0
ARC
8
DEFAULT_255_1_388
10
4.2226484
20
29.4870545
40
0.4440242
50
328.8294576
51
331.7891185
0
ARC
8
DEFAULT_255_1_388
10
4.3348804
20
29.4291374
40
0.3177517
50
331.4254512
51
352.9365785
0
ARC
8
DEFAULT_255_1_388
10
4.3501804
20
29.425705
40
0.3021496
50
353.2257659
51
0.0166158
0
ARC
8
DEFAULT_255_1_388
10
4.3738564
20
29.4282894
40
0.2784847
50
359.486299
51
15.9343185
0
ARC
8
DEFAULT_255_1_388
10
4.4308831
20
29.4436269
40
0.2194403
50
16.1712913
51
43.5286088
0
ARC
8
DEFAULT_255_1_388
10
4.4395776
20
29.4523191
40
0.2071504
50
43.4417391
51
83.1661095
0
ARC
8
DEFAULT_255_1_388
10
4.4244937
20
29.3694316
40
0.2912888
50
82.160179
51
90.1505708
0
ARC
8
DEFAULT_255_1_388
10
4.4209418
20
29.3090279
40
0.3517025
50
89.5460741
51
102.5418361
0
ARC
8
DEFAULT_255_1_388
10
4.3936138
20
29.4249933
40
0.2325748
50
102.1738499
51
129.206123
0
ARC
8
DEFAULT_255_1_388
10
4.3847592
20
29.4389664
40
0.2161591
50
129.72865
51
135.753947
0
ARC
8
DEFAULT_255_1_388
10
4.3984074
20
29.4280728
40
0.2335433
50
136.1757367
51
166.3673339
0
ARC
8
DEFAULT_255_1_388
10
4.5116762
20
29.3977148
40
0.3507873
50
165.9090694
51
178.8684636
0
ARC
8
DEFAULT_255_1_388
10
4.6092534
20
29.3924263
40
0.4484624
50
178.4391136
51
180.0083808
0
ARC
8
DEFAULT_255_1_388
10
4.4513235
20
29.3968197
40
0.4577138
50
163.2878482
51
180.5581842
0
ARC
8
DEFAULT_255_1_388
10
4.3611276
20
29.4216393
40
0.3641968
50
133.4540601
51
162.947111
0
ARC
8
DEFAULT_255_1_388
10
4.3812158
20
29.4002789
40
0.3935189
50
100.7869829
51
133.4382499
0
ARC
8
DEFAULT_255_1_388
10
4.4203403
20
29.2260399
40
0.5720313
50
89.660664
51
101.3702276
0
ARC
8
DEFAULT_255_1_388
10
4.4278012
20
29.2329263
40
0.5651495
50
78.2172678
51
90.412935
0
ARC
8
DEFAULT_255_1_388
10
4.4677478
20
29.4156511
40
0.378122
50
55.9269121
51
78.4888449
0
ARC
8
DEFAULT_255_1_388
10
4.4898193
20
29.4537187
40
0.3342379
50
47.929771
51
55.4049217
0
ARC
8
DEFAULT_255_1_388
10
4.5012723
20
29.4653618
40
0.3179217
50
4.334829
51
48.0560205
0
ARC
8
DEFAULT_255_1_388
10
4.3780525
20
29.4462487
40
0.442341
50
359.9251713
51
5.5971671
0
ARC
8
DEFAULT_255_1_388
10
4.426268
20
29.4525728
40
0.3941854
50
337.8914027
51
358.9967534
0
ARC
8
DEFAULT_255_1_388
10
4.121025
20
29.5703295
40
0.7213271
50
326.9132501
51
338.3508308
0
ARC
8
DEFAULT_255_1_388
10
3.6726362
20
29.8577105
40
1.2538973
50
319.6471833
51
327.0959558
0
ARC
8
DEFAULT_255_1_388
10
3.241302
20
30.213505
40
1.8129975
50
317.2588228
51
319.9045804
0
LINE
8
DEFAULT_255_1_388
10
5.7637143
20
29.7799898
11
5.7637143
21
28.906243
0
LINE
8
DEFAULT_255_1_388
10
5.7637143
20
28.906243
11
5.9462343
21
28.906243
0
LINE
8
DEFAULT_255_1_388
10
5.9462343
20
28.906243
11
5.9462343
21
28.7698048
0
LINE
8
DEFAULT_255_1_388
10
5.9462343
20
28.7698048
11
5.7637143
21
28.7698048
0
LINE
8
DEFAULT_255_1_388
10
5.7637143
20
28.7698048
11
5.7637143
21
28.4644
0
LINE
8
DEFAULT_255_1_388
10
5.7637143
20
28.4644
11
5.5956513
21
28.4644
0
LINE
8
DEFAULT_255_1_388
10
5.5956513
20
28.4644
11
5.5956513
21
28.7698048
0
LINE
8
DEFAULT_255_1_388
10
5.5956513
20
28.7698048
11
4.996588
21
28.7698048
0
LINE
8
DEFAULT_255_1_388
10
4.996588
20
28.7698048
11
4.996588
21
28.8682933
0
LINE
8
DEFAULT_255_1_388
10
4.996588
20
28.8682933
11
5.5857121
21
29.7799898
0
LINE
8
DEFAULT_255_1_388
10
5.5857121
20
29.7799898
11
5.7637143
21
29.7799898
0
LINE
8
DEFAULT_255_1_388
10
5.5757729
20
29.5152455
11
5.1863366
21
28.906243
0
LINE
8
DEFAULT_255_1_388
10
5.1863366
20
28.906243
11
5.5956513
21
28.906243
0
LINE
8
DEFAULT_255_1_388
10
5.5956513
20
28.906243
11
5.5956513
21
29.551388
0
LINE
8
DEFAULT_255_1_388
10
5.5956513
20
29.551388
11
5.5757729
21
29.5152455
0
LINE
8
DEFAULT_255_1_388
10
6.201943
20
29.7799898
11
6.5760187
21
28.6948089
0
LINE
8
DEFAULT_255_1_388
10
6.5760187
20
28.6948089
11
6.9519015
21
29.7799898
0
LINE
8
DEFAULT_255_1_388
10
6.9519015
20
29.7799898
11
7.14165
21
29.7799898
0
LINE
8
DEFAULT_255_1_388
10
7.14165
20
29.7799898
11
6.6537252
21
28.4644
0
LINE
8
DEFAULT_255_1_388
10
6.6537252
20
28.4644
11
6.5001193
21
28.4644
0
LINE
8
DEFAULT_255_1_388
10
6.5001193
20
28.4644
11
6.013098
21
29.7799898
0
LINE
8
DEFAULT_255_1_388
10
6.013098
20
29.7799898
11
6.201943
21
29.7799898
0
LINE
8
DEFAULT_255_1_388
10
4.875432
20
5.0693468
11
5.0498199
21
5.0693468
0
LINE
8
DEFAULT_255_1_388
10
4.0369242
20
5.2482525
11
4.0369242
21
5.3747516
0
LINE
8
DEFAULT_255_1_388
10
5.0498199
20
5.5446217
11
4.875432
21
5.5446217
0
LINE
8
DEFAULT_255_1_388
10
4.2113121
20
5.3702337
11
4.2113121
21
5.2428312
0
ARC
8
DEFAULT_255_1_388
10
4.4332433
20
5.1365329
40
0.6202263
50
340.1774904
51
353.7812217
0
ARC
8
DEFAULT_255_1_388
10
4.6100286
20
5.0706893
40
0.4315926
50
311.4560052
51
340.4420756
0
ARC
8
DEFAULT_255_1_388
10
4.6062826
20
5.0831665
40
0.4434573
50
282.4332229
51
310.7514507
0
ARC
8
DEFAULT_255_1_388
10
4.5568644
20
5.2873703
40
0.6535262
50
269.9358869
51
282.8096729
0
ARC
8
DEFAULT_255_1_388
10
4.5510583
20
5.4386329
40
0.8048043
50
269.9995752
51
270.3612856
0
ARC
8
DEFAULT_255_1_388
10
4.5451073
20
5.1587781
40
0.5249831
50
250.7885263
51
270.6488451
0
ARC
8
DEFAULT_255_1_388
10
4.5261898
20
5.0870853
40
0.4510942
50
219.3628377
51
250.0611024
0
ARC
8
DEFAULT_255_1_388
10
4.6194772
20
5.1663653
40
0.5735046
50
193.5480293
51
219.5755675
0
ARC
8
DEFAULT_255_1_388
10
4.8862981
20
5.235652
40
0.849146
50
181.1220183
51
193.8754971
0
ARC
8
DEFAULT_255_1_388
10
5.1186214
20
5.2480914
40
1.0816971
50
179.9914644
51
181.5398227
0
ARC
8
DEFAULT_255_1_388
10
4.9109525
20
5.3789586
40
0.8740384
50
169.5837606
51
180.275782
0
ARC
8
DEFAULT_255_1_388
10
4.7042873
20
5.4171439
40
0.6638751
50
155.0367033
51
169.6002779
0
ARC
8
DEFAULT_255_1_388
10
4.5765331
20
5.4787336
40
0.5220662
50
136.7831557
51
155.2472983
0
ARC
8
DEFAULT_255_1_388
10
4.5327122
20
5.5159577
40
0.4646502
50
121.7633063
51
136.4281161
0
ARC
8
DEFAULT_255_1_388
10
4.5478962
20
5.4879049
40
0.4964979
50
95.6460018
51
121.5489589
0
ARC
8
DEFAULT_255_1_388
10
4.5655936
20
5.3631704
40
0.6223912
50
89.9245727
51
96.1375919
0
ARC
8
DEFAULT_255_1_388
10
4.5712641
20
5.3765721
40
0.6090084
50
76.6779212
51
90.456405
0
ARC
8
DEFAULT_255_1_388
10
4.6155454
20
5.555506
40
0.42469
50
47.4858803
51
76.9287069
0
ARC
8
DEFAULT_255_1_388
10
4.5990068
20
5.5442623
40
0.4441778
50
16.5424081
51
46.8934505
0
ARC
8
DEFAULT_255_1_388
10
4.4181118
20
5.4848265
40
0.6345318
50
5.4072971
51
17.0363711
0
ARC
8
DEFAULT_255_1_388
10
4.2562843
20
5.4588304
40
0.6250632
50
7.8888693
51
15.9242022
0
ARC
8
DEFAULT_255_1_388
10
4.4797828
20
5.5237309
40
0.3923364
50
15.7650676
51
27.9410069
0
ARC
8
DEFAULT_255_1_388
10
4.6039997
20
5.5902317
40
0.2514401
50
27.8167196
51
46.4007942
0
ARC
8
DEFAULT_255_1_388
10
4.6095839
20
5.5895882
40
0.2480958
50
47.4372362
51
75.0695672
0
ARC
8
DEFAULT_255_1_388
10
4.5748675
20
5.4687277
40
0.3738281
50
74.7009379
51
87.8124314
0
ARC
8
DEFAULT_255_1_388
10
4.5666292
20
5.3503659
40
0.4924321
50
87.3802571
51
90.0251599
0
ARC
8
DEFAULT_255_1_388
10
4.5622939
20
5.4823997
40
0.3604218
50
89.3451886
51
108.5744412
0
ARC
8
DEFAULT_255_1_388
10
4.5468931
20
5.5401836
40
0.3007661
50
109.2998307
51
143.3037387
0
ARC
8
DEFAULT_255_1_388
10
4.6326221
20
5.4742584
40
0.4089031
50
143.075267
51
163.1918576
0
ARC
8
DEFAULT_255_1_388
10
4.8522055
20
5.4049652
40
0.6391492
50
162.9375929
51
174.6208776
0
ARC
8
DEFAULT_255_1_388
10
5.1476437
20
5.3725711
40
0.9363344
50
174.342123
51
180.1430283
0
ARC
8
DEFAULT_255_1_388
10
5.0428978
20
5.2382117
40
0.8315986
50
179.6817261
51
189.150555
0
ARC
8
DEFAULT_255_1_388
10
4.7615727
20
5.1913559
40
0.5464044
50
188.9911061
51
203.5772363
0
ARC
8
DEFAULT_255_1_388
10
4.6401019
20
5.1409539
40
0.4149206
50
203.9075402
51
215.1312435
0
ARC
8
DEFAULT_255_1_388
10
4.5362817
20
5.0604907
40
0.2837747
50
213.9071511
51
263.8848919
0
ARC
8
DEFAULT_255_1_388
10
4.550381
20
5.1487519
40
0.3730641
50
263.1757928
51
270.1031044
0
ARC
8
DEFAULT_255_1_388
10
4.553989
20
5.2890511
40
0.5133712
50
269.6722503
51
279.0606936
0
ARC
8
DEFAULT_255_1_388
10
4.5840045
20
5.107615
40
0.3294739
50
278.8749101
51
293.6349581
0
ARC
8
DEFAULT_255_1_388
10
4.6200249
20
5.0230251
40
0.2375405
50
293.8553806
51
310.0518171
0
ARC
8
DEFAULT_255_1_388
10
4.6205758
20
5.0160021
40
0.2318463
50
311.0644687
51
332.0111037
0
ARC
8
DEFAULT_255_1_388
10
4.4864431
20
5.0899702
40
0.3850112
50
331.6586806
51
343.2877423
0
ARC
8
DEFAULT_255_1_388
10
4.2543896
20
5.1612806
40
0.6277712
50
343.1446576
51
351.0103568
0
ARC
8
DEFAULT_255_1_388
10
4.091122
20
5.1912873
40
0.7937327
50
350.71248
51
351.1626997
0
LINE
8
DEFAULT_255_1_388
10
5.6082228
20
5.2789737
11
5.6082228
21
5.1425355
0
LINE
8
DEFAULT_255_1_388
10
5.6082228
20
5.1425355
11
5.1672833
21
5.1425355
0
LINE
8
DEFAULT_255_1_388
10
5.1672833
20
5.1425355
11
5.1672833
21
5.2789737
0
LINE
8
DEFAULT_255_1_388
10
5.1672833
20
5.2789737
11
5.6082228
21
5.2789737
0
LINE
8
DEFAULT_255_1_388
10
6.5407013
20
5.4018585
11
6.5407013
21
5.2599989
0
LINE
8
DEFAULT_255_1_388
10
6.5407013
20
5.2599989
11
5.9705521
21
5.2599989
0
LINE
8
DEFAULT_255_1_388
10
5.9705521
20
5.2599989
11
5.9705521
21
4.7937596
0
LINE
8
DEFAULT_255_1_388
10
5.9705521
20
4.7937596
11
6.6328648
21
4.7937596
0
LINE
8
DEFAULT_255_1_388
10
6.6328648
20
4.7937596
11
6.6328648
21
4.6519
0
LINE
8
DEFAULT_255_1_388
10
6.6328648
20
4.6519
11
5.7970677
21
4.6519
0
LINE
8
DEFAULT_255_1_388
10
5.7970677
20
4.6519
11
5.7970677
21
5.9674898
0
LINE
8
DEFAULT_255_1_388
10
5.7970677
20
5.9674898
11
6.6238292
21
5.9674898
0
LINE
8
DEFAULT_255_1_388
10
6.6238292
20
5.9674898
11
6.6238292
21
5.8247267
0
LINE
8
DEFAULT_255_1_388
10
6.6238292
20
5.8247267
11
5.9705521
21
5.8247267
0
LINE
8
DEFAULT_255_1_388
10
5.9705521
20
5.8247267
11
5.9705521
21
5.4018585
0
LINE
8
DEFAULT_255_1_388
10
5.9705521
20
5.4018585
11
6.5407013
21
5.4018585
0
LINE
8
DEFAULT_255_1_388
10
7.6168465
20
4.6519
11
7.3313202
21
5.1840995
0
LINE
8
DEFAULT_255_1_388
10
7.3313202
20
5.1840995
11
7.0223011
21
5.1840995
0
LINE
8
DEFAULT_255_1_388
10
7.0223011
20
5.1840995
11
7.0223011
21
4.6519
0
LINE
8
DEFAULT_255_1_388
10
7.0223011
20
4.6519
11
6.8479132
21
4.6519
0
LINE
8
DEFAULT_255_1_388
10
6.8479132
20
4.6519
11
6.8479132
21
5.9674898
0
LINE
8
DEFAULT_255_1_388
10
6.8479132
20
5.9674898
11
7.2834313
21
5.9674898
0
LINE
8
DEFAULT_255_1_388
10
7.4939618
20
5.2211456
11
7.8029808
21
4.6627428
0
LINE
8
DEFAULT_255_1_388
10
7.8029808
20
4.6627428
11
7.8029808
21
4.6519
0
LINE
8
DEFAULT_255_1_388
10
7.8029808
20
4.6519
11
7.6168465
21
4.6519
0
LINE
8
DEFAULT_255_1_388
10
7.0223011
20
5.8247267
11
7.0223011
21
5.3259591
0
LINE
8
DEFAULT_255_1_388
10
7.0223011
20
5.3259591
11
7.2888526
21
5.3259591
0
LINE
8
DEFAULT_255_1_388
10
7.2879491
20
5.8247267
11
7.0223011
21
5.8247267
0
ARC
8
DEFAULT_255_1_388
10
7.2881158
20
5.1843346
40
0.7831693
50
80.6535681
51
90.3427203
0
ARC
8
DEFAULT_255_1_388
10
7.3353069
20
5.4613722
40
0.5021479
50
65.6987674
51
80.8330164
0
ARC
8
DEFAULT_255_1_388
10
7.3890362
20
5.5845479
40
0.3677787
50
50.0019152
51
65.4304412
0
ARC
8
DEFAULT_255_1_388
10
7.4136179
20
5.6177603
40
0.3265454
50
11.6284215
51
49.5603681
0
ARC
8
DEFAULT_255_1_388
10
7.2408665
20
5.5755524
40
0.5043009
50
359.5655533
51
12.3693319
0
ARC
8
DEFAULT_255_1_388
10
7.3620001
20
5.5685038
40
0.3831661
50
341.998418
51
0.4822212
0
ARC
8
DEFAULT_255_1_388
10
7.4064188
20
5.5564479
40
0.3372036
50
323.8610842
51
341.6141514
0
ARC
8
DEFAULT_255_1_388
10
7.3724734
20
5.5826615
40
0.3800784
50
296.7019299
51
323.6876213
0
ARC
8
DEFAULT_255_1_388
10
7.3228692
20
5.6713532
40
0.4816219
50
290.808313
51
297.2325929
0
ARC
8
DEFAULT_255_1_388
10
7.2917485
20
5.7302377
40
0.404289
50
269.5895908
51
281.8058892
0
ARC
8
DEFAULT_255_1_388
10
7.3199752
20
5.601136
40
0.2721459
50
281.5499321
51
303.9358954
0
ARC
8
DEFAULT_255_1_388
10
7.3354286
20
5.5743588
40
0.2413121
50
304.4410786
51
311.211123
0
ARC
8
DEFAULT_255_1_388
10
7.3502691
20
5.5587152
40
0.2197678
50
310.9874923
51
356.2715203
0
ARC
8
DEFAULT_255_1_388
10
7.2652438
20
5.5713992
40
0.3055212
50
354.9346315
51
0.0617816
0
ARC
8
DEFAULT_255_1_388
10
7.2441279
20
5.5744427
40
0.3266482
50
359.5239293
51
12.8808621
0
ARC
8
DEFAULT_255_1_388
10
7.3541041
20
5.6013638
40
0.2134449
50
12.417206
51
43.1023141
0
ARC
8
DEFAULT_255_1_388
10
7.3610371
20
5.6055253
40
0.2055463
50
43.575886
51
48.2047245
0
ARC
8
DEFAULT_255_1_388
10
7.3419632
20
5.5806151
40
0.2368418
50
48.7809155
51
72.6968768
0
ARC
8
DEFAULT_255_1_388
10
7.3020996
20
5.4596385
40
0.364206
50
72.3699892
51
84.8793749
0
ARC
8
DEFAULT_255_1_388
10
7.2855002
20
5.3086651
40
0.5160674
50
84.5398226
51
89.7281165
0
LINE
8
DEFAULT_255_1_388
10
4.2562903
20
13.9049898
11
4.2562903
21
12.7312596
0
LINE
8
DEFAULT_255_1_388
10
4.2562903
20
12.7312596
11
4.8797498
21
12.7312596
0
LINE
8
DEFAULT_255_1_388
10
4.8797498
20
12.7312596
11
4.8797498
21
12.5894
0
LINE
8
DEFAULT_255_1_388
10
4.8797498
20
12.5894
11
4.0819024
21
12.5894
0
LINE
8
DEFAULT_255_1_388
10
4.0819024
20
12.5894
11
4.0819024
21
13.9049898
0
LINE
8
DEFAULT_255_1_388
10
4.0819024
20
13.9049898
11
4.2562903
21
13.9049898
0
LINE
8
DEFAULT_255_1_388
10
5.3992994
20
13.2164737
11
5.3992994
21
13.0800355
0
LINE
8
DEFAULT_255_1_388
10
5.3992994
20
13.0800355
11
4.9583599
21
13.0800355
0
LINE
8
DEFAULT_255_1_388
10
4.9583599
20
13.0800355
11
4.9583599
21
13.2164737
0
LINE
8
DEFAULT_255_1_388
10
4.9583599
20
13.2164737
11
5.3992994
21
13.2164737
0
LINE
8
DEFAULT_255_1_388
10
6.3317779
20
13.3393585
11
6.3317779
21
13.1974989
0
LINE
8
DEFAULT_255_1_388
10
6.3317779
20
13.1974989
11
5.7616287
21
13.1974989
0
LINE
8
DEFAULT_255_1_388
10
5.7616287
20
13.1974989
11
5.7616287
21
12.7312596
0
LINE
8
DEFAULT_255_1_388
10
5.7616287
20
12.7312596
11
6.4239415
21
12.7312596
0
LINE
8
DEFAULT_255_1_388
10
6.4239415
20
12.7312596
11
6.4239415
21
12.5894
0
LINE
8
DEFAULT_255_1_388
10
6.4239415
20
12.5894
11
5.5881443
21
12.5894
0
LINE
8
DEFAULT_255_1_388
10
5.5881443
20
12.5894
11
5.5881443
21
13.9049898
0
LINE
8
DEFAULT_255_1_388
10
5.5881443
20
13.9049898
11
6.4149058
21
13.9049898
0
LINE
8
DEFAULT_255_1_388
10
6.4149058
20
13.9049898
11
6.4149058
21
13.7622267
0
LINE
8
DEFAULT_255_1_388
10
6.4149058
20
13.7622267
11
5.7616287
21
13.7622267
0
LINE
8
DEFAULT_255_1_388
10
5.7616287
20
13.7622267
11
5.7616287
21
13.3393585
0
LINE
8
DEFAULT_255_1_388
10
5.7616287
20
13.3393585
11
6.3317779
21
13.3393585
0
LINE
8
DEFAULT_255_1_388
10
7.4079231
20
12.5894
11
7.1223968
21
13.1215995
0
LINE
8
DEFAULT_255_1_388
10
7.1223968
20
13.1215995
11
6.8133777
21
13.1215995
0
LINE
8
DEFAULT_255_1_388
10
6.8133777
20
13.1215995
11
6.8133777
21
12.5894
0
LINE
8
DEFAULT_255_1_388
10
6.8133777
20
12.5894
11
6.6389898
21
12.5894
0
LINE
8
DEFAULT_255_1_388
10
6.6389898
20
12.5894
11
6.6389898
21
13.9049898
0
LINE
8
DEFAULT_255_1_388
10
6.6389898
20
13.9049898
11
7.0745079
21
13.9049898
0
LINE
8
DEFAULT_255_1_388
10
7.2850384
20
13.1586456
11
7.5940574
21
12.6002428
0
LINE
8
DEFAULT_255_1_388
10
7.5940574
20
12.6002428
11
7.5940574
21
12.5894
0
LINE
8
DEFAULT_255_1_388
10
7.5940574
20
12.5894
11
7.4079231
21
12.5894
0
LINE
8
DEFAULT_255_1_388
10
6.8133777
20
13.7622267
11
6.8133777
21
13.2634591
0
LINE
8
DEFAULT_255_1_388
10
6.8133777
20
13.2634591
11
7.0799292
21
13.2634591
0
LINE
8
DEFAULT_255_1_388
10
7.0790257
20
13.7622267
11
6.8133777
21
13.7622267
0
ARC
8
DEFAULT_255_1_388
10
7.0791924
20
13.1218346
40
0.7831693
50
80.6535681
51
90.3427203
0
ARC
8
DEFAULT_255_1_388
10
7.1263835
20
13.3988722
40
0.5021479
50
65.6987674
51
80.8330164
0
ARC
8
DEFAULT_255_1_388
10
7.1801129
20
13.5220479
40
0.3677787
50
50.0019152
51
65.4304412
0
ARC
8
DEFAULT_255_1_388
10
7.2046945
20
13.5552603
40
0.3265454
50
11.6284215
51
49.5603681
0
ARC
8
DEFAULT_255_1_388
10
7.0319431
20
13.5130524
40
0.5043009
50
359.5655533
51
12.3693319
0
ARC
8
DEFAULT_255_1_388
10
7.1530767
20
13.5060038
40
0.3831661
50
341.998418
51
0.4822212
0
ARC
8
DEFAULT_255_1_388
10
7.1974954
20
13.4939479
40
0.3372036
50
323.8610842
51
341.6141514
0
ARC
8
DEFAULT_255_1_388
10
7.16355
20
13.5201615
40
0.3800784
50
296.7019299
51
323.6876213
0
ARC
8
DEFAULT_255_1_388
10
7.1139458
20
13.6088532
40
0.4816219
50
290.808313
51
297.2325929
0
ARC
8
DEFAULT_255_1_388
10
7.0828251
20
13.6677377
40
0.404289
50
269.5895908
51
281.8058892
0
ARC
8
DEFAULT_255_1_388
10
7.1110518
20
13.538636
40
0.2721459
50
281.5499321
51
303.9358954
0
ARC
8
DEFAULT_255_1_388
10
7.1265052
20
13.5118588
40
0.2413121
50
304.4410786
51
311.211123
0
ARC
8
DEFAULT_255_1_388
10
7.1413457
20
13.4962152
40
0.2197678
50
310.9874923
51
356.2715203
0
ARC
8
DEFAULT_255_1_388
10
7.0563204
20
13.5088992
40
0.3055212
50
354.9346315
51
0.0617816
0
ARC
8
DEFAULT_255_1_388
10
7.0352045
20
13.5119427
40
0.3266482
50
359.5239293
51
12.8808621
0
ARC
8
DEFAULT_255_1_388
10
7.1451807
20
13.5388638
40
0.2134449
50
12.417206
51
43.1023141
0
ARC
8
DEFAULT_255_1_388
10
7.1521137
20
13.5430253
40
0.2055463
50
43.575886
51
48.2047245
0
ARC
8
DEFAULT_255_1_388
10
7.1330398
20
13.5181151
40
0.2368418
50
48.7809155
51
72.6968768
0
ARC
8
DEFAULT_255_1_388
10
7.0931762
20
13.3971385
40
0.364206
50
72.3699892
51
84.8793749
0
ARC
8
DEFAULT_255_1_388
10
7.0765768
20
13.2461651
40
0.5160674
50
84.5398226
51
89.7281165
0
LINE
8
DEFAULT_255_1_388
10
5.110091
20
21.8424898
11
5.110091
21
20.5269
0
LINE
8
DEFAULT_255_1_388
10
5.110091
20
20.5269
11
4.9357031
21
20.5269
0
LINE
8
DEFAULT_255_1_388
10
4.9357031
20
20.5269
11
4.2733903
21
21.5406993
0
LINE
8
DEFAULT_255_1_388
10
4.2733903
20
21.5406993
11
4.2733903
21
20.5269
0
LINE
8
DEFAULT_255_1_388
10
4.2733903
20
20.5269
11
4.0990024
21
20.5269
0
LINE
8
DEFAULT_255_1_388
10
4.0990024
20
20.5269
11
4.0990024
21
21.8424898
0
LINE
8
DEFAULT_255_1_388
10
4.0990024
20
21.8424898
11
4.2733903
21
21.8424898
0
LINE
8
DEFAULT_255_1_388
10
4.2733903
20
21.8424898
11
4.9375102
21
20.8241727
0
LINE
8
DEFAULT_255_1_388
10
4.9375102
20
20.8241727
11
4.9375102
21
21.8424898
0
LINE
8
DEFAULT_255_1_388
10
4.9375102
20
21.8424898
11
5.110091
21
21.8424898
0
LINE
8
DEFAULT_255_1_388
10
6.16184
20
21.2768585
11
6.16184
21
21.1349989
0
LINE
8
DEFAULT_255_1_388
10
6.16184
20
21.1349989
11
5.5916909
21
21.1349989
0
LINE
8
DEFAULT_255_1_388
10
5.5916909
20
21.1349989
11
5.5916909
21
20.6687596
0
LINE
8
DEFAULT_255_1_388
10
5.5916909
20
20.6687596
11
6.2540036
21
20.6687596
0
LINE
8
DEFAULT_255_1_388
10
6.2540036
20
20.6687596
11
6.2540036
21
20.5269
0
LINE
8
DEFAULT_255_1_388
10
6.2540036
20
20.5269
11
5.4182065
21
20.5269
0
LINE
8
DEFAULT_255_1_388
10
5.4182065
20
20.5269
11
5.4182065
21
21.8424898
0
LINE
8
DEFAULT_255_1_388
10
5.4182065
20
21.8424898
11
6.244968
21
21.8424898
0
LINE
8
DEFAULT_255_1_388
10
6.244968
20
21.8424898
11
6.244968
21
21.6997267
0
LINE
8
DEFAULT_255_1_388
10
6.244968
20
21.6997267
11
5.5916909
21
21.6997267
0
LINE
8
DEFAULT_255_1_388
10
5.5916909
20
21.6997267
11
5.5916909
21
21.2768585
0
LINE
8
DEFAULT_255_1_388
10
5.5916909
20
21.2768585
11
6.16184
21
21.2768585
0
LINE
8
DEFAULT_255_1_388
10
7.3970126
20
21.8424898
11
7.3970126
21
21.6997267
0
LINE
8
DEFAULT_255_1_388
10
7.3970126
20
21.6997267
11
6.9741445
21
21.6997267
0
LINE
8
DEFAULT_255_1_388
10
6.9741445
20
21.6997267
11
6.9741445
21
20.5269
0
LINE
8
DEFAULT_255_1_388
10
6.9741445
20
20.5269
11
6.8015637
21
20.5269
0
LINE
8
DEFAULT_255_1_388
10
6.8015637
20
20.5269
11
6.8015637
21
21.6997267
0
LINE
8
DEFAULT_255_1_388
10
6.8015637
20
21.6997267
11
6.3795991
21
21.6997267
0
LINE
8
DEFAULT_255_1_388
10
6.3795991
20
21.6997267
11
6.3795991
21
21.8424898
0
LINE
8
DEFAULT_255_1_388
10
6.3795991
20
21.8424898
11
7.3970126
21
21.8424898
0
LINE
8
DEFAULT_255_1_388
10
23.1198856
20
29.242369
11
23.1198856
21
29.0255135
0
LINE
8
DEFAULT_255_1_388
10
22.2895099
20
29.0029244
11
22.2895099
21
29.2261048
0
LINE
8
DEFAULT_255_1_388
10
22.9527262
20
28.9803353
11
22.9527262
21
29.2541153
0
LINE
8
DEFAULT_255_1_388
10
22.4566693
20
29.2667652
11
22.4566693
21
28.9993102
0
ARC
8
DEFAULT_255_1_388
10
21.742119
20
29.0200118
40
1.3777776
50
353.8440855
51
0.2287917
0
ARC
8
DEFAULT_255_1_388
10
22.2640208
20
28.9617414
40
0.852639
50
344.4934746
51
353.9763743
0
ARC
8
DEFAULT_255_1_388
10
22.6007015
20
28.8660191
40
0.5026273
50
329.2803599
51
344.7473406
0
ARC
8
DEFAULT_255_1_388
10
22.7122511
20
28.8048038
40
0.3754848
50
324.9361395
51
328.6153007
0
ARC
8
DEFAULT_255_1_388
10
22.7548161
20
28.7750586
40
0.3235566
50
280.5801797
51
324.9173226
0
ARC
8
DEFAULT_255_1_388
10
22.7096789
20
28.9630236
40
0.5167077
50
269.5979457
51
281.6732777
0
ARC
8
DEFAULT_255_1_388
10
22.7015693
20
28.9495113
40
0.5032026
50
256.6228565
51
270.5105488
0
ARC
8
DEFAULT_255_1_388
10
22.6563435
20
28.7753345
40
0.3233092
50
215.8618351
51
257.2787793
0
ARC
8
DEFAULT_255_1_388
10
22.7712142
20
28.8524106
40
0.4615831
50
197.9695203
51
215.2622745
0
ARC
8
DEFAULT_255_1_388
10
23.0507818
20
28.9467641
40
0.7566307
50
187.8816486
51
198.2346584
0
ARC
8
DEFAULT_255_1_388
10
23.4961056
20
29.0110453
40
1.2065653
50
180.8977266
51
188.0054894
0
ARC
8
DEFAULT_255_1_388
10
23.801127
20
29.02254
40
1.5117443
50
180.7434591
51
181.152202
0
ARC
8
DEFAULT_255_1_388
10
23.6336266
20
29.2315371
40
1.3441277
50
173.7674302
51
180.2315596
0
ARC
8
DEFAULT_255_1_388
10
23.1254135
20
29.2889779
40
0.8326847
50
164.3058537
51
173.9000553
0
ARC
8
DEFAULT_255_1_388
10
22.7978135
20
29.3833652
40
0.4917711
50
148.7922028
51
164.5682288
0
ARC
8
DEFAULT_255_1_388
10
22.6908872
20
29.4430457
40
0.3694204
50
144.5883979
51
148.1161588
0
ARC
8
DEFAULT_255_1_388
10
22.6521618
20
29.4700667
40
0.322202
50
101.6440149
51
144.5142619
0
ARC
8
DEFAULT_255_1_388
10
22.699981
20
29.2800337
40
0.5180451
50
89.528284
51
102.5820197
0
ARC
8
DEFAULT_255_1_388
10
22.7088802
20
29.2756376
40
0.5224441
50
77.0437914
51
90.508231
0
ARC
8
DEFAULT_255_1_388
10
22.7541055
20
29.4604272
40
0.3322297
50
48.2777708
51
77.4996087
0
ARC
8
DEFAULT_255_1_388
10
22.7622795
20
29.4749557
40
0.315966
50
36.3141586
51
47.6307332
0
ARC
8
DEFAULT_255_1_388
10
22.6645518
20
29.4091159
40
0.4337313
50
18.2931065
51
35.6770203
0
ARC
8
DEFAULT_255_1_388
10
22.3784358
20
29.3109107
40
0.7362203
50
8.0246996
51
18.5605636
0
ARC
8
DEFAULT_255_1_388
10
21.9100714
20
29.2417432
40
1.2096583
50
1.127539
51
8.1718423
0
ARC
8
DEFAULT_255_1_388
10
21.5451847
20
29.2274374
40
1.5747719
50
0.5432713
51
1.38669
0
ARC
8
DEFAULT_255_1_388
10
21.7509226
20
29.2581163
40
1.2018103
50
359.8092569
51
4.9408001
0
ARC
8
DEFAULT_255_1_388
10
22.2245807
20
29.30039
40
0.7262727
50
4.8364937
51
12.2906017
0
ARC
8
DEFAULT_255_1_388
10
22.5345272
20
29.3694485
40
0.4087324
50
12.0806994
51
23.8171225
0
ARC
8
DEFAULT_255_1_388
10
22.6665668
20
29.4253508
40
0.2653719
50
24.2874621
51
31.3934353
0
ARC
8
DEFAULT_255_1_388
10
22.7256104
20
29.4639822
40
0.1948607
50
30.7407708
51
82.4658033
0
ARC
8
DEFAULT_255_1_388
10
22.7053765
20
29.3646017
40
0.2961198
50
81.1057101
51
90.2187368
0
ARC
8
DEFAULT_255_1_388
10
22.7013577
20
29.3936421
40
0.2670929
50
89.380395
51
105.6763916
0
ARC
8
DEFAULT_255_1_388
10
22.6807299
20
29.468632
40
0.1893189
50
105.7980655
51
149.7387869
0
ARC
8
DEFAULT_255_1_388
10
22.8004439
20
29.3966719
40
0.3289892
50
149.4208441
51
163.628295
0
ARC
8
DEFAULT_255_1_388
10
23.0356668
20
29.3249345
40
0.5749004
50
163.3764549
51
172.141138
0
ARC
8
DEFAULT_255_1_388
10
23.406939
20
29.2717582
40
0.9499585
50
172.0258462
51
178.0705453
0
ARC
8
DEFAULT_255_1_388
10
23.7490943
20
29.2555682
40
1.2924734
50
177.8639301
51
179.5036263
0
ARC
8
DEFAULT_255_1_388
10
23.6271961
20
28.9952151
40
1.170534
50
179.7995545
51
185.246089
0
ARC
8
DEFAULT_255_1_388
10
23.1723554
20
28.9521404
40
0.7136613
50
185.1411911
51
193.0082205
0
ARC
8
DEFAULT_255_1_388
10
22.8749815
20
28.8818441
40
0.4080987
50
192.7897338
51
205.2507384
0
ARC
8
DEFAULT_255_1_388
10
22.7572025
20
28.8292538
40
0.2791522
50
205.8001921
51
211.2545876
0
ARC
8
DEFAULT_255_1_388
10
22.6983564
20
28.7898132
40
0.2084074
50
210.3789935
51
238.4007996
0
ARC
8
DEFAULT_255_1_388
10
22.696165
20
28.7950786
40
0.2117943
50
239.6521916
51
265.9793852
0
ARC
8
DEFAULT_255_1_388
10
22.7057499
20
28.8707358
40
0.2879689
50
265.1324455
51
270.0603288
0
ARC
8
DEFAULT_255_1_388
10
22.7089876
20
28.8342418
40
0.2514919
50
269.3314378
51
287.2180039
0
ARC
8
DEFAULT_255_1_388
10
22.7244958
20
28.7776291
40
0.1928357
50
287.7957942
51
329.0808983
0
ARC
8
DEFAULT_255_1_388
10
22.6167715
20
28.8448651
40
0.319808
50
328.6635261
51
343.3325043
0
ARC
8
DEFAULT_255_1_388
10
22.3723174
20
28.9210195
40
0.5758408
50
343.0498092
51
351.9392499
0
ARC
8
DEFAULT_255_1_388
10
21.9822496
20
28.9785205
40
0.9701202
50
351.8071632
51
357.7957897
0
ARC
8
DEFAULT_255_1_388
10
21.6187973
20
28.9973724
40
1.3340376
50
357.5870923
51
359.2682493
0
LINE
8
DEFAULT_255_1_388
10
23.4388439
20
29.7799898
11
23.8129196
21
28.6948089
0
LINE
8
DEFAULT_255_1_388
10
23.8129196
20
28.6948089
11
24.1888024
21
29.7799898
0
LINE
8
DEFAULT_255_1_388
10
24.1888024
20
29.7799898
11
24.3785509
21
29.7799898
0
LINE
8
DEFAULT_255_1_388
10
24.3785509
20
29.7799898
11
23.8906261
21
28.4644
0
LINE
8
DEFAULT_255_1_388
10
23.8906261
20
28.4644
11
23.7370202
21
28.4644
0
LINE
8
DEFAULT_255_1_388
10
23.7370202
20
28.4644
11
23.2499989
21
29.7799898
0
LINE
8
DEFAULT_255_1_388
10
23.2499989
20
29.7799898
11
23.4388439
21
29.7799898
0
ENDSEC
0
EOF