0
SECTION
2
HEADER
9
$MEASUREMENT
70
1
0
ENDSEC
0
SECTION
2
TABLES
0
TABLE
2
LTYPE
0
LTYPE
72
65
70
64
2
CONTINUOUS
3
______
73
0
40
0
0
ENDTAB
0
TABLE
2
LAYER
0
LAYER
2
DEFAULT_255_2_778
70
0
62
255
6
CONTINUOUS
0
ENDTAB
0
ENDSEC
0
SECTION
2
ENTITIES
0
LINE
8
DEFAULT_255_2_778
10
28.5587324
20
70.2210425
11
60.3134324
21
70.2210425
0
LINE
8
DEFAULT_255_2_778
10
60.3134324
20
70.2210425
11
60.3134324
21
57.9893425
0
LINE
8
DEFAULT_255_2_778
10
60.3134324
20
57.9893425
11
28.5587324
21
57.9893425
0
LINE
8
DEFAULT_255_2_778
10
28.5587324
20
57.9893425
11
28.5587324
21
70.2210425
0
LINE
8
DEFAULT_255_2_778
10
30.0020324
20
70.2210425
11
30.0020324
21
72.7274425
0
LINE
8
DEFAULT_255_2_778
10
30.0020324
20
72.7274425
11
58.8699324
21
72.7274425
0
LINE
8
DEFAULT_255_2_778
10
58.8699324
20
72.7274425
11
58.8699324
21
70.2210425
0
ARC
8
DEFAULT_255_2_778
10
14.9155181
20
30.881781
40
0.4984682
50
90.0873092
51
180.3370653
0
ARC
8
DEFAULT_255_2_778
10
14.913999
20
30.8817811
40
0.498468
50
359.6629209
51
89.9127046
0
ARC
8
DEFAULT_255_2_778
10
14.913999
20
30.875916
40
0.4984681
50
270.0872954
51
0.3370791
0
ARC
8
DEFAULT_255_2_778
10
14.9155181
20
30.8759162
40
0.4984683
50
179.6629462
51
269.9126908
0
ARC
8
DEFAULT_255_2_778
10
20.8864157
20
17.3282202
40
1.488272
50
270.040143
51
315.2496594
0
ARC
8
DEFAULT_255_2_778
10
20.871705
20
17.3428995
40
1.5090537
50
315.2470632
51
0.0360323
0
ARC
8
DEFAULT_255_2_778
10
20.875402
20
44.4167008
40
1.5053586
50
359.9028591
51
29.0161423
0
ARC
8
DEFAULT_255_2_778
10
20.8844817
20
44.4250904
40
1.4933519
50
28.9036327
51
83.8973536
0
ARC
8
DEFAULT_255_2_778
10
20.8879079
20
44.4189485
40
1.4991002
50
84.0525168
51
90.0095341
0
ARC
8
DEFAULT_255_2_778
10
13.9173166
20
44.4397129
40
1.478337
50
89.9208634
51
120.7713501
0
ARC
8
DEFAULT_255_2_778
10
13.9314333
20
44.416731
40
1.5053057
50
120.785487
51
170.4255945
0
ARC
8
DEFAULT_255_2_778
10
13.9501815
20
44.414747
40
1.5241232
50
170.4692783
51
180.0224975
0
ARC
8
DEFAULT_255_2_778
10
13.9313468
20
17.3412906
40
1.5052905
50
179.9026374
51
209.0173313
0
ARC
8
DEFAULT_255_2_778
10
13.9224234
20
17.3330544
40
1.4934948
50
208.9070799
51
263.8392045
0
ARC
8
DEFAULT_255_2_778
10
13.9191042
20
17.3396342
40
1.4996856
50
263.9922626
51
270.0097152
0
LINE
8
DEFAULT_255_2_778
10
14.4170585
20
30.8788485
11
14.4170585
21
30.8788485
0
LINE
8
DEFAULT_255_2_778
10
22.3807585
20
17.3438485
11
22.3807585
21
44.4141485
0
LINE
8
DEFAULT_255_2_778
10
20.8876585
20
45.9180485
11
13.9193585
21
45.9180485
0
LINE
8
DEFAULT_255_2_778
10
12.4260585
20
44.4141485
11
12.4260585
21
17.3438485
0
LINE
8
DEFAULT_255_2_778
10
13.9193585
20
15.8399485
11
20.8874585
21
15.8399485
0
ARC
8
DEFAULT_255_2_778
10
22.5370472
20
6.4410848
40
0.9881847
50
269.9557143
51
314.5709582
0
ARC
8
DEFAULT_255_2_778
10
22.5283828
20
6.4535347
40
1.0031378
50
314.4244615
51
357.8705296
0
ARC
8
DEFAULT_255_2_778
10
22.5031742
20
6.4556704
40
1.028409
50
357.8038105
51
0.0016723
0
LINE
8
DEFAULT_255_2_778
10
20.0475834
20
4.3374004
11
20.0475834
21
5.4529004
0
LINE
8
DEFAULT_255_2_778
10
20.0475834
20
5.4529004
11
22.5362834
21
5.4529004
0
LINE
8
DEFAULT_255_2_778
10
23.5315834
20
6.4557004
11
23.5315834
21
50.3196004
0
ARC
8
DEFAULT_255_2_778
10
34.1834446
20
5.3204699
40
0.9893677
50
271.0771673
51
317.581262
0
ARC
8
DEFAULT_255_2_778
10
34.174882
20
5.3319587
40
1.0034422
50
317.426774
51
359.4078382
0
ARC
8
DEFAULT_255_2_778
10
34.1481839
20
5.3338853
40
1.03016
50
359.3160359
51
359.9995377
0
LINE
8
DEFAULT_255_2_778
10
35.1783438
20
5.333877
11
35.1783438
21
9.764277
0
ARC
8
DEFAULT_255_2_778
10
85.242827
20
46.5615056
40
73.8551517
50
159.494098
51
178.3986688
0
ARC
8
DEFAULT_255_2_778
10
85.3116422
20
46.5551717
40
73.9241172
50
178.3952521
51
180.0000163
0
ARC
8
DEFAULT_255_2_778
10
29.5053873
20
69.2044025
40
0.9884258
50
269.9572234
51
314.5632636
0
ARC
8
DEFAULT_255_2_778
10
29.4971178
20
69.2165414
40
1.0028806
50
314.4132375
51
358.237485
0
ARC
8
DEFAULT_255_2_778
10
29.4719544
20
69.2185537
40
1.0280949
50
358.1685253
51
0.0012991
0
LINE
8
DEFAULT_255_2_778
10
28.0113494
20
68.215977
11
29.5046494
21
68.215977
0
LINE
8
DEFAULT_255_2_778
10
30.5000494
20
69.218577
11
30.5000494
21
72.226577
0
LINE
8
DEFAULT_255_2_778
10
30.5000494
20
72.226577
11
58.6900494
21
72.226577
0
LINE
8
DEFAULT_255_2_778
10
19.5626023
20
4.0494906
11
34.2020023
21
4.3312906
0
LINE
8
DEFAULT_255_2_778
10
23.5316533
20
10.0098635
11
35.1783533
21
9.7645635
0
LINE
8
DEFAULT_255_2_778
10
35.1783533
20
6.5562635
11
23.5316533
21
6.3599635
0
LINE
8
DEFAULT_255_2_778
10
22.0386
20
50.8207528
11
22.0386
21
72.1432528
0
ARC
8
DEFAULT_255_2_778
10
23.916521
20
73.7466783
40
0.1995865
50
270.1677402
51
0.2624936
0
ARC
8
DEFAULT_255_2_778
10
27.2974467
20
72.5320618
40
0.501659
50
359.9235756
51
63.8034064
0
LINE
8
DEFAULT_255_2_778
10
21.5409053
20
73.5470927
11
23.9171053
21
73.5470927
0
LINE
8
DEFAULT_255_2_778
10
24.1161053
20
73.7475927
11
24.1161053
21
74.5495927
0
LINE
8
DEFAULT_255_2_778
10
24.1161053
20
74.5495927
11
24.3151053
21
74.5495927
0
LINE
8
DEFAULT_255_2_778
10
24.3151053
20
74.5495927
11
27.5189053
21
72.9821927
0
LINE
8
DEFAULT_255_2_778
10
27.7991053
20
72.5313927
11
27.7991053
21
72.1431927
0
LINE
8
DEFAULT_255_2_778
10
27.7991053
20
72.1431927
11
22.0386053
21
72.1431927
0
LINE
8
DEFAULT_255_2_778
10
62.6028417
20
43.6523591
11
62.8018417
21
43.6523591
0
LINE
8
DEFAULT_255_2_778
10
57.6752417
20
43.6523591
11
58.1729417
21
43.6523591
0
LINE
8
DEFAULT_255_2_778
10
62.6026417
20
43.1509591
11
62.8016417
21
43.1509591
0
LINE
8
DEFAULT_255_2_778
10
57.6750417
20
43.1509591
11
58.1727417
21
43.1509591
0
LINE
8
DEFAULT_255_2_778
10
62.6023417
20
42.6495591
11
62.8013417
21
42.6495591
0
LINE
8
DEFAULT_255_2_778
10
57.6747417
20
42.6495591
11
58.1724417
21
42.6495591
0
LINE
8
DEFAULT_255_2_778
10
62.6021417
20
42.1481591
11
62.8010417
21
42.1481591
0
LINE
8
DEFAULT_255_2_778
10
57.6745417
20
42.1481591
11
58.1721417
21
42.1481591
0
LINE
8
DEFAULT_255_2_778
10
62.6018417
20
41.6467591
11
62.8008417
21
41.6467591
0
LINE
8
DEFAULT_255_2_778
10
57.6742417
20
41.6467591
11
58.1719417
21
41.6467591
0
LINE
8
DEFAULT_255_2_778
10
62.6016417
20
41.1453591
11
62.8005417
21
41.1453591
0
LINE
8
DEFAULT_255_2_778
10
57.6739417
20
41.1453591
11
58.1716417
21
41.1453591
0
LINE
8
DEFAULT_255_2_778
10
62.6013417
20
40.6440591
11
62.8002417
21
40.6440591
0
LINE
8
DEFAULT_255_2_778
10
57.6737417
20
40.6440591
11
58.1713417
21
40.6440591
0
LINE
8
DEFAULT_255_2_778
10
62.6010417
20
40.1426591
11
62.8000417
21
40.1426591
0
LINE
8
DEFAULT_255_2_778
10
57.6734417
20
40.1426591
11
58.1711417
21
40.1426591
0
LINE
8
DEFAULT_255_2_778
10
62.6007417
20
39.6412591
11
62.7997417
21
39.6412591
0
LINE
8
DEFAULT_255_2_778
10
57.6732417
20
39.6412591
11
58.1708417
21
39.6412591
0
LINE
8
DEFAULT_255_2_778
10
62.6005417
20
39.1398591
11
62.7995417
21
39.1398591
0
LINE
8
DEFAULT_255_2_778
10
57.6729417
20
39.1398591
11
58.1705417
21
39.1398591
0
LINE
8
DEFAULT_255_2_778
10
62.6002417
20
38.6384591
11
62.7992417
21
38.6384591
0
LINE
8
DEFAULT_255_2_778
10
57.6726417
20
38.6384591
11
58.1703417
21
38.6384591
0
LINE
8
DEFAULT_255_2_778
10
62.5999417
20
38.1370591
11
62.7989417
21
38.1370591
0
LINE
8
DEFAULT_255_2_778
10
57.6724417
20
38.1370591
11
58.1700417
21
38.1370591
0
LINE
8
DEFAULT_255_2_778
10
62.5997417
20
37.6356591
11
62.7987417
21
37.6356591
0
LINE
8
DEFAULT_255_2_778
10
57.6721417
20
37.6356591
11
58.1698417
21
37.6356591
0
LINE
8
DEFAULT_255_2_778
10
62.5994417
20
37.1343591
11
62.7984417
21
37.1343591
0
LINE
8
DEFAULT_255_2_778
10
57.6718417
20
37.1343591
11
58.1695417
21
37.1343591
0
LINE
8
DEFAULT_255_2_778
10
62.5991417
20
36.6329591
11
62.7981417
21
36.6329591
0
LINE
8
DEFAULT_255_2_778
10
57.6715417
20
36.6329591
11
58.1693417
21
36.6329591
0
LINE
8
DEFAULT_255_2_778
10
62.5989417
20
36.1315591
11
62.7978417
21
36.1315591
0
LINE
8
DEFAULT_255_2_778
10
57.6713417
20
36.1315591
11
58.1690417
21
36.1315591
0
LINE
8
DEFAULT_255_2_778
10
62.5986417
20
35.6301591
11
62.7976417
21
35.6301591
0
LINE
8
DEFAULT_255_2_778
10
57.6710417
20
35.6301591
11
58.1687417
21
35.6301591
0
LINE
8
DEFAULT_255_2_778
10
62.5984417
20
35.1287591
11
62.7973417
21
35.1287591
0
LINE
8
DEFAULT_255_2_778
10
57.6708417
20
35.1287591
11
58.1685417
21
35.1287591
0
LINE
8
DEFAULT_255_2_778
10
62.5981417
20
34.6273591
11
62.7971417
21
34.6273591
0
LINE
8
DEFAULT_255_2_778
10
57.6705417
20
34.6273591
11
58.1682417
21
34.6273591
0
LINE
8
DEFAULT_255_2_778
10
62.5978417
20
34.1259591
11
62.7968417
21
34.1259591
0
LINE
8
DEFAULT_255_2_778
10
57.6702417
20
34.1259591
11
58.1679417
21
34.1259591
0
LINE
8
DEFAULT_255_2_778
10
62.5976417
20
33.6246591
11
62.7965417
21
33.6246591
0
LINE
8
DEFAULT_255_2_778
10
57.6700417
20
33.6246591
11
58.1676417
21
33.6246591
0
LINE
8
DEFAULT_255_2_778
10
62.5973417
20
33.1232591
11
62.7963417
21
33.1232591
0
LINE
8
DEFAULT_255_2_778
10
57.6697417
20
33.1232591
11
58.1674417
21
33.1232591
0
LINE
8
DEFAULT_255_2_778
10
62.5970417
20
32.6218591
11
62.7960417
21
32.6218591
0
LINE
8
DEFAULT_255_2_778
10
57.6694417
20
32.6218591
11
58.1671417
21
32.6218591
0
LINE
8
DEFAULT_255_2_778
10
62.5968417
20
32.1204591
11
62.7957417
21
32.1204591
0
LINE
8
DEFAULT_255_2_778
10
57.6692417
20
32.1204591
11
58.1668417
21
32.1204591
0
LINE
8
DEFAULT_255_2_778
10
62.5965417
20
44.1515591
11
62.7955417
21
44.1515591
0
LINE
8
DEFAULT_255_2_778
10
57.6689417
20
44.1515591
11
58.1666417
21
44.1515591
0
LINE
8
DEFAULT_255_2_778
10
59.5104417
20
30.4408591
11
59.5104417
21
29.9646591
0
LINE
8
DEFAULT_255_2_778
10
59.5104417
20
29.9646591
11
60.5058417
21
29.9646591
0
LINE
8
DEFAULT_255_2_778
10
60.5058417
20
29.9646591
11
60.5058417
21
30.4408591
0
LINE
8
DEFAULT_255_2_778
10
61.8496417
20
45.3546591
11
61.8496417
21
46.3071591
0
LINE
8
DEFAULT_255_2_778
10
61.8496417
20
46.3071591
11
61.0034417
21
46.3071591
0
LINE
8
DEFAULT_255_2_778
10
61.0034417
20
46.3071591
11
61.0034417
21
45.8309591
0
LINE
8
DEFAULT_255_2_778
10
61.0034417
20
45.8309591
11
59.0127417
21
45.8309591
0
LINE
8
DEFAULT_255_2_778
10
59.0127417
20
45.8309591
11
59.0127417
21
46.3071591
0
LINE
8
DEFAULT_255_2_778
10
59.0127417
20
46.3071591
11
58.1666417
21
46.3071591
0
LINE
8
DEFAULT_255_2_778
10
58.1666417
20
46.3071591
11
58.1666417
21
29.9646591
0
LINE
8
DEFAULT_255_2_778
10
58.1666417
20
29.9646591
11
59.0127417
21
29.9646591
0
LINE
8
DEFAULT_255_2_778
10
59.0127417
20
29.9646591
11
59.0127417
21
30.4408591
0
LINE
8
DEFAULT_255_2_778
10
59.0127417
20
30.4408591
11
61.0034417
21
30.4408591
0
LINE
8
DEFAULT_255_2_778
10
61.0034417
20
30.4408591
11
61.0034417
21
29.9646591
0
LINE
8
DEFAULT_255_2_778
10
61.0034417
20
29.9646591
11
61.8496417
21
29.9646591
0
LINE
8
DEFAULT_255_2_778
10
61.8496417
20
29.9646591
11
61.8496417
21
30.9171591
0
LINE
8
DEFAULT_255_2_778
10
59.5101417
20
30.2027591
11
60.5055417
21
30.2027591
0
LINE
8
DEFAULT_255_2_778
10
59.5101417
20
45.8309591
11
59.5101417
21
46.3071591
0
LINE
8
DEFAULT_255_2_778
10
59.5101417
20
46.3071591
11
60.5055417
21
46.3071591
0
LINE
8
DEFAULT_255_2_778
10
60.5055417
20
46.3071591
11
60.5055417
21
45.8309591
0
LINE
8
DEFAULT_255_2_778
10
59.5101417
20
46.0690591
11
60.5055417
21
46.0690591
0
LINE
8
DEFAULT_255_2_778
10
58.1663417
20
30.9171591
11
62.5960417
21
30.9171591
0
LINE
8
DEFAULT_255_2_778
10
62.5960417
20
30.9171591
11
62.5960417
21
45.3546591
0
LINE
8
DEFAULT_255_2_778
10
62.5960417
20
45.3546591
11
58.1663417
21
45.3546591
0
LINE
8
DEFAULT_255_2_778
10
9.607173
20
12.0915368
11
9.208973
21
12.0915368
0
LINE
8
DEFAULT_255_2_778
10
9.208973
20
12.0915368
11
9.208973
21
59.9864368
0
LINE
8
DEFAULT_255_2_778
10
9.208973
20
59.9864368
11
9.607173
21
59.9864368
0
LINE
8
DEFAULT_255_2_778
10
8.213573
20
59.5168368
11
1.742873
21
59.5168368
0
LINE
8
DEFAULT_255_2_778
10
1.742873
20
59.5168368
11
1.742873
21
12.5609368
0
LINE
8
DEFAULT_255_2_778
10
9.208973
20
59.5168368
11
8.213573
21
59.5168368
0
LINE
8
DEFAULT_255_2_778
10
8.213573
20
59.5168368
11
8.213573
21
12.5609368
0
LINE
8
DEFAULT_255_2_778
10
9.208973
20
12.5609368
11
0.249873
21
12.5609368
0
LINE
8
DEFAULT_255_2_778
10
0.249873
20
12.5609368
11
0.249873
21
59.5168368
0
LINE
8
DEFAULT_255_2_778
10
0.249873
20
59.5168368
11
1.742873
21
59.5168368
0
ARC
8
DEFAULT_255_2_778
10
6.4596568
20
46.6347569
40
1.4316214
50
151.646255
51
180.1391051
0
ARC
8
DEFAULT_255_2_778
10
6.4238126
20
46.658513
40
1.3888007
50
94.6426306
51
151.806462
0
ARC
8
DEFAULT_255_2_778
10
6.4214833
20
46.6438221
40
1.4032592
50
89.9936155
51
94.4992838
0
ARC
8
DEFAULT_255_2_778
10
6.4241606
20
46.6726616
40
1.3744218
50
58.0021333
51
90.1050917
0
ARC
8
DEFAULT_255_2_778
10
6.4019271
20
46.6421423
40
1.4120882
50
10.992389
51
57.8932417
0
ARC
8
DEFAULT_255_2_778
10
6.3595473
20
46.6321727
40
1.4555924
50
359.964903
51
11.0595299
0
ARC
8
DEFAULT_255_2_778
10
6.3829461
20
46.6277901
40
1.4321978
50
331.9941823
51
0.1396585
0
ARC
8
DEFAULT_255_2_778
10
6.4195737
20
46.6039293
40
1.3886605
50
274.4115349
51
332.1537677
0
ARC
8
DEFAULT_255_2_778
10
6.4217837
20
46.6195658
40
1.4040847
50
269.9941197
51
274.272537
0
ARC
8
DEFAULT_255_2_778
10
6.4191442
20
46.5898468
40
1.374368
50
237.9959199
51
270.1040312
0
ARC
8
DEFAULT_255_2_778
10
6.4415427
20
46.6207085
40
1.4124122
50
190.9982555
51
237.8889009
0
ARC
8
DEFAULT_255_2_778
10
6.4828799
20
46.6304034
40
1.4548405
50
179.9654344
51
191.0624749
0
ARC
8
DEFAULT_255_2_778
10
6.4596568
20
50.1743569
40
1.4316214
50
151.646255
51
180.1391051
0
ARC
8
DEFAULT_255_2_778
10
6.4238126
20
50.198113
40
1.3888007
50
94.6426306
51
151.806462
0
ARC
8
DEFAULT_255_2_778
10
6.4214833
20
50.1834221
40
1.4032592
50
89.9936155
51
94.4992838
0
ARC
8
DEFAULT_255_2_778
10
6.4241199
20
50.2125141
40
1.3741693
50
57.9935472
51
90.103413
0
ARC
8
DEFAULT_255_2_778
10
6.4015981
20
50.1814497
40
1.4124508
50
10.9981202
51
57.8867166
0
ARC
8
DEFAULT_255_2_778
10
6.3602991
20
50.1717608
40
1.4548406
50
359.9653545
51
11.062393
0
ARC
8
DEFAULT_255_2_778
10
6.383488
20
50.1674081
40
1.4316558
50
331.646873
51
0.1389914
0
ARC
8
DEFAULT_255_2_778
10
6.4194795
20
50.1434968
40
1.388632
50
274.3911348
51
331.809866
0
ARC
8
DEFAULT_255_2_778
10
6.4217797
20
50.1586582
40
1.4035771
50
269.994281
51
274.2501244
0
ARC
8
DEFAULT_255_2_778
10
6.4191442
20
50.1294468
40
1.374368
50
237.9959199
51
270.1040312
0
ARC
8
DEFAULT_255_2_778
10
6.4415427
20
50.1603085
40
1.4124122
50
190.9982555
51
237.8889009
0
ARC
8
DEFAULT_255_2_778
10
6.4828799
20
50.1700034
40
1.4548405
50
179.9654344
51
191.0624749
0
ARC
8
DEFAULT_255_2_778
10
6.4596568
20
53.7139569
40
1.4316214
50
151.646255
51
180.1391051
0
ARC
8
DEFAULT_255_2_778
10
6.4238126
20
53.737713
40
1.3888007
50
94.6426306
51
151.806462
0
ARC
8
DEFAULT_255_2_778
10
6.4214833
20
53.7230221
40
1.4032592
50
89.9936155
51
94.4992838
0
ARC
8
DEFAULT_255_2_778
10
6.4241606
20
53.7518616
40
1.3744218
50
58.0021333
51
90.1050917
0
ARC
8
DEFAULT_255_2_778
10
6.4019271
20
53.7213423
40
1.4120882
50
10.992389
51
57.8932417
0
ARC
8
DEFAULT_255_2_778
10
6.3595473
20
53.7113727
40
1.4555924
50
359.964903
51
11.0595299
0
ARC
8
DEFAULT_255_2_778
10
6.3829461
20
53.7069901
40
1.4321978
50
331.9941823
51
0.1396585
0
ARC
8
DEFAULT_255_2_778
10
6.4195737
20
53.6831293
40
1.3886605
50
274.4115349
51
332.1537677
0
ARC
8
DEFAULT_255_2_778
10
6.4217837
20
53.6987658
40
1.4040847
50
269.9941197
51
274.272537
0
ARC
8
DEFAULT_255_2_778
10
6.4191442
20
53.6690468
40
1.374368
50
237.9959199
51
270.1040312
0
ARC
8
DEFAULT_255_2_778
10
6.4415427
20
53.6999085
40
1.4124122
50
190.9982555
51
237.8889009
0
ARC
8
DEFAULT_255_2_778
10
6.4828799
20
53.7096034
40
1.4548405
50
179.9654344
51
191.0624749
0
ARC
8
DEFAULT_255_2_778
10
6.4238188
20
53.6770849
40
1.2819195
50
235.5980004
51
255.2763245
0
ARC
8
DEFAULT_255_2_778
10
6.4209711
20
53.6693044
40
1.2736708
50
255.311261
51
268.5309911
0
ARC
8
DEFAULT_255_2_778
10
6.4211335
20
53.6716569
40
1.2760269
50
268.5264128
51
270.0005162
0
ARC
8
DEFAULT_255_2_778
10
6.4209353
20
53.6753319
40
1.279702
50
270.0093852
51
306.8169764
0
ARC
8
DEFAULT_255_2_778
10
6.4063657
20
53.6955352
40
1.3046068
50
306.7975067
51
315.4788627
0
ARC
8
DEFAULT_255_2_778
10
6.3879132
20
53.7092057
40
1.3273524
50
315.6166251
51
341.4208465
0
ARC
8
DEFAULT_255_2_778
10
6.3811091
20
53.7112904
40
1.3344661
50
341.4290809
51
0.0021932
0
ARC
8
DEFAULT_255_2_778
10
6.3808811
20
53.7113376
40
1.3346942
50
0.000167
51
1.4167351
0
ARC
8
DEFAULT_255_2_778
10
6.3885645
20
53.7119907
40
1.326997
50
1.3967471
51
27.2906283
0
ARC
8
DEFAULT_255_2_778
10
6.3788058
20
53.7068247
40
1.3380382
50
27.2956211
51
33.4252433
0
ARC
8
DEFAULT_255_2_778
10
6.4194863
20
53.7437381
40
1.2817983
50
55.6011044
51
75.3191555
0
ARC
8
DEFAULT_255_2_778
10
6.4222173
20
53.7511584
40
1.2739284
50
75.3533968
51
88.5442125
0
ARC
8
DEFAULT_255_2_778
10
6.4220444
20
53.7481043
40
1.2769858
50
88.5399382
51
90.0001732
0
ARC
8
DEFAULT_255_2_778
10
6.4222216
20
53.7453093
40
1.279781
50
90.0081052
51
126.8132133
0
ARC
8
DEFAULT_255_2_778
10
6.4365539
20
53.7254818
40
1.3042429
50
126.7953597
51
135.4788492
0
ARC
8
DEFAULT_255_2_778
10
6.4555742
20
53.7116713
40
1.3274924
50
135.6294665
51
161.4256614
0
ARC
8
DEFAULT_255_2_778
10
6.4623271
20
53.7096056
40
1.3345516
50
161.433945
51
180.0022129
0
ARC
8
DEFAULT_255_2_778
10
6.4613487
20
53.7095418
40
1.3335732
50
179.999474
51
181.4194108
0
ARC
8
DEFAULT_255_2_778
10
6.4549219
20
53.7089089
40
1.3271327
50
181.3989691
51
207.2737537
0
ARC
8
DEFAULT_255_2_778
10
6.4647876
20
53.7141227
40
1.3382908
50
207.2786025
51
213.4327397
0
ARC
8
DEFAULT_255_2_778
10
6.423993
20
46.5980241
40
1.2817983
50
235.6011044
51
255.3191555
0
ARC
8
DEFAULT_255_2_778
10
6.4212619
20
46.5906039
40
1.2739284
50
255.3533968
51
268.5442125
0
ARC
8
DEFAULT_255_2_778
10
6.4214348
20
46.5936579
40
1.2769858
50
268.5399382
51
270.0001732
0
ARC
8
DEFAULT_255_2_778
10
6.4212577
20
46.5964529
40
1.279781
50
270.0081052
51
306.8132133
0
ARC
8
DEFAULT_255_2_778
10
6.4069253
20
46.6162804
40
1.3042429
50
306.7953597
51
315.4788492
0
ARC
8
DEFAULT_255_2_778
10
6.3878354
20
46.6303974
40
1.3277565
50
315.6221164
51
341.2481825
0
ARC
8
DEFAULT_255_2_778
10
6.3814233
20
46.6323383
40
1.334452
50
341.2577757
51
0.0022916
0
ARC
8
DEFAULT_255_2_778
10
6.3816777
20
46.6323877
40
1.3341975
50
0.0001685
51
1.423926
0
ARC
8
DEFAULT_255_2_778
10
6.3886537
20
46.6330191
40
1.3272082
50
1.4041609
51
27.234004
0
ARC
8
DEFAULT_255_2_778
10
6.3785987
20
46.6277285
40
1.3385696
50
27.2383998
51
33.4202958
0
ARC
8
DEFAULT_255_2_778
10
6.4196311
20
46.6644252
40
1.2822267
50
55.6058064
51
75.3023734
0
ARC
8
DEFAULT_255_2_778
10
6.4224682
20
46.6722006
40
1.2739862
50
75.3370719
51
88.5295592
0
ARC
8
DEFAULT_255_2_778
10
6.42231
20
46.6698054
40
1.2763847
50
88.5252201
51
90.0005151
0
ARC
8
DEFAULT_255_2_778
10
6.4224802
20
46.6665244
40
1.2796658
50
90.0081327
51
126.8149283
0
ARC
8
DEFAULT_255_2_778
10
6.4369494
20
46.6464905
40
1.3043751
50
126.7964244
51
135.4789306
0
ARC
8
DEFAULT_255_2_778
10
6.4557246
20
46.6326893
40
1.3274427
50
135.6224234
51
161.4222416
0
ARC
8
DEFAULT_255_2_778
10
6.4623744
20
46.6306645
40
1.3343912
50
161.4307953
51
180.0022258
0
ARC
8
DEFAULT_255_2_778
10
6.4621095
20
46.6306083
40
1.3341261
50
179.9998135
51
181.4173837
0
ARC
8
DEFAULT_255_2_778
10
6.4550466
20
46.629974
40
1.3270497
50
181.397548
51
207.2739043
0
ARC
8
DEFAULT_255_2_778
10
6.4649874
20
46.6352225
40
1.3382905
50
207.2786027
51
213.4327399
0
ARC
8
DEFAULT_255_2_778
10
6.4244092
20
50.138564
40
1.282861
50
235.6218984
51
255.3129795
0
ARC
8
DEFAULT_255_2_778
10
6.4216234
20
50.1309151
40
1.274756
50
255.3469357
51
268.5224536
0
ARC
8
DEFAULT_255_2_778
10
6.4217875
20
50.1335796
40
1.2774238
50
268.5181738
51
269.9998094
0
ARC
8
DEFAULT_255_2_778
10
6.4216884
20
50.1356427
40
1.2794868
50
270.0042511
51
306.8123968
0
ARC
8
DEFAULT_255_2_778
10
6.4076617
20
50.1549443
40
1.3033444
50
306.7976414
51
315.485388
0
ARC
8
DEFAULT_255_2_778
10
6.388593
20
50.1696607
40
1.3272624
50
315.6094975
51
341.2441881
0
ARC
8
DEFAULT_255_2_778
10
6.382039
20
50.1716559
40
1.3341097
50
341.2535578
51
0.0022896
0
ARC
8
DEFAULT_255_2_778
10
6.3827558
20
50.1717133
40
1.3333929
50
359.9998206
51
1.4191608
0
ARC
8
DEFAULT_255_2_778
10
6.389383
20
50.1723488
40
1.3267522
50
1.3988138
51
27.2742153
0
ARC
8
DEFAULT_255_2_778
10
6.3794248
20
50.1670925
40
1.3380119
50
27.2788661
51
33.4327745
0
ARC
8
DEFAULT_255_2_778
10
6.4199797
20
50.2041276
40
1.2818106
50
55.6011272
51
75.3143486
0
ARC
8
DEFAULT_255_2_778
10
6.4227214
20
50.2115823
40
1.2739046
50
75.3486321
51
88.5363959
0
ARC
8
DEFAULT_255_2_778
10
6.4225442
20
50.2087003
40
1.2767902
50
88.5317505
51
89.9998125
0
ARC
8
DEFAULT_255_2_778
10
6.4227109
20
50.2059548
40
1.2795355
50
90.0072767
51
126.8168652
0
ARC
8
DEFAULT_255_2_778
10
6.4369246
20
50.1863189
40
1.3037729
50
126.7998074
51
135.4854759
0
ARC
8
DEFAULT_255_2_778
10
6.4560246
20
50.1719893
40
1.3274427
50
135.6224234
51
161.4222416
0
ARC
8
DEFAULT_255_2_778
10
6.4626744
20
50.1699645
40
1.3343912
50
161.4307953
51
180.0022258
0
ARC
8
DEFAULT_255_2_778
10
6.4624095
20
50.1699083
40
1.3341261
50
179.9998135
51
181.4173837
0
ARC
8
DEFAULT_255_2_778
10
6.4553466
20
50.169274
40
1.3270497
50
181.397548
51
207.2739043
0
ARC
8
DEFAULT_255_2_778
10
6.4652874
20
50.1745225
40
1.3382905
50
207.2786027
51
213.4327399
0
LINE
8
DEFAULT_255_2_778
10
5.0280396
20
46.6312811
11
5.0280396
21
46.6312811
0
LINE
8
DEFAULT_255_2_778
10
5.0280396
20
50.1708811
11
5.0280396
21
50.1708811
0
LINE
8
DEFAULT_255_2_778
10
5.0280396
20
53.7104811
11
5.0280396
21
53.7104811
0
LINE
8
DEFAULT_255_2_778
10
7.4955396
20
54.4438811
11
5.6995396
21
52.6193811
0
LINE
8
DEFAULT_255_2_778
10
5.3479396
20
52.9767811
11
7.1439396
21
54.8013811
0
LINE
8
DEFAULT_255_2_778
10
7.4958396
20
47.3649811
11
5.6998396
21
45.5403811
0
LINE
8
DEFAULT_255_2_778
10
5.3481396
20
45.8978811
11
7.1441396
21
47.7224811
0
LINE
8
DEFAULT_255_2_778
10
7.4960396
20
50.9042811
11
5.7000396
21
49.0797811
0
LINE
8
DEFAULT_255_2_778
10
5.3484396
20
49.4371811
11
7.1444396
21
51.2617811
0
ARC
8
DEFAULT_255_2_778
10
6.4596568
20
39.5556246
40
1.4316214
50
151.646255
51
180.1391051
0
ARC
8
DEFAULT_255_2_778
10
6.4238126
20
39.5793807
40
1.3888007
50
94.6426306
51
151.806462
0
ARC
8
DEFAULT_255_2_778
10
6.4214833
20
39.5646898
40
1.4032592
50
89.9936155
51
94.4992838
0
ARC
8
DEFAULT_255_2_778
10
6.4241199
20
39.5937818
40
1.3741693
50
57.9935472
51
90.103413
0
ARC
8
DEFAULT_255_2_778
10
6.4015981
20
39.5627174
40
1.4124508
50
10.9981202
51
57.8867166
0
ARC
8
DEFAULT_255_2_778
10
6.3602991
20
39.5530285
40
1.4548406
50
359.9653545
51
11.062393
0
ARC
8
DEFAULT_255_2_778
10
6.383488
20
39.5486758
40
1.4316558
50
331.646873
51
0.1389914
0
ARC
8
DEFAULT_255_2_778
10
6.4194795
20
39.5247645
40
1.388632
50
274.3911348
51
331.809866
0
ARC
8
DEFAULT_255_2_778
10
6.4217797
20
39.5399259
40
1.4035771
50
269.994281
51
274.2501244
0
ARC
8
DEFAULT_255_2_778
10
6.4191442
20
39.5107145
40
1.374368
50
237.9959199
51
270.1040312
0
ARC
8
DEFAULT_255_2_778
10
6.4415427
20
39.5415762
40
1.4124122
50
190.9982555
51
237.8889009
0
ARC
8
DEFAULT_255_2_778
10
6.4828799
20
39.5512711
40
1.4548405
50
179.9654344
51
191.0624749
0
ARC
8
DEFAULT_255_2_778
10
6.4596568
20
43.0952246
40
1.4316214
50
151.646255
51
180.1391051
0
ARC
8
DEFAULT_255_2_778
10
6.4238126
20
43.1189807
40
1.3888007
50
94.6426306
51
151.806462
0
ARC
8
DEFAULT_255_2_778
10
6.4214833
20
43.1042898
40
1.4032592
50
89.9936155
51
94.4992838
0
ARC
8
DEFAULT_255_2_778
10
6.4241606
20
43.1331293
40
1.3744218
50
58.0021333
51
90.1050917
0
ARC
8
DEFAULT_255_2_778
10
6.4019271
20
43.10261
40
1.4120882
50
10.992389
51
57.8932417
0
ARC
8
DEFAULT_255_2_778
10
6.3595473
20
43.0926405
40
1.4555924
50
359.964903
51
11.0595299
0
ARC
8
DEFAULT_255_2_778
10
6.3829461
20
43.0882578
40
1.4321978
50
331.9941823
51
0.1396585
0
ARC
8
DEFAULT_255_2_778
10
6.4195737
20
43.064397
40
1.3886605
50
274.4115349
51
332.1537677
0
ARC
8
DEFAULT_255_2_778
10
6.4217837
20
43.0800335
40
1.4040847
50
269.9941197
51
274.272537
0
ARC
8
DEFAULT_255_2_778
10
6.4191442
20
43.0503145
40
1.374368
50
237.9959199
51
270.1040312
0
ARC
8
DEFAULT_255_2_778
10
6.4415427
20
43.0811762
40
1.4124122
50
190.9982555
51
237.8889009
0
ARC
8
DEFAULT_255_2_778
10
6.4828799
20
43.0908711
40
1.4548405
50
179.9654344
51
191.0624749
0
ARC
8
DEFAULT_255_2_778
10
6.4596568
20
36.0163246
40
1.4316214
50
151.646255
51
180.1391051
0
ARC
8
DEFAULT_255_2_778
10
6.4238126
20
36.0400807
40
1.3888007
50
94.6426306
51
151.806462
0
ARC
8
DEFAULT_255_2_778
10
6.4214833
20
36.0253898
40
1.4032592
50
89.9936155
51
94.4992838
0
ARC
8
DEFAULT_255_2_778
10
6.4241606
20
36.0542293
40
1.3744218
50
58.0021333
51
90.1050917
0
ARC
8
DEFAULT_255_2_778
10
6.4019271
20
36.02371
40
1.4120882
50
10.992389
51
57.8932417
0
ARC
8
DEFAULT_255_2_778
10
6.3595473
20
36.0137405
40
1.4555924
50
359.964903
51
11.0595299
0
ARC
8
DEFAULT_255_2_778
10
6.3829461
20
36.0093578
40
1.4321978
50
331.9941823
51
0.1396585
0
ARC
8
DEFAULT_255_2_778
10
6.4195737
20
35.985497
40
1.3886605
50
274.4115349
51
332.1537677
0
ARC
8
DEFAULT_255_2_778
10
6.4217837
20
36.0011335
40
1.4040847
50
269.9941197
51
274.272537
0
ARC
8
DEFAULT_255_2_778
10
6.4191442
20
35.9714145
40
1.374368
50
237.9959199
51
270.1040312
0
ARC
8
DEFAULT_255_2_778
10
6.4415427
20
36.0022762
40
1.4124122
50
190.9982555
51
237.8889009
0
ARC
8
DEFAULT_255_2_778
10
6.4828799
20
36.0119711
40
1.4548405
50
179.9654344
51
191.0624749
0
ARC
8
DEFAULT_255_2_778
10
6.4238482
20
43.0589048
40
1.2822267
50
235.6058064
51
255.3023734
0
ARC
8
DEFAULT_255_2_778
10
6.421011
20
43.0511294
40
1.2739862
50
255.3370719
51
268.5295592
0
ARC
8
DEFAULT_255_2_778
10
6.4211692
20
43.0535245
40
1.2763847
50
268.5252201
51
270.0005151
0
ARC
8
DEFAULT_255_2_778
10
6.4209991
20
43.0568055
40
1.2796658
50
270.0081327
51
306.8149283
0
ARC
8
DEFAULT_255_2_778
10
6.4065298
20
43.0768394
40
1.3043751
50
306.7964244
51
315.4789306
0
ARC
8
DEFAULT_255_2_778
10
6.3879146
20
43.0906514
40
1.327336
50
315.6172588
51
341.4227581
0
ARC
8
DEFAULT_255_2_778
10
6.3809003
20
43.0928176
40
1.334675
50
341.4305452
51
0.0022461
0
ARC
8
DEFAULT_255_2_778
10
6.3803804
20
43.0928579
40
1.3351948
50
0.0005143
51
1.4133419
0
ARC
8
DEFAULT_255_2_778
10
6.3884564
20
43.093531
40
1.3271049
50
1.3928928
51
27.2967931
0
ARC
8
DEFAULT_255_2_778
10
6.3788931
20
43.0884533
40
1.3379319
50
27.3022115
51
33.4251278
0
ARC
8
DEFAULT_255_2_778
10
6.4194863
20
43.1253058
40
1.2817983
50
55.6011044
51
75.3191555
0
ARC
8
DEFAULT_255_2_778
10
6.4222173
20
43.1327261
40
1.2739284
50
75.3533968
51
88.5442125
0
ARC
8
DEFAULT_255_2_778
10
6.4220444
20
43.129672
40
1.2769858
50
88.5399382
51
90.0001732
0
ARC
8
DEFAULT_255_2_778
10
6.4222216
20
43.126877
40
1.279781
50
90.0081052
51
126.8132133
0
ARC
8
DEFAULT_255_2_778
10
6.4365539
20
43.1070495
40
1.3042429
50
126.7953597
51
135.4788492
0
ARC
8
DEFAULT_255_2_778
10
6.4555742
20
43.093239
40
1.3274924
50
135.6294665
51
161.4256614
0
ARC
8
DEFAULT_255_2_778
10
6.4623271
20
43.0911733
40
1.3345516
50
161.433945
51
180.0022129
0
ARC
8
DEFAULT_255_2_778
10
6.4613487
20
43.0911095
40
1.3335732
50
179.999474
51
181.4194108
0
ARC
8
DEFAULT_255_2_778
10
6.4549219
20
43.0904766
40
1.3271327
50
181.3989691
51
207.2737537
0
ARC
8
DEFAULT_255_2_778
10
6.4647876
20
43.0956904
40
1.3382908
50
207.2786025
51
213.4327397
0
ARC
8
DEFAULT_255_2_778
10
6.4241086
20
39.5199975
40
1.282776
50
235.6247412
51
255.3252547
0
ARC
8
DEFAULT_255_2_778
10
6.4213819
20
39.5125447
40
1.2748758
50
255.3589495
51
268.5398999
0
ARC
8
DEFAULT_255_2_778
10
6.4215338
20
39.5144269
40
1.2767613
50
268.53524
51
270.000522
0
ARC
8
DEFAULT_255_2_778
10
6.4214494
20
39.5173398
40
1.2796741
50
270.0042968
51
306.8070035
0
ARC
8
DEFAULT_255_2_778
10
6.407393
20
39.5366865
40
1.3035858
50
306.7922083
51
315.4789024
0
ARC
8
DEFAULT_255_2_778
10
6.3878359
20
39.5512462
40
1.3277429
50
315.6226833
51
341.4218161
0
ARC
8
DEFAULT_255_2_778
10
6.3812439
20
39.5532549
40
1.3346314
50
341.4302387
51
0.0019951
0
ARC
8
DEFAULT_255_2_778
10
6.3822195
20
39.5533139
40
1.3336558
50
359.9994607
51
1.4096218
0
ARC
8
DEFAULT_255_2_778
10
6.3888504
20
39.5539551
40
1.3270111
50
1.3889888
51
27.2959691
0
ARC
8
DEFAULT_255_2_778
10
6.3790935
20
39.5487878
40
1.3380512
50
27.301001
51
33.4251176
0
ARC
8
DEFAULT_255_2_778
10
6.4196311
20
39.5852929
40
1.2822267
50
55.6058064
51
75.3023734
0
ARC
8
DEFAULT_255_2_778
10
6.4224682
20
39.5930683
40
1.2739862
50
75.3370719
51
88.5295592
0
ARC
8
DEFAULT_255_2_778
10
6.42231
20
39.5906731
40
1.2763847
50
88.5252201
51
90.0005151
0
ARC
8
DEFAULT_255_2_778
10
6.4224802
20
39.5873921
40
1.2796658
50
90.0081327
51
126.8149283
0
ARC
8
DEFAULT_255_2_778
10
6.4369494
20
39.5673583
40
1.3043751
50
126.7964244
51
135.4789306
0
ARC
8
DEFAULT_255_2_778
10
6.4557246
20
39.553557
40
1.3274427
50
135.6224234
51
161.4222416
0
ARC
8
DEFAULT_255_2_778
10
6.4623744
20
39.5515322
40
1.3343912
50
161.4307953
51
180.0022258
0
ARC
8
DEFAULT_255_2_778
10
6.4621095
20
39.551476
40
1.3341261
50
179.9998135
51
181.4173837
0
ARC
8
DEFAULT_255_2_778
10
6.4550466
20
39.5508417
40
1.3270497
50
181.397548
51
207.2739043
0
ARC
8
DEFAULT_255_2_778
10
6.4649874
20
39.5560903
40
1.3382905
50
207.2786027
51
213.4327399
0
LINE
8
DEFAULT_255_2_778
10
5.0280396
20
39.5521488
11
5.0280396
21
39.5521488
0
LINE
8
DEFAULT_255_2_778
10
5.0280396
20
43.0917488
11
5.0280396
21
43.0917488
0
LINE
8
DEFAULT_255_2_778
10
5.0280396
20
36.0128488
11
5.0280396
21
36.0128488
0
LINE
8
DEFAULT_255_2_778
10
7.4955396
20
43.8254488
11
5.6995396
21
42.0008488
0
LINE
8
DEFAULT_255_2_778
10
5.3479396
20
42.3583488
11
7.1439396
21
44.1829488
0
LINE
8
DEFAULT_255_2_778
10
7.4958396
20
40.2858488
11
5.6998396
21
38.4612488
0
LINE
8
DEFAULT_255_2_778
10
5.3481396
20
38.8187488
11
7.1441396
21
40.6433488
0
ARC
8
DEFAULT_255_2_778
10
6.4596568
20
32.4763781
40
1.4316214
50
151.646255
51
180.1391051
0
ARC
8
DEFAULT_255_2_778
10
6.4238126
20
32.5001343
40
1.3888007
50
94.6426306
51
151.806462
0
ARC
8
DEFAULT_255_2_778
10
6.4214833
20
32.4854433
40
1.4032592
50
89.9936155
51
94.4992838
0
ARC
8
DEFAULT_255_2_778
10
6.4241199
20
32.5145353
40
1.3741693
50
57.9935472
51
90.103413
0
ARC
8
DEFAULT_255_2_778
10
6.4015981
20
32.4834709
40
1.4124508
50
10.9981202
51
57.8867166
0
ARC
8
DEFAULT_255_2_778
10
6.3602991
20
32.4737821
40
1.4548406
50
359.9653545
51
11.062393
0
ARC
8
DEFAULT_255_2_778
10
6.3834031
20
32.4694067
40
1.4317408
50
331.6477237
51
0.1398912
0
ARC
8
DEFAULT_255_2_778
10
6.4195426
20
32.4454598
40
1.3885699
50
274.3887207
51
331.8091418
0
ARC
8
DEFAULT_255_2_778
10
6.4217824
20
32.4608255
40
1.4037232
50
269.9941734
51
274.2495729
0
ARC
8
DEFAULT_255_2_778
10
6.4191297
20
32.4315492
40
1.3744491
50
237.9987453
51
270.1046285
0
ARC
8
DEFAULT_255_2_778
10
6.441433
20
32.4622323
40
1.4122914
50
190.99635
51
237.8910803
0
ARC
8
DEFAULT_255_2_778
10
6.4831294
20
32.4720207
40
1.4550901
50
179.9652818
51
191.0615263
0
ARC
8
DEFAULT_255_2_778
10
6.4596568
20
28.9367781
40
1.4316214
50
151.646255
51
180.1391051
0
ARC
8
DEFAULT_255_2_778
10
6.4238126
20
28.9605343
40
1.3888007
50
94.6426306
51
151.806462
0
ARC
8
DEFAULT_255_2_778
10
6.4214833
20
28.9458433
40
1.4032592
50
89.9936155
51
94.4992838
0
ARC
8
DEFAULT_255_2_778
10
6.4241199
20
28.9749353
40
1.3741693
50
57.9935472
51
90.103413
0
ARC
8
DEFAULT_255_2_778
10
6.4015981
20
28.9438709
40
1.4124508
50
10.9981202
51
57.8867166
0
ARC
8
DEFAULT_255_2_778
10
6.3602991
20
28.9341821
40
1.4548406
50
359.9653545
51
11.062393
0
ARC
8
DEFAULT_255_2_778
10
6.383488
20
28.9298294
40
1.4316558
50
331.646873
51
0.1389914
0
ARC
8
DEFAULT_255_2_778
10
6.4194795
20
28.9059181
40
1.388632
50
274.3911348
51
331.809866
0
ARC
8
DEFAULT_255_2_778
10
6.4217797
20
28.9210795
40
1.4035771
50
269.994281
51
274.2501244
0
ARC
8
DEFAULT_255_2_778
10
6.4191075
20
28.8921216
40
1.3746216
50
238.3559595
51
270.1055418
0
ARC
8
DEFAULT_255_2_778
10
6.441058
20
28.922354
40
1.411878
50
191.0576396
51
238.2412833
0
ARC
8
DEFAULT_255_2_778
10
6.4834816
20
28.9324029
40
1.4554424
50
179.9645925
51
191.1255746
0
ARC
8
DEFAULT_255_2_778
10
6.4238482
20
28.9001583
40
1.2822267
50
235.6058064
51
255.3023734
0
ARC
8
DEFAULT_255_2_778
10
6.421011
20
28.8923829
40
1.2739862
50
255.3370719
51
268.5295592
0
ARC
8
DEFAULT_255_2_778
10
6.4211692
20
28.8947781
40
1.2763847
50
268.5252201
51
270.0005151
0
ARC
8
DEFAULT_255_2_778
10
6.4209991
20
28.898059
40
1.2796658
50
270.0081327
51
306.8149283
0
ARC
8
DEFAULT_255_2_778
10
6.4065298
20
28.9180929
40
1.3043751
50
306.7964244
51
315.4789306
0
ARC
8
DEFAULT_255_2_778
10
6.3879146
20
28.931905
40
1.327336
50
315.6172588
51
341.4227581
0
ARC
8
DEFAULT_255_2_778
10
6.3809003
20
28.9340711
40
1.334675
50
341.4305452
51
0.0022461
0
ARC
8
DEFAULT_255_2_778
10
6.3803804
20
28.9341115
40
1.3351948
50
0.0005143
51
1.4133419
0
ARC
8
DEFAULT_255_2_778
10
6.3884564
20
28.9347845
40
1.3271049
50
1.3928928
51
27.2967931
0
ARC
8
DEFAULT_255_2_778
10
6.3788931
20
28.9297068
40
1.3379319
50
27.3022115
51
33.4251278
0
ARC
8
DEFAULT_255_2_778
10
6.4192703
20
28.9655193
40
1.282696
50
55.6168654
51
75.3196866
0
ARC
8
DEFAULT_255_2_778
10
6.4220253
20
28.9730632
40
1.2747004
50
75.3535466
51
88.536463
0
ARC
8
DEFAULT_255_2_778
10
6.4218582
20
28.970289
40
1.277478
50
88.5321452
51
89.9998126
0
ARC
8
DEFAULT_255_2_778
10
6.4219663
20
28.9682092
40
1.2795577
50
90.0046529
51
126.8079747
0
ARC
8
DEFAULT_255_2_778
10
6.4360648
20
28.9487892
40
1.3035532
50
126.7927103
51
135.4790061
0
ARC
8
DEFAULT_255_2_778
10
6.4555742
20
28.9344925
40
1.3274924
50
135.6294665
51
161.4256614
0
ARC
8
DEFAULT_255_2_778
10
6.4623271
20
28.9324268
40
1.3345516
50
161.433945
51
180.0022129
0
ARC
8
DEFAULT_255_2_778
10
6.4613487
20
28.932363
40
1.3335732
50
179.999474
51
181.4194108
0
ARC
8
DEFAULT_255_2_778
10
6.4549219
20
28.9317301
40
1.3271327
50
181.3989691
51
207.2737537
0
ARC
8
DEFAULT_255_2_778
10
6.4647876
20
28.9369439
40
1.3382908
50
207.2786025
51
213.4327397
0
ARC
8
DEFAULT_255_2_778
10
6.423957
20
35.9783809
40
1.2814773
50
235.5932251
51
255.3091153
0
ARC
8
DEFAULT_255_2_778
10
6.4212238
20
35.9709805
40
1.2736258
50
255.3436211
51
268.5455805
0
ARC
8
DEFAULT_255_2_778
10
6.4213991
20
35.9740007
40
1.2766495
50
268.5411588
51
270.0001739
0
ARC
8
DEFAULT_255_2_778
10
6.4211941
20
35.977168
40
1.2798168
50
270.0093512
51
306.8152637
0
ARC
8
DEFAULT_255_2_778
10
6.4067612
20
35.9971652
40
1.3044746
50
306.796442
51
315.4787813
0
ARC
8
DEFAULT_255_2_778
10
6.3882132
20
36.0109269
40
1.3273524
50
315.6166251
51
341.4208465
0
ARC
8
DEFAULT_255_2_778
10
6.3814091
20
36.0130117
40
1.3344661
50
341.4290809
51
0.0021932
0
ARC
8
DEFAULT_255_2_778
10
6.3811811
20
36.0130589
40
1.3346942
50
0.000167
51
1.4167351
0
ARC
8
DEFAULT_255_2_778
10
6.3888645
20
36.013712
40
1.326997
50
1.3967471
51
27.2906283
0
ARC
8
DEFAULT_255_2_778
10
6.3791058
20
36.0085459
40
1.3380382
50
27.2956211
51
33.4252433
0
ARC
8
DEFAULT_255_2_778
10
6.4195187
20
36.0439458
40
1.2831984
50
55.6294259
51
75.3164941
0
ARC
8
DEFAULT_255_2_778
10
6.4223461
20
36.0517395
40
1.2749429
50
75.3506284
51
88.5251757
0
ARC
8
DEFAULT_255_2_778
10
6.4221878
20
36.0492372
40
1.2774486
50
88.5209628
51
89.9998168
0
ARC
8
DEFAULT_255_2_778
10
6.4222886
20
36.0471263
40
1.2795593
50
90.0043306
51
126.8087163
0
ARC
8
DEFAULT_255_2_778
10
6.4364968
20
36.0275574
40
1.3037397
50
126.7933828
51
135.4789469
0
ARC
8
DEFAULT_255_2_778
10
6.4557246
20
36.0133106
40
1.3274427
50
135.6224234
51
161.4222416
0
ARC
8
DEFAULT_255_2_778
10
6.4623744
20
36.0112857
40
1.3343912
50
161.4307953
51
180.0022258
0
ARC
8
DEFAULT_255_2_778
10
6.4621095
20
36.0112295
40
1.3341261
50
179.9998135
51
181.4173837
0
ARC
8
DEFAULT_255_2_778
10
6.4550466
20
36.0105952
40
1.3270497
50
181.397548
51
207.2739043
0
ARC
8
DEFAULT_255_2_778
10
6.4649874
20
36.0158438
40
1.3382905
50
207.2786027
51
213.4327399
0
ARC
8
DEFAULT_255_2_778
10
6.4244092
20
32.4402853
40
1.282861
50
235.6218984
51
255.3129795
0
ARC
8
DEFAULT_255_2_778
10
6.4216234
20
32.4326364
40
1.274756
50
255.3469357
51
268.5224536
0
ARC
8
DEFAULT_255_2_778
10
6.4217875
20
32.4353009
40
1.2774238
50
268.5181738
51
269.9998094
0
ARC
8
DEFAULT_255_2_778
10
6.4216884
20
32.437364
40
1.2794868
50
270.0042511
51
306.8123968
0
ARC
8
DEFAULT_255_2_778
10
6.4076617
20
32.4566655
40
1.3033444
50
306.7976414
51
315.485388
0
ARC
8
DEFAULT_255_2_778
10
6.388593
20
32.471382
40
1.3272624
50
315.6094975
51
341.2441881
0
ARC
8
DEFAULT_255_2_778
10
6.382039
20
32.4733771
40
1.3341097
50
341.2535578
51
0.0022896
0
ARC
8
DEFAULT_255_2_778
10
6.3827558
20
32.4734346
40
1.3333929
50
359.9998206
51
1.4191608
0
ARC
8
DEFAULT_255_2_778
10
6.389383
20
32.4740701
40
1.3267522
50
1.3988138
51
27.2742153
0
ARC
8
DEFAULT_255_2_778
10
6.3794248
20
32.4688138
40
1.3380119
50
27.2788661
51
33.4327745
0
ARC
8
DEFAULT_255_2_778
10
6.4199797
20
32.5058489
40
1.2818106
50
55.6011272
51
75.3143486
0
ARC
8
DEFAULT_255_2_778
10
6.4227214
20
32.5133035
40
1.2739046
50
75.3486321
51
88.5363959
0
ARC
8
DEFAULT_255_2_778
10
6.4225442
20
32.5104215
40
1.2767902
50
88.5317505
51
89.9998125
0
ARC
8
DEFAULT_255_2_778
10
6.4227109
20
32.507676
40
1.2795355
50
90.0072767
51
126.8168652
0
ARC
8
DEFAULT_255_2_778
10
6.4369246
20
32.4880401
40
1.3037729
50
126.7998074
51
135.4854759
0
ARC
8
DEFAULT_255_2_778
10
6.4560246
20
32.4737106
40
1.3274427
50
135.6224234
51
161.4222416
0
ARC
8
DEFAULT_255_2_778
10
6.4626744
20
32.4716857
40
1.3343912
50
161.4307953
51
180.0022258
0
ARC
8
DEFAULT_255_2_778
10
6.4624095
20
32.4716295
40
1.3341261
50
179.9998135
51
181.4173837
0
ARC
8
DEFAULT_255_2_778
10
6.4553466
20
32.4709952
40
1.3270497
50
181.397548
51
207.2739043
0
ARC
8
DEFAULT_255_2_778
10
6.4652874
20
32.4762438
40
1.3382905
50
207.2786027
51
213.4327399
0
LINE
8
DEFAULT_255_2_778
10
5.0280396
20
32.4729024
11
5.0280396
21
32.4729024
0
LINE
8
DEFAULT_255_2_778
10
5.0280396
20
28.9333024
11
5.0280396
21
28.9333024
0
LINE
8
DEFAULT_255_2_778
10
7.4955396
20
29.6667024
11
5.6995396
21
27.8421024
0
LINE
8
DEFAULT_255_2_778
10
5.3479396
20
28.1996024
11
7.1439396
21
30.0241024
0
LINE
8
DEFAULT_255_2_778
10
7.4958396
20
36.7456024
11
5.6998396
21
34.9211024
0
LINE
8
DEFAULT_255_2_778
10
5.3481396
20
35.2785024
11
7.1441396
21
37.1031024
0
LINE
8
DEFAULT_255_2_778
10
7.4960396
20
33.2060024
11
5.7000396
21
31.3815024
0
LINE
8
DEFAULT_255_2_778
10
5.3484396
20
31.7389024
11
7.1444396
21
33.5635024
0
ARC
8
DEFAULT_255_2_778
10
6.4596568
20
18.3188246
40
1.4316214
50
151.646255
51
180.1391051
0
ARC
8
DEFAULT_255_2_778
10
6.4238126
20
18.3425807
40
1.3888007
50
94.6426306
51
151.806462
0
ARC
8
DEFAULT_255_2_778
10
6.4214833
20
18.3278898
40
1.4032592
50
89.9936155
51
94.4992838
0
ARC
8
DEFAULT_255_2_778
10
6.4241606
20
18.3567293
40
1.3744218
50
58.0021333
51
90.1050917
0
ARC
8
DEFAULT_255_2_778
10
6.4019271
20
18.32621
40
1.4120882
50
10.992389
51
57.8932417
0
ARC
8
DEFAULT_255_2_778
10
6.3595473
20
18.3162405
40
1.4555924
50
359.964903
51
11.0595299
0
ARC
8
DEFAULT_255_2_778
10
6.3829461
20
18.3118578
40
1.4321978
50
331.9941823
51
0.1396585
0
ARC
8
DEFAULT_255_2_778
10
6.4195737
20
18.287997
40
1.3886605
50
274.4115349
51
332.1537677
0
ARC
8
DEFAULT_255_2_778
10
6.4217837
20
18.3036335
40
1.4040847
50
269.9941197
51
274.272537
0
ARC
8
DEFAULT_255_2_778
10
6.4191442
20
18.2739145
40
1.374368
50
237.9959199
51
270.1040312
0
ARC
8
DEFAULT_255_2_778
10
6.4415427
20
18.3047762
40
1.4124122
50
190.9982555
51
237.8889009
0
ARC
8
DEFAULT_255_2_778
10
6.4828799
20
18.3144711
40
1.4548405
50
179.9654344
51
191.0624749
0
ARC
8
DEFAULT_255_2_778
10
6.4596568
20
25.3977246
40
1.4316214
50
151.646255
51
180.1391051
0
ARC
8
DEFAULT_255_2_778
10
6.4238126
20
25.4214807
40
1.3888007
50
94.6426306
51
151.806462
0
ARC
8
DEFAULT_255_2_778
10
6.4214833
20
25.4067898
40
1.4032592
50
89.9936155
51
94.4992838
0
ARC
8
DEFAULT_255_2_778
10
6.4241606
20
25.4356293
40
1.3744218
50
58.0021333
51
90.1050917
0
ARC
8
DEFAULT_255_2_778
10
6.4019271
20
25.40511
40
1.4120882
50
10.992389
51
57.8932417
0
ARC
8
DEFAULT_255_2_778
10
6.3595473
20
25.3951405
40
1.4555924
50
359.964903
51
11.0595299
0
ARC
8
DEFAULT_255_2_778
10
6.3829461
20
25.3907578
40
1.4321978
50
331.9941823
51
0.1396585
0
ARC
8
DEFAULT_255_2_778
10
6.4195737
20
25.366897
40
1.3886605
50
274.4115349
51
332.1537677
0
ARC
8
DEFAULT_255_2_778
10
6.4217837
20
25.3825335
40
1.4040847
50
269.9941197
51
274.272537
0
ARC
8
DEFAULT_255_2_778
10
6.4191442
20
25.3528145
40
1.374368
50
237.9959199
51
270.1040312
0
ARC
8
DEFAULT_255_2_778
10
6.4415427
20
25.3836762
40
1.4124122
50
190.9982555
51
237.8889009
0
ARC
8
DEFAULT_255_2_778
10
6.4828799
20
25.3933711
40
1.4548405
50
179.9654344
51
191.0624749
0
ARC
8
DEFAULT_255_2_778
10
6.4596568
20
21.8581246
40
1.4316214
50
151.646255
51
180.1391051
0
ARC
8
DEFAULT_255_2_778
10
6.4238126
20
21.8818807
40
1.3888007
50
94.6426306
51
151.806462
0
ARC
8
DEFAULT_255_2_778
10
6.4214833
20
21.8671898
40
1.4032592
50
89.9936155
51
94.4992838
0
ARC
8
DEFAULT_255_2_778
10
6.4241199
20
21.8962818
40
1.3741693
50
57.9935472
51
90.103413
0
ARC
8
DEFAULT_255_2_778
10
6.4015981
20
21.8652174
40
1.4124508
50
10.9981202
51
57.8867166
0
ARC
8
DEFAULT_255_2_778
10
6.3602991
20
21.8555285
40
1.4548406
50
359.9653545
51
11.062393
0
ARC
8
DEFAULT_255_2_778
10
6.383488
20
21.8511758
40
1.4316558
50
331.646873
51
0.1389914
0
ARC
8
DEFAULT_255_2_778
10
6.4194795
20
21.8272645
40
1.388632
50
274.3911348
51
331.809866
0
ARC
8
DEFAULT_255_2_778
10
6.4217797
20
21.8424259
40
1.4035771
50
269.994281
51
274.2501244
0
ARC
8
DEFAULT_255_2_778
10
6.4191442
20
21.8132145
40
1.374368
50
237.9959199
51
270.1040312
0
ARC
8
DEFAULT_255_2_778
10
6.4415427
20
21.8440762
40
1.4124122
50
190.9982555
51
237.8889009
0
ARC
8
DEFAULT_255_2_778
10
6.4828799
20
21.8537711
40
1.4548405
50
179.9654344
51
191.0624749
0
ARC
8
DEFAULT_255_2_778
10
6.4238482
20
18.2822048
40
1.2822267
50
235.6058064
51
255.3023734
0
ARC
8
DEFAULT_255_2_778
10
6.421011
20
18.2744294
40
1.2739862
50
255.3370719
51
268.5295592
0
ARC
8
DEFAULT_255_2_778
10
6.4211692
20
18.2768245
40
1.2763847
50
268.5252201
51
270.0005151
0
ARC
8
DEFAULT_255_2_778
10
6.4209991
20
18.2801055
40
1.2796658
50
270.0081327
51
306.8149283
0
ARC
8
DEFAULT_255_2_778
10
6.4065298
20
18.3001394
40
1.3043751
50
306.7964244
51
315.4789306
0
ARC
8
DEFAULT_255_2_778
10
6.3875359
20
18.3141462
40
1.3277429
50
315.6226833
51
341.4218161
0
ARC
8
DEFAULT_255_2_778
10
6.3809439
20
18.3161549
40
1.3346314
50
341.4302387
51
0.0019951
0
ARC
8
DEFAULT_255_2_778
10
6.3819195
20
18.3162139
40
1.3336558
50
359.9994607
51
1.4096218
0
ARC
8
DEFAULT_255_2_778
10
6.3885504
20
18.3168551
40
1.3270111
50
1.3889888
51
27.2959691
0
ARC
8
DEFAULT_255_2_778
10
6.3787935
20
18.3116878
40
1.3380512
50
27.301001
51
33.4251176
0
ARC
8
DEFAULT_255_2_778
10
6.4194863
20
18.3486058
40
1.2817983
50
55.6011044
51
75.3191555
0
ARC
8
DEFAULT_255_2_778
10
6.4222173
20
18.3560261
40
1.2739284
50
75.3533968
51
88.5442125
0
ARC
8
DEFAULT_255_2_778
10
6.4220444
20
18.352972
40
1.2769858
50
88.5399382
51
90.0001732
0
ARC
8
DEFAULT_255_2_778
10
6.4222216
20
18.350177
40
1.279781
50
90.0081052
51
126.8132133
0
ARC
8
DEFAULT_255_2_778
10
6.4365539
20
18.3303495
40
1.3042429
50
126.7953597
51
135.4788492
0
ARC
8
DEFAULT_255_2_778
10
6.4555742
20
18.316539
40
1.3274924
50
135.6294665
51
161.4256614
0
ARC
8
DEFAULT_255_2_778
10
6.4623271
20
18.3144733
40
1.3345516
50
161.433945
51
180.0022129
0
ARC
8
DEFAULT_255_2_778
10
6.4613487
20
18.3144095
40
1.3335732
50
179.999474
51
181.4194108
0
ARC
8
DEFAULT_255_2_778
10
6.4549219
20
18.3137766
40
1.3271327
50
181.3989691
51
207.2737537
0
ARC
8
DEFAULT_255_2_778
10
6.4647876
20
18.3189904
40
1.3382908
50
207.2786025
51
213.4327397
0
ARC
8
DEFAULT_255_2_778
10
6.423957
20
25.3604274
40
1.2814773
50
235.5932251
51
255.3091153
0
ARC
8
DEFAULT_255_2_778
10
6.4212238
20
25.3530269
40
1.2736258
50
255.3436211
51
268.5455805
0
ARC
8
DEFAULT_255_2_778
10
6.4213991
20
25.3560472
40
1.2766495
50
268.5411588
51
270.0001739
0
ARC
8
DEFAULT_255_2_778
10
6.4211941
20
25.3592144
40
1.2798168
50
270.0093512
51
306.8152637
0
ARC
8
DEFAULT_255_2_778
10
6.4067612
20
25.3792116
40
1.3044746
50
306.796442
51
315.4787813
0
ARC
8
DEFAULT_255_2_778
10
6.3882132
20
25.3929734
40
1.3273524
50
315.6166251
51
341.4208465
0
ARC
8
DEFAULT_255_2_778
10
6.3814091
20
25.3950581
40
1.3344661
50
341.4290809
51
0.0021932
0
ARC
8
DEFAULT_255_2_778
10
6.3811811
20
25.3951053
40
1.3346942
50
0.000167
51
1.4167351
0
ARC
8
DEFAULT_255_2_778
10
6.3888645
20
25.3957584
40
1.326997
50
1.3967471
51
27.2906283
0
ARC
8
DEFAULT_255_2_778
10
6.3791058
20
25.3905924
40
1.3380382
50
27.2956211
51
33.4252433
0
ARC
8
DEFAULT_255_2_778
10
6.4196311
20
25.4270929
40
1.2822267
50
55.6058064
51
75.3023734
0
ARC
8
DEFAULT_255_2_778
10
6.4224682
20
25.4348683
40
1.2739862
50
75.3370719
51
88.5295592
0
ARC
8
DEFAULT_255_2_778
10
6.42231
20
25.4324731
40
1.2763847
50
88.5252201
51
90.0005151
0
ARC
8
DEFAULT_255_2_778
10
6.4224802
20
25.4291921
40
1.2796658
50
90.0081327
51
126.8149283
0
ARC
8
DEFAULT_255_2_778
10
6.4369494
20
25.4091583
40
1.3043751
50
126.7964244
51
135.4789306
0
ARC
8
DEFAULT_255_2_778
10
6.4557246
20
25.395357
40
1.3274427
50
135.6224234
51
161.4222416
0
ARC
8
DEFAULT_255_2_778
10
6.4623744
20
25.3933322
40
1.3343912
50
161.4307953
51
180.0022258
0
ARC
8
DEFAULT_255_2_778
10
6.4621095
20
25.393276
40
1.3341261
50
179.9998135
51
181.4173837
0
ARC
8
DEFAULT_255_2_778
10
6.4550466
20
25.3926417
40
1.3270497
50
181.397548
51
207.2739043
0
ARC
8
DEFAULT_255_2_778
10
6.4649874
20
25.3978903
40
1.3382905
50
207.2786027
51
213.4327399
0
ARC
8
DEFAULT_255_2_778
10
6.4244092
20
21.8223317
40
1.282861
50
235.6218984
51
255.3129795
0
ARC
8
DEFAULT_255_2_778
10
6.4216234
20
21.8146828
40
1.274756
50
255.3469357
51
268.5224536
0
ARC
8
DEFAULT_255_2_778
10
6.4217875
20
21.8173474
40
1.2774238
50
268.5181738
51
269.9998094
0
ARC
8
DEFAULT_255_2_778
10
6.4216884
20
21.8194104
40
1.2794868
50
270.0042511
51
306.8123968
0
ARC
8
DEFAULT_255_2_778
10
6.4076617
20
21.838712
40
1.3033444
50
306.7976414
51
315.485388
0
ARC
8
DEFAULT_255_2_778
10
6.388593
20
21.8534284
40
1.3272624
50
315.6094975
51
341.2441881
0
ARC
8
DEFAULT_255_2_778
10
6.382039
20
21.8554236
40
1.3341097
50
341.2535578
51
0.0022896
0
ARC
8
DEFAULT_255_2_778
10
6.3827558
20
21.8554811
40
1.3333929
50
359.9998206
51
1.4191608
0
ARC
8
DEFAULT_255_2_778
10
6.389383
20
21.8561165
40
1.3267522
50
1.3988138
51
27.2742153
0
ARC
8
DEFAULT_255_2_778
10
6.3794248
20
21.8508602
40
1.3380119
50
27.2788661
51
33.4327745
0
ARC
8
DEFAULT_255_2_778
10
6.4199797
20
21.8878953
40
1.2818106
50
55.6011272
51
75.3143486
0
ARC
8
DEFAULT_255_2_778
10
6.4227214
20
21.89535
40
1.2739046
50
75.3486321
51
88.5363959
0
ARC
8
DEFAULT_255_2_778
10
6.4225442
20
21.892468
40
1.2767902
50
88.5317505
51
89.9998125
0
ARC
8
DEFAULT_255_2_778
10
6.4227109
20
21.8897225
40
1.2795355
50
90.0072767
51
126.8168652
0
ARC
8
DEFAULT_255_2_778
10
6.4369246
20
21.8700866
40
1.3037729
50
126.7998074
51
135.4854759
0
ARC
8
DEFAULT_255_2_778
10
6.4560246
20
21.855757
40
1.3274427
50
135.6224234
51
161.4222416
0
ARC
8
DEFAULT_255_2_778
10
6.4626744
20
21.8537322
40
1.3343912
50
161.4307953
51
180.0022258
0
ARC
8
DEFAULT_255_2_778
10
6.4624095
20
21.853676
40
1.3341261
50
179.9998135
51
181.4173837
0
ARC
8
DEFAULT_255_2_778
10
6.4553466
20
21.8530417
40
1.3270497
50
181.397548
51
207.2739043
0
ARC
8
DEFAULT_255_2_778
10
6.4652874
20
21.8582903
40
1.3382905
50
207.2786027
51
213.4327399
0
LINE
8
DEFAULT_255_2_778
10
5.0280396
20
18.3153488
11
5.0280396
21
18.3153488
0
LINE
8
DEFAULT_255_2_778
10
5.0280396
20
25.3942488
11
5.0280396
21
25.3942488
0
LINE
8
DEFAULT_255_2_778
10
5.0280396
20
21.8546488
11
5.0280396
21
21.8546488
0
LINE
8
DEFAULT_255_2_778
10
7.4955396
20
19.0487488
11
5.6995396
21
17.2241488
0
LINE
8
DEFAULT_255_2_778
10
5.3479396
20
17.5816488
11
7.1439396
21
19.4062488
0
LINE
8
DEFAULT_255_2_778
10
7.4958396
20
26.1276488
11
5.6998396
21
24.3031488
0
LINE
8
DEFAULT_255_2_778
10
5.3481396
20
24.6605488
11
7.1441396
21
26.4851488
0
LINE
8
DEFAULT_255_2_778
10
7.4960396
20
22.5880488
11
5.7000396
21
20.7635488
0
LINE
8
DEFAULT_255_2_778
10
5.3484396
20
21.1209488
11
7.1444396
21
22.9455488
0
ARC
8
DEFAULT_255_2_778
10
6.4194863
20
57.2831424
40
1.2817983
50
55.6011044
51
75.3191555
0
ARC
8
DEFAULT_255_2_778
10
6.4222173
20
57.2905626
40
1.2739284
50
75.3533968
51
88.5442125
0
ARC
8
DEFAULT_255_2_778
10
6.4220444
20
57.2875086
40
1.2769858
50
88.5399382
51
90.0001732
0
ARC
8
DEFAULT_255_2_778
10
6.4222216
20
57.2847136
40
1.279781
50
90.0081052
51
126.8132133
0
ARC
8
DEFAULT_255_2_778
10
6.4365539
20
57.2648861
40
1.3042429
50
126.7953597
51
135.4788492
0
ARC
8
DEFAULT_255_2_778
10
6.4555742
20
57.2510755
40
1.3274924
50
135.6294665
51
161.4256614
0
ARC
8
DEFAULT_255_2_778
10
6.4623271
20
57.2490098
40
1.3345516
50
161.433945
51
180.0022129
0
ARC
8
DEFAULT_255_2_778
10
6.4613487
20
57.248946
40
1.3335732
50
179.999474
51
181.4194108
0
ARC
8
DEFAULT_255_2_778
10
6.4549219
20
57.2483132
40
1.3271327
50
181.3989691
51
207.2737537
0
ARC
8
DEFAULT_255_2_778
10
6.4647876
20
57.2535269
40
1.3382908
50
207.2786025
51
213.4327397
0
ARC
8
DEFAULT_255_2_778
10
6.4238188
20
57.2161892
40
1.2819195
50
235.5980004
51
255.2763245
0
ARC
8
DEFAULT_255_2_778
10
6.4209711
20
57.2084087
40
1.2736708
50
255.311261
51
268.5309911
0
ARC
8
DEFAULT_255_2_778
10
6.4211335
20
57.2107612
40
1.2760269
50
268.5264128
51
270.0005162
0
ARC
8
DEFAULT_255_2_778
10
6.4209353
20
57.2144362
40
1.279702
50
270.0093852
51
306.8169764
0
ARC
8
DEFAULT_255_2_778
10
6.4063657
20
57.2346395
40
1.3046068
50
306.7975067
51
315.4788627
0
ARC
8
DEFAULT_255_2_778
10
6.3879132
20
57.2483099
40
1.3273524
50
315.6166251
51
341.4208465
0
ARC
8
DEFAULT_255_2_778
10
6.3811091
20
57.2503947
40
1.3344661
50
341.4290809
51
0.0021932
0
ARC
8
DEFAULT_255_2_778
10
6.3808811
20
57.2504419
40
1.3346942
50
0.000167
51
1.4167351
0
ARC
8
DEFAULT_255_2_778
10
6.3885645
20
57.251095
40
1.326997
50
1.3967471
51
27.2906283
0
ARC
8
DEFAULT_255_2_778
10
6.3788058
20
57.245929
40
1.3380382
50
27.2956211
51
33.4252433
0
ARC
8
DEFAULT_255_2_778
10
6.4241199
20
57.2079524
40
1.3741693
50
269.896587
51
302.0064528
0
ARC
8
DEFAULT_255_2_778
10
6.4015981
20
57.2390168
40
1.4124508
50
302.1132834
51
349.0018798
0
ARC
8
DEFAULT_255_2_778
10
6.3602991
20
57.2487057
40
1.4548406
50
348.937607
51
0.0346455
0
ARC
8
DEFAULT_255_2_778
10
6.383488
20
57.2530584
40
1.4316558
50
359.8610086
51
28.353127
0
ARC
8
DEFAULT_255_2_778
10
6.4194795
20
57.2769697
40
1.388632
50
28.190134
51
85.6088652
0
ARC
8
DEFAULT_255_2_778
10
6.4217797
20
57.2618083
40
1.4035771
50
85.7498756
51
90.005719
0
ARC
8
DEFAULT_255_2_778
10
6.4191075
20
57.2907662
40
1.3746216
50
89.8944582
51
121.6440405
0
ARC
8
DEFAULT_255_2_778
10
6.441058
20
57.2605338
40
1.411878
50
121.7587167
51
168.9423604
0
ARC
8
DEFAULT_255_2_778
10
6.4834816
20
57.2504848
40
1.4554424
50
168.8744254
51
180.0354075
0
ARC
8
DEFAULT_255_2_778
10
6.4602008
20
57.246092
40
1.4321654
50
179.8602414
51
208.0063978
0
ARC
8
DEFAULT_255_2_778
10
6.4236434
20
57.2222989
40
1.3887218
50
207.8479437
51
265.5906906
0
ARC
8
DEFAULT_255_2_778
10
6.4214953
20
57.2382151
40
1.4044298
50
265.7279876
51
270.0058868
0
LINE
8
DEFAULT_255_2_778
10
5.3476396
20
56.5161854
11
7.1436396
21
58.3407854
0
LINE
8
DEFAULT_255_2_778
10
5.3479396
20
56.5161854
11
5.3476396
21
56.5161854
0
LINE
8
DEFAULT_255_2_778
10
7.4955396
20
57.9829854
11
5.6995396
21
56.1584854
0
LINE
8
DEFAULT_255_2_778
10
7.4955396
20
57.9829854
11
7.4955396
21
57.9829854
0
LINE
8
DEFAULT_255_2_778
10
6.4216396
20
55.8337854
11
6.4216396
21
55.8337854
0
ARC
8
DEFAULT_255_2_778
10
6.3784863
20
14.8008424
40
1.2817983
50
55.6011044
51
75.3191555
0
ARC
8
DEFAULT_255_2_778
10
6.3812173
20
14.8082626
40
1.2739284
50
75.3533968
51
88.5442125
0
ARC
8
DEFAULT_255_2_778
10
6.3810444
20
14.8052086
40
1.2769858
50
88.5399382
51
90.0001732
0
ARC
8
DEFAULT_255_2_778
10
6.3812216
20
14.8024136
40
1.279781
50
90.0081052
51
126.8132133
0
ARC
8
DEFAULT_255_2_778
10
6.3955539
20
14.7825861
40
1.3042429
50
126.7953597
51
135.4788492
0
ARC
8
DEFAULT_255_2_778
10
6.4145742
20
14.7687755
40
1.3274924
50
135.6294665
51
161.4256614
0
ARC
8
DEFAULT_255_2_778
10
6.4213271
20
14.7667098
40
1.3345516
50
161.433945
51
180.0022129
0
ARC
8
DEFAULT_255_2_778
10
6.4203487
20
14.766646
40
1.3335732
50
179.999474
51
181.4194108
0
ARC
8
DEFAULT_255_2_778
10
6.4139219
20
14.7660132
40
1.3271327
50
181.3989691
51
207.2737537
0
ARC
8
DEFAULT_255_2_778
10
6.4237876
20
14.7712269
40
1.3382908
50
207.2786025
51
213.4327397
0
ARC
8
DEFAULT_255_2_778
10
6.3828188
20
14.7338892
40
1.2819195
50
235.5980004
51
255.2763245
0
ARC
8
DEFAULT_255_2_778
10
6.3799711
20
14.7261087
40
1.2736708
50
255.311261
51
268.5309911
0
ARC
8
DEFAULT_255_2_778
10
6.3801335
20
14.7284612
40
1.2760269
50
268.5264128
51
270.0005162
0
ARC
8
DEFAULT_255_2_778
10
6.3799353
20
14.7321362
40
1.279702
50
270.0093852
51
306.8169764
0
ARC
8
DEFAULT_255_2_778
10
6.3653657
20
14.7523395
40
1.3046068
50
306.7975067
51
315.4788627
0
ARC
8
DEFAULT_255_2_778
10
6.3469132
20
14.7660099
40
1.3273524
50
315.6166251
51
341.4208465
0
ARC
8
DEFAULT_255_2_778
10
6.3401091
20
14.7680947
40
1.3344661
50
341.4290809
51
0.0021932
0
ARC
8
DEFAULT_255_2_778
10
6.3398811
20
14.7681419
40
1.3346942
50
0.000167
51
1.4167351
0
ARC
8
DEFAULT_255_2_778
10
6.3475645
20
14.768795
40
1.326997
50
1.3967471
51
27.2906283
0
ARC
8
DEFAULT_255_2_778
10
6.3378058
20
14.763629
40
1.3380382
50
27.2956211
51
33.4252433
0
ARC
8
DEFAULT_255_2_778
10
6.3831199
20
14.7256524
40
1.3741693
50
269.896587
51
302.0064528
0
ARC
8
DEFAULT_255_2_778
10
6.3605981
20
14.7567168
40
1.4124508
50
302.1132834
51
349.0018798
0
ARC
8
DEFAULT_255_2_778
10
6.3192991
20
14.7664057
40
1.4548406
50
348.937607
51
0.0346455
0
ARC
8
DEFAULT_255_2_778
10
6.342488
20
14.7707584
40
1.4316558
50
359.8610086
51
28.353127
0
ARC
8
DEFAULT_255_2_778
10
6.3784795
20
14.7946697
40
1.388632
50
28.190134
51
85.6088652
0
ARC
8
DEFAULT_255_2_778
10
6.3807797
20
14.7795083
40
1.4035771
50
85.7498756
51
90.005719
0
ARC
8
DEFAULT_255_2_778
10
6.3781075
20
14.8084662
40
1.3746216
50
89.8944582
51
121.6440405
0
ARC
8
DEFAULT_255_2_778
10
6.400058
20
14.7782338
40
1.411878
50
121.7587167
51
168.9423604
0
ARC
8
DEFAULT_255_2_778
10
6.4424816
20
14.7681848
40
1.4554424
50
168.8744254
51
180.0354075
0
ARC
8
DEFAULT_255_2_778
10
6.4192008
20
14.763792
40
1.4321654
50
179.8602414
51
208.0063978
0
ARC
8
DEFAULT_255_2_778
10
6.3826434
20
14.7399989
40
1.3887218
50
207.8479437
51
265.5906906
0
ARC
8
DEFAULT_255_2_778
10
6.3804953
20
14.7559151
40
1.4044298
50
265.7279876
51
270.0058868
0
LINE
8
DEFAULT_255_2_778
10
5.3066396
20
14.0338854
11
7.1026396
21
15.8584854
0
LINE
8
DEFAULT_255_2_778
10
5.3069396
20
14.0338854
11
5.3066396
21
14.0338854
0
LINE
8
DEFAULT_255_2_778
10
7.4545396
20
15.5006854
11
5.6585396
21
13.6761854
0
LINE
8
DEFAULT_255_2_778
10
7.4545396
20
15.5006854
11
7.4545396
21
15.5006854
0
LINE
8
DEFAULT_255_2_778
10
6.3806396
20
13.3514854
11
6.3806396
21
13.3514854
0
LINE
8
DEFAULT_255_2_778
10
22.0386157
20
69.6421406
11
28.0113157
21
69.5371406
0
LINE
8
DEFAULT_255_2_778
10
22.0389157
20
66.3250406
11
28.0116157
21
66.4848406
0
LINE
8
DEFAULT_255_2_778
10
28.0116157
20
69.5193406
11
28.0116157
21
66.5116406
0
ARC
8
DEFAULT_255_2_778
10
21.9435731
20
72.8281754
40
0.4026824
50
179.9845
51
224.7493432
0
ARC
8
DEFAULT_255_2_778
10
21.9394804
20
72.8240688
40
0.3968847
50
224.7442649
51
269.9437447
0
ARC
8
DEFAULT_255_2_778
10
18.1483613
20
71.6655382
40
4.0115066
50
137.2757775
51
159.5123988
0
ARC
8
DEFAULT_255_2_778
10
18.1226043
20
71.6923704
40
3.9743808
50
102.0524583
51
137.3080169
0
ARC
8
DEFAULT_255_2_778
10
18.1192053
20
71.6970549
40
3.9690905
50
99.5721005
51
102.0185936
0
ARC
8
DEFAULT_255_2_778
10
17.6373957
20
76.5379675
40
0.1782052
50
179.9696541
51
180.0910434
0
ARC
8
DEFAULT_255_2_778
10
17.6608113
20
76.5378747
40
0.201621
50
135.3438195
51
179.9468246
0
ARC
8
DEFAULT_255_2_778
10
17.6584517
20
76.5394442
40
0.1988403
50
90.0751906
51
135.1876176
0
ARC
8
DEFAULT_255_2_778
10
19.2501142
20
76.5385069
40
0.1997783
50
359.7640731
51
89.834643
0
ARC
8
DEFAULT_255_2_778
10
18.1192271
20
71.7153437
40
5.0661599
50
97.489389
51
120.2452452
0
ARC
8
DEFAULT_255_2_778
10
15.6688096
20
75.9185566
40
0.200819
50
120.3330803
51
179.9687233
0
ARC
8
DEFAULT_255_2_778
10
15.5673535
20
75.9185957
40
0.099363
50
179.9593668
51
180.1219078
0
ARC
8
DEFAULT_255_2_778
10
18.1305539
20
71.6628064
40
2.2027095
50
129.6601784
51
159.5257459
0
ARC
8
DEFAULT_255_2_778
10
18.1167912
20
71.6819599
40
2.1791811
50
91.8238311
51
129.7030167
0
ARC
8
DEFAULT_255_2_778
10
18.1165176
20
71.6716325
40
2.1894947
50
91.1521944
51
91.8080742
0
LINE
8
DEFAULT_255_2_778
10
21.5408907
20
75.7357843
11
21.5408907
21
73.5471843
0
LINE
8
DEFAULT_255_2_778
10
21.5408907
20
73.5471843
11
21.5408907
21
72.8282843
0
LINE
8
DEFAULT_255_2_778
10
21.9390907
20
72.4271843
11
22.0385907
21
72.4271843
0
LINE
8
DEFAULT_255_2_778
10
22.0385907
20
72.4271843
11
22.0385907
21
72.1432843
0
LINE
8
DEFAULT_255_2_778
10
15.7343907
20
71.5246843
11
22.0385907
21
71.5246843
0
LINE
8
DEFAULT_255_2_778
10
13.7859907
20
71.3240843
11
14.2362907
21
71.3240843
0
LINE
8
DEFAULT_255_2_778
10
14.2362907
20
71.3240843
11
14.2362907
21
71.8254843
0
LINE
8
DEFAULT_255_2_778
10
14.2362907
20
71.8254843
11
13.9375907
21
71.8254843
0
LINE
8
DEFAULT_255_2_778
10
13.9375907
20
71.8254843
11
14.3905907
21
73.0695843
0
LINE
8
DEFAULT_255_2_778
10
17.4591907
20
75.6108843
11
17.4591907
21
76.5376843
0
LINE
8
DEFAULT_255_2_778
10
21.5374907
20
75.7357843
11
19.4498907
21
75.6936843
0
LINE
8
DEFAULT_255_2_778
10
19.4498907
20
75.6936843
11
19.4498907
21
76.5376843
0
LINE
8
DEFAULT_255_2_778
10
19.2506907
20
76.7382843
11
17.4588907
21
76.7382843
0
LINE
8
DEFAULT_255_2_778
10
15.4679907
20
75.9183843
11
15.4679907
21
74.6501843
0
LINE
8
DEFAULT_255_2_778
10
18.0724907
20
73.8606843
11
21.5403907
21
73.9304843
0
ARC
8
DEFAULT_255_2_778
10
23.0321508
20
50.3212993
40
0.4994883
50
359.7803424
51
89.7952831
0
ARC
8
DEFAULT_255_2_778
10
23.0319582
20
50.3211079
40
0.4996803
50
359.8023726
51
89.7732725
0
ARC
8
DEFAULT_255_2_778
10
22.814284
20
50.0178375
40
0.7173521
50
0.0151262
51
0.0756286
0
ARC
8
DEFAULT_255_2_778
10
23.029597
20
50.0180319
40
0.502039
50
315.2010158
51
359.9994248
0
ARC
8
DEFAULT_255_2_778
10
23.0335403
20
50.0132705
40
0.4958863
50
270.045655
51
315.2703469
0
ARC
8
DEFAULT_255_2_778
10
23.0335403
20
50.0132705
40
0.4958863
50
270.045655
51
315.2703469
0
ARC
8
DEFAULT_255_2_778
10
23.029597
20
50.0180319
40
0.502039
50
315.2010158
51
359.9994248
0
ARC
8
DEFAULT_255_2_778
10
22.814284
20
50.0178375
40
0.7173521
50
0.0151262
51
0.0756286
0
LINE
8
DEFAULT_255_2_778
10
11.4407355
20
49.3670844
11
16.3643355
21
49.3670844
0
LINE
8
DEFAULT_255_2_778
10
16.3643355
20
49.3670844
11
23.0339355
21
49.5173844
0
LINE
8
DEFAULT_255_2_778
10
23.0339355
20
50.8207844
11
16.3643355
21
50.9712844
0
LINE
8
DEFAULT_255_2_778
10
16.3643355
20
50.9712844
11
11.5193355
21
50.9712844
0
LINE
8
DEFAULT_255_2_778
10
23.5316355
20
50.0187844
11
23.5316355
21
50.0187844
0
ARC
8
DEFAULT_255_2_778
10
23.0322279
20
11.7209316
40
0.4994883
50
359.7803424
51
89.7952831
0
ARC
8
DEFAULT_255_2_778
10
23.3516582
20
11.417832
40
0.1800545
50
359.9698132
51
0.0905629
0
ARC
8
DEFAULT_255_2_778
10
23.0288257
20
11.4177131
40
0.5028869
50
315.2409094
51
0.0027391
0
ARC
8
DEFAULT_255_2_778
10
23.0335117
20
11.4131939
40
0.4963775
50
270.0578138
51
315.2304598
0
LINE
8
DEFAULT_255_2_778
10
11.3873125
20
12.3709166
11
16.3644125
21
12.3709166
0
LINE
8
DEFAULT_255_2_778
10
16.3644125
20
12.3709166
11
23.0340125
21
12.2204166
0
LINE
8
DEFAULT_255_2_778
10
23.0340125
20
10.9168166
11
16.3644125
21
10.7665166
0
LINE
8
DEFAULT_255_2_778
10
16.3644125
20
10.7665166
11
11.3873125
21
10.7665166
0
ARC
8
DEFAULT_255_2_778
10
36.4734679
20
8.8479426
40
0.9883637
50
269.9536258
51
314.3038301
0
ARC
8
DEFAULT_255_2_778
10
36.4652752
20
8.8600211
40
1.0027333
50
314.156792
51
357.8517985
0
ARC
8
DEFAULT_255_2_778
10
36.4409604
20
8.862048
40
1.0271075
50
357.789654
51
0.0017427
0
ARC
8
DEFAULT_255_2_778
10
38.4708353
20
11.3704349
40
1.0027693
50
140.3122691
51
180.111745
0
ARC
8
DEFAULT_255_2_778
10
38.4632894
20
11.3803355
40
0.9906441
50
91.23556
51
140.4742123
0
ARC
8
DEFAULT_255_2_778
10
38.4634602
20
11.3629819
40
1.0079973
50
89.9995595
51
91.2239931
0
ARC
8
DEFAULT_255_2_778
10
61.261727
20
14.34287
40
1.9718924
50
269.9256435
51
294.8225151
0
ARC
8
DEFAULT_255_2_778
10
61.2440474
20
14.3722758
40
2.0060071
50
294.9282343
51
348.180719
0
ARC
8
DEFAULT_255_2_778
10
61.2226309
20
14.3750458
40
2.0275374
50
348.2280641
51
0.0320288
0
ARC
8
DEFAULT_255_2_778
10
61.2395374
20
70.2242022
40
2.0106326
50
359.9167056
51
23.79602
0
ARC
8
DEFAULT_255_2_778
10
61.2531625
20
70.2327416
40
1.9947218
50
23.7294947
51
82.2468886
0
ARC
8
DEFAULT_255_2_778
10
61.2596815
20
70.2309999
40
1.9955793
50
82.4390938
51
90.0147453
0
ARC
8
DEFAULT_255_2_778
10
23.4324279
20
2.5463388
40
0.1998411
50
359.8108849
51
89.8451838
0
ARC
8
DEFAULT_255_2_778
10
26.8135721
20
3.7612335
40
0.5016964
50
296.1992278
51
0.0851673
0
ARC
8
DEFAULT_255_2_778
10
20.6439949
20
5.1420464
40
0.9922675
50
234.944598
51
269.9580248
0
ARC
8
DEFAULT_255_2_778
10
19.9495805
20
3.9505567
40
0.399825
50
90.2024281
51
135.1813884
0
ARC
8
DEFAULT_255_2_778
10
19.9497398
20
3.9507886
40
0.3997746
50
135.2210587
51
179.9997446
0
ARC
8
DEFAULT_255_2_778
10
19.9577669
20
3.9508444
40
0.4078018
50
180.0075882
51
180.2199062
0
ARC
8
DEFAULT_255_2_778
10
17.2592763
20
-0.0616307
40
0.1999926
50
270.2840999
51
0.1747227
0
ARC
8
DEFAULT_255_2_778
10
11.686476
20
0.0142338
40
0.1997101
50
179.7287613
51
268.6491574
0
ARC
8
DEFAULT_255_2_778
10
12.5792664
20
3.8449283
40
2.9629955
50
249.5940549
51
268.8996795
0
ARC
8
DEFAULT_255_2_778
10
12.6027568
20
3.8826789
40
3.0065805
50
193.4008784
51
249.4253293
0
ARC
8
DEFAULT_255_2_778
10
12.6313062
20
3.8877968
40
3.0355391
50
179.962583
51
193.3699594
0
ARC
8
DEFAULT_255_2_778
10
12.5915947
20
3.8876165
40
1.2040287
50
179.8970856
51
214.76607
0
ARC
8
DEFAULT_255_2_778
10
12.5826951
20
3.8777088
40
1.1910722
50
214.6186615
51
265.2649794
0
ARC
8
DEFAULT_255_2_778
10
12.5818426
20
3.8889728
40
1.2022286
50
265.3497814
51
268.8668709
0
ARC
8
DEFAULT_255_2_778
10
15.6701031
20
-0.061106
40
0.2016352
50
179.9758026
51
224.6543323
0
ARC
8
DEFAULT_255_2_778
10
15.6677672
20
-0.0629278
40
0.1986934
50
224.7540236
51
269.9136923
0
ARC
8
DEFAULT_255_2_778
10
78.59847
20
39.2386471
40
72.3229411
50
153.6625955
51
153.898515
0
ARC
8
DEFAULT_255_2_778
10
85.3958434
20
35.9080051
40
79.8924499
50
153.8982415
51
154.1349965
0
ARC
8
DEFAULT_255_2_778
10
91.4884318
20
32.9536077
40
86.6635721
50
154.1346438
51
154.3665926
0
ARC
8
DEFAULT_255_2_778
10
96.2046059
20
30.6895738
40
91.8950295
50
154.3660081
51
154.5643925
0
ARC
8
DEFAULT_255_2_778
10
100.1131791
20
28.8309473
40
96.2230124
50
154.5645421
51
154.8217101
0
ARC
8
DEFAULT_255_2_778
10
103.0645984
20
27.4428906
40
99.4845423
50
154.8214027
51
155.1001329
0
ARC
8
DEFAULT_255_2_778
10
104.2532996
20
26.8904018
40
100.7953641
50
155.0997641
51
155.3114666
0
ARC
8
DEFAULT_255_2_778
10
103.9315093
20
27.0376467
40
100.441486
50
155.311112
51
155.6369464
0
ARC
8
DEFAULT_255_2_778
10
101.7517187
20
28.0238343
40
98.0489869
50
155.6364594
51
155.97712
0
ARC
8
DEFAULT_255_2_778
10
98.5916069
20
29.4329863
40
94.5889268
50
155.9774892
51
156.2177605
0
ARC
8
DEFAULT_255_2_778
10
94.3738202
20
31.2894176
40
89.980667
50
156.2164362
51
156.5980805
0
ARC
8
DEFAULT_255_2_778
10
88.2745583
20
33.9281055
40
83.335092
50
156.5974867
51
157.0108482
0
ARC
8
DEFAULT_255_2_778
10
78.7512945
20
37.9565935
40
72.9948244
50
157.0023434
51
157.793836
0
ARC
8
DEFAULT_255_2_778
10
66.7436397
20
42.857793
40
60.025417
50
157.7933582
51
158.6176563
0
ARC
8
DEFAULT_255_2_778
10
56.1732413
20
46.9965771
40
48.6736393
50
158.6177084
51
159.4785461
0
ARC
8
DEFAULT_255_2_778
10
47.3371194
20
50.3043185
40
39.2386935
50
159.4789278
51
160.3763946
0
ARC
8
DEFAULT_255_2_778
10
40.1594477
20
52.863933
40
31.6182868
50
160.377125
51
161.308656
0
ARC
8
DEFAULT_255_2_778
10
34.4191223
20
54.8064201
40
25.5582051
50
161.3096345
51
162.2707198
0
ARC
8
DEFAULT_255_2_778
10
29.3637359
20
56.4195009
40
20.2517044
50
162.2622423
51
163.5169922
0
ARC
8
DEFAULT_255_2_778
10
24.7437482
20
57.784521
40
15.4342817
50
163.5099001
51
165.0343268
0
ARC
8
DEFAULT_255_2_778
10
21.1176885
20
58.7547329
40
11.6806676
50
165.0387819
51
166.5998755
0
ARC
8
DEFAULT_255_2_778
10
18.19881
20
59.4472486
40
8.6807646
50
166.581474
51
168.6810669
0
ARC
8
DEFAULT_255_2_778
10
15.7676031
20
59.9328598
40
6.2015342
50
168.6717598
51
171.1798491
0
ARC
8
DEFAULT_255_2_778
10
13.8512944
20
60.2277549
40
4.2626702
50
171.1472375
51
174.5268569
0
ARC
8
DEFAULT_255_2_778
10
12.3635326
20
60.3681676
40
2.7682993
50
174.4827935
51
179.0302472
0
ARC
8
DEFAULT_255_2_778
10
11.7079083
20
60.3859078
40
2.1124792
50
179.2103817
51
179.9954147
0
ARC
8
DEFAULT_255_2_778
10
11.5932887
20
60.3860344
40
1.9978597
50
179.9987839
51
180.527283
0
ARC
8
DEFAULT_255_2_778
10
11.5017399
20
60.385252
40
1.9063076
50
180.5290904
51
181.0752477
0
LINE
8
DEFAULT_255_2_778
10
35.1786679
20
7.8595792
11
36.4726679
21
7.8595792
0
LINE
8
DEFAULT_255_2_778
10
37.4680679
20
8.8620792
11
37.4680679
21
11.3684792
0
LINE
8
DEFAULT_255_2_778
10
38.4634679
20
12.3709792
11
61.2591679
21
12.3709792
0
LINE
8
DEFAULT_255_2_778
10
63.2501679
20
14.3761792
11
63.2501679
21
70.2212792
0
LINE
8
DEFAULT_255_2_778
10
61.2591679
20
72.2265792
11
58.8929679
21
72.2265792
0
LINE
8
DEFAULT_255_2_778
10
11.3872679
20
46.5553792
11
11.3872679
21
3.8897792
0
LINE
8
DEFAULT_255_2_778
10
19.6496679
20
2.7461792
11
23.4329679
21
2.7461792
0
LINE
8
DEFAULT_255_2_778
10
23.6322679
20
2.5456792
11
23.6322679
21
1.7436792
0
LINE
8
DEFAULT_255_2_778
10
23.6322679
20
1.7436792
11
23.8311679
21
1.7436792
0
LINE
8
DEFAULT_255_2_778
10
23.8311679
20
1.7436792
11
27.0350679
21
3.3110792
0
LINE
8
DEFAULT_255_2_778
10
27.3152679
20
3.7619792
11
27.3152679
21
4.1497792
0
LINE
8
DEFAULT_255_2_778
10
27.3152679
20
4.1497792
11
20.6432679
21
4.1497792
0
LINE
8
DEFAULT_255_2_778
10
20.0476679
20
4.3503792
11
19.9481679
21
4.3503792
0
LINE
8
DEFAULT_255_2_778
10
19.5499679
20
3.9492792
11
19.5499679
21
0.7408792
0
LINE
8
DEFAULT_255_2_778
10
19.5499679
20
0.7408792
11
17.4592679
21
0.7832792
0
LINE
8
DEFAULT_255_2_778
10
17.4592679
20
0.7832792
11
17.4592679
21
-0.0610208
0
LINE
8
DEFAULT_255_2_778
10
17.2602679
20
-0.2616208
11
15.4684679
21
-0.2616208
0
LINE
8
DEFAULT_255_2_778
10
15.4684679
20
-0.2616208
11
11.6817679
21
-0.1854208
0
LINE
8
DEFAULT_255_2_778
10
11.4867679
20
0.0151792
11
11.4867679
21
1.0914792
0
LINE
8
DEFAULT_255_2_778
10
15.4684679
20
0.8231792
11
12.5223679
21
0.8824792
0
LINE
8
DEFAULT_255_2_778
10
9.5957679
20
3.8897792
11
9.5957679
21
4.9517792
0
LINE
8
DEFAULT_255_2_778
10
9.5957679
20
4.9517792
11
9.8945679
21
4.9517792
0
LINE
8
DEFAULT_255_2_778
10
9.8945679
20
4.9517792
11
9.8945679
21
5.4531792
0
LINE
8
DEFAULT_255_2_778
10
9.8945679
20
5.4531792
11
9.5957679
21
5.4531792
0
LINE
8
DEFAULT_255_2_778
10
12.5580679
20
2.6869792
11
19.5502679
21
2.5461792
0
LINE
8
DEFAULT_255_2_778
10
15.4684679
20
0.8435792
11
15.4684679
21
-0.0610208
0
LINE
8
DEFAULT_255_2_778
10
9.5957679
20
60.3494792
11
9.5957679
21
5.4531792
0
ENDSEC
0
EOF