0
SECTION
2
HEADER
9
$MEASUREMENT
70
1
0
ENDSEC
0
SECTION
2
TABLES
0
TABLE
2
LTYPE
0
LTYPE
72
65
70
64
2
CONTINUOUS
3
______
73
0
40
0
0
ENDTAB
0
TABLE
2
LAYER
0
LAYER
2
DEFAULT_255_2_778
70
0
62
255
6
CONTINUOUS
0
ENDTAB
0
ENDSEC
0
SECTION
2
ENTITIES
0
LINE
8
DEFAULT_255_2_778
10
6.871863
20
16.8009664
11
0.205463
21
12.9549664
0
LINE
8
DEFAULT_255_2_778
10
0.205463
20
12.9549664
11
0.205463
21
3.7191664
0
LINE
8
DEFAULT_255_2_778
10
0.205463
20
3.7191664
11
2.710263
21
2.2732664
0
LINE
8
DEFAULT_255_2_778
10
2.710263
20
2.2732664
11
2.710263
21
11.5087664
0
LINE
8
DEFAULT_255_2_778
10
2.710263
20
11.5087664
11
6.872163
21
13.9122664
0
LINE
8
DEFAULT_255_2_778
10
9.532063
20
16.8009664
11
9.532063
21
9.4455664
0
LINE
8
DEFAULT_255_2_778
10
9.532063
20
9.4455664
11
6.871863
21
9.4455664
0
LINE
8
DEFAULT_255_2_778
10
6.871863
20
9.4455664
11
6.871863
21
12.1908664
0
LINE
8
DEFAULT_255_2_778
10
6.871863
20
12.1908664
11
4.367063
21
10.7449664
0
LINE
8
DEFAULT_255_2_778
10
4.367063
20
10.7449664
11
4.367063
21
1.3204664
0
LINE
8
DEFAULT_255_2_778
10
4.367063
20
1.3204664
11
6.871863
21
-0.1289336
0
LINE
8
DEFAULT_255_2_778
10
6.871863
20
-0.1289336
11
6.871863
21
7.2053664
0
LINE
8
DEFAULT_255_2_778
10
6.871863
20
7.2053664
11
9.532063
21
7.2053664
0
LINE
8
DEFAULT_255_2_778
10
9.532063
20
7.2053664
11
9.532063
21
4.4793664
0
LINE
8
DEFAULT_255_2_778
10
9.532063
20
4.4793664
11
12.036863
21
5.9239664
0
LINE
8
DEFAULT_255_2_778
10
12.036863
20
5.9239664
11
12.036863
21
15.3550664
0
LINE
8
DEFAULT_255_2_778
10
9.532063
20
-0.1323336
11
16.198763
21
3.7136664
0
LINE
8
DEFAULT_255_2_778
10
16.198763
20
3.7136664
11
16.198763
21
12.9496664
0
LINE
8
DEFAULT_255_2_778
10
16.198763
20
12.9496664
11
13.693663
21
14.3932664
0
LINE
8
DEFAULT_255_2_778
10
13.693663
20
14.3932664
11
13.693663
21
5.1574664
0
LINE
8
DEFAULT_255_2_778
10
13.693663
20
5.1574664
11
9.531763
21
2.7539664
0
ENDSEC
0
EOF