0
SECTION
2
HEADER
9
$MEASUREMENT
70
1
0
ENDSEC
0
SECTION
2
TABLES
0
TABLE
2
LTYPE
0
LTYPE
72
65
70
64
2
CONTINUOUS
3
______
73
0
40
0
0
ENDTAB
0
TABLE
2
LAYER
0
LAYER
2
DEFAULT_255_2_778
70
0
62
255
6
CONTINUOUS
0
ENDTAB
0
ENDSEC
0
SECTION
2
ENTITIES
0
ARC
8
DEFAULT_255_2_778
10
14.8792881
20
13.5769409
40
2.7041273
50
70.0060899
51
90.0648058
0
ARC
8
DEFAULT_255_2_778
10
14.8727474
20
13.5691245
40
2.7137114
50
10.8525265
51
69.9327439
0
ARC
8
DEFAULT_255_2_778
10
14.8617338
20
13.573046
40
2.723796
50
359.9730847
51
10.7278927
0
ARC
8
DEFAULT_255_2_778
10
14.881404
20
2.0540079
40
2.7041273
50
340.0060899
51
0.0648058
0
ARC
8
DEFAULT_255_2_778
10
14.8735876
20
2.0605486
40
2.7137114
50
280.8525265
51
339.9327439
0
ARC
8
DEFAULT_255_2_778
10
14.8775091
20
2.0715621
40
2.723796
50
269.9730847
51
280.7278927
0
ARC
8
DEFAULT_255_2_778
10
3.3615071
20
2.0571848
40
2.7094184
50
225.0021053
51
270.000474
0
ARC
8
DEFAULT_255_2_778
10
3.3614748
20
2.0569724
40
2.7092451
50
179.9980112
51
224.9994128
0
ARC
8
DEFAULT_255_2_778
10
3.3563551
20
13.574825
40
2.7041273
50
160.0060899
51
180.0648058
0
ARC
8
DEFAULT_255_2_778
10
3.3641715
20
13.5682843
40
2.7137114
50
100.8525265
51
159.9327439
0
ARC
8
DEFAULT_255_2_778
10
3.36025
20
13.5572707
40
2.723796
50
89.9730847
51
100.7278927
0
ARC
8
DEFAULT_255_2_778
10
13.3300254
20
2.8275762
40
1.8134597
50
270.9511762
51
298.0793419
0
ARC
8
DEFAULT_255_2_778
10
13.3265964
20
2.8350197
40
1.8216411
50
298.0643004
51
349.3489588
0
ARC
8
DEFAULT_255_2_778
10
13.3152138
20
2.8343651
40
1.8327088
50
349.4348409
51
357.6108639
0
ARC
8
DEFAULT_255_2_778
10
13.3000744
20
2.8294257
40
1.8476375
50
357.783474
51
359.9987417
0
ARC
8
DEFAULT_255_2_778
10
13.3358656
20
2.8308722
40
1.8118468
50
359.9529747
51
28.5864718
0
ARC
8
DEFAULT_255_2_778
10
13.3269876
20
2.827864
40
1.8210827
50
28.5359265
51
75.2491731
0
ARC
8
DEFAULT_255_2_778
10
13.326898
20
2.8174044
40
1.8312222
50
75.3297897
51
84.3297151
0
ARC
8
DEFAULT_255_2_778
10
8.5633022
20
9.9518416
40
1.6849084
50
28.9597691
51
37.1535207
0
ARC
8
DEFAULT_255_2_778
10
8.8300854
20
10.1553216
40
1.349385
50
37.1087986
51
47.1084
0
ARC
8
DEFAULT_255_2_778
10
9.0266125
20
10.3684553
40
1.0594758
50
47.0501299
51
59.643337
0
ARC
8
DEFAULT_255_2_778
10
9.1444989
20
10.5734827
40
0.822983
50
59.5115245
51
78.2351844
0
ARC
8
DEFAULT_255_2_778
10
9.1697447
20
10.6750728
40
0.7183908
50
78.554349
51
86.8830328
0
ARC
8
DEFAULT_255_2_778
10
9.171208
20
10.695008
40
0.6984056
50
86.9139785
51
89.9975765
0
ARC
8
DEFAULT_255_2_778
10
9.1741874
20
10.6774535
40
0.7159662
50
90.2360685
51
119.288122
0
ARC
8
DEFAULT_255_2_778
10
9.2699589
20
10.5013643
40
0.9164014
50
119.1246825
51
134.3048812
0
ARC
8
DEFAULT_255_2_778
10
9.4800278
20
10.2835111
40
1.2190341
50
134.2187302
51
145.2473203
0
ARC
8
DEFAULT_255_2_778
10
9.8042911
20
10.0561175
40
1.6150789
50
145.176732
51
153.526451
0
ARC
8
DEFAULT_255_2_778
10
10.239414
20
9.837811
40
2.1018929
50
153.4870932
51
160.23781
0
ARC
8
DEFAULT_255_2_778
10
10.7345929
20
9.6567738
40
2.6291212
50
160.1735982
51
164.8098117
0
ARC
8
DEFAULT_255_2_778
10
15.07093
20
8.6470449
40
7.0803742
50
166.1190303
51
169.9742932
0
ARC
8
DEFAULT_255_2_778
10
16.0453953
20
8.4737911
40
8.070121
50
169.9674528
51
172.5547219
0
ARC
8
DEFAULT_255_2_778
10
20.997423
20
7.9194417
40
13.0525548
50
172.9585886
51
178.162983
0
ARC
8
DEFAULT_255_2_778
10
61.6523262
20
6.273881
40
53.7403993
50
177.7989291
51
178.390074
0
ARC
8
DEFAULT_255_2_778
10
-88.9305098
20
10.574971
40
96.9038588
50
358.0877955
51
358.3493976
0
ARC
8
DEFAULT_255_2_778
10
-25.2749345
20
8.4602815
40
33.2131699
50
357.4149226
51
358.0695927
0
ARC
8
DEFAULT_255_2_778
10
-14.2945655
20
7.9659173
40
22.2216778
50
356.402738
51
357.4113532
0
ARC
8
DEFAULT_255_2_778
10
7.8630275
20
6.5726404
40
0.0203254
50
283.3758967
51
357.2534641
0
ARC
8
DEFAULT_255_2_778
10
7.8626142
20
6.5736994
40
0.0214518
50
269.9515471
51
283.7953797
0
ARC
8
DEFAULT_255_2_778
10
7.8625902
20
6.5740597
40
0.021812
50
268.1474593
51
270.0154712
0
ARC
8
DEFAULT_255_2_778
10
7.8618931
20
6.5709045
40
0.0186452
50
204.5205539
51
269.9753968
0
ARC
8
DEFAULT_255_2_778
10
4.097896
20
13.5646578
40
1.0501365
50
308.1528259
51
359.8640681
0
ARC
8
DEFAULT_255_2_778
10
4.1191298
20
13.5622823
40
1.0288998
50
359.9935463
51
45.0111962
0
ARC
8
DEFAULT_255_2_778
10
4.1186949
20
13.5622037
40
1.0292628
50
44.9971731
51
89.9925078
0
ARC
8
DEFAULT_255_2_778
10
4.1188881
20
13.5621457
40
1.0293207
50
90.0032627
51
135.0014906
0
ARC
8
DEFAULT_255_2_778
10
4.1188503
20
13.5621078
40
1.0293207
50
134.9985094
51
179.9967373
0
ARC
8
DEFAULT_255_2_778
10
4.1187919
20
13.5623009
40
1.0292624
50
180.0074874
51
225.0028404
0
ARC
8
DEFAULT_255_2_778
10
4.1187143
20
13.5618668
40
1.0289006
50
224.9888043
51
270.0064186
0
ARC
8
DEFAULT_255_2_778
10
4.1119098
20
13.0655265
40
0.532605
50
270.7444267
51
278.0090156
0
ARC
8
DEFAULT_255_2_778
10
4.2578853
20
12.055446
40
0.4879769
50
91.4509096
51
98.4573484
0
ARC
8
DEFAULT_255_2_778
10
8.4125455
20
4.7403124
40
0.9625761
50
202.074399
51
214.0981013
0
ARC
8
DEFAULT_255_2_778
10
8.2872289
20
4.6552542
40
0.8111194
50
214.0853211
51
230.1839379
0
ARC
8
DEFAULT_255_2_778
10
8.2479276
20
4.6104914
40
0.751573
50
230.300175
51
256.7675625
0
ARC
8
DEFAULT_255_2_778
10
8.2566387
20
4.6467345
40
0.7888478
50
256.7542193
51
270.0577805
0
ARC
8
DEFAULT_255_2_778
10
8.257434
20
4.6671109
40
0.8092237
50
270.0000197
51
270.6292405
0
ARC
8
DEFAULT_255_2_778
10
8.2535612
20
4.7066371
40
0.8487971
50
270.8613481
51
315.3664009
0
ARC
8
DEFAULT_255_2_778
10
8.2518542
20
4.7065791
40
0.8499718
50
315.4500241
51
339.4822926
0
ARC
8
DEFAULT_255_2_778
10
8.1565399
20
4.7411754
40
0.9513662
50
339.5428609
51
355.9465909
0
ARC
8
DEFAULT_255_2_778
10
8.0436828
20
4.753535
40
1.0648235
50
355.7124615
51
358.2849684
0
ARC
8
DEFAULT_255_2_778
10
9.2574407
20
9.6130443
40
0.0226246
50
85.1583663
51
181.9704124
0
ARC
8
DEFAULT_255_2_778
10
9.2593432
20
9.6032887
40
0.0322995
50
88.3009458
51
89.9874707
0
ARC
8
DEFAULT_255_2_778
10
9.2607214
20
9.6087285
40
0.026849
50
31.0242766
51
90.897333
0
ARC
8
DEFAULT_255_2_778
10
13.3251861
20
2.8405286
40
1.777181
50
150.9467811
51
179.998168
0
ARC
8
DEFAULT_255_2_778
10
13.3278443
20
2.8406243
40
1.7798392
50
180.0012511
51
180.3012458
0
ARC
8
DEFAULT_255_2_778
10
13.3557681
20
2.8304587
40
1.8077388
50
179.9743982
51
206.0836186
0
ARC
8
DEFAULT_255_2_778
10
13.3641829
20
2.8348542
40
1.8172291
50
206.091438
51
260.5474298
0
ARC
8
DEFAULT_255_2_778
10
13.3623799
20
2.8457799
40
1.8277139
50
260.6594325
51
269.9639363
0
LINE
8
DEFAULT_255_2_778
10
3.3615295
20
16.2810664
11
14.8762295
21
16.2810664
0
LINE
8
DEFAULT_255_2_778
10
17.5855295
20
13.5717664
11
17.5855295
21
2.0570664
0
LINE
8
DEFAULT_255_2_778
10
14.8762295
20
-0.6522336
11
3.3615295
21
-0.6522336
0
LINE
8
DEFAULT_255_2_778
10
0.6522295
20
2.0570664
11
0.6522295
21
13.5717664
0
LINE
8
DEFAULT_255_2_778
10
3.3615295
20
16.2810664
11
3.3615295
21
16.2810664
0
LINE
8
DEFAULT_255_2_778
10
13.3633295
20
1.0143664
11
13.3601295
21
1.0143664
0
LINE
8
DEFAULT_255_2_778
10
13.5078295
20
4.6396664
11
10.0375295
21
10.7676664
0
LINE
8
DEFAULT_255_2_778
10
7.8449295
20
6.5631664
11
4.7466295
21
12.7388664
0
LINE
8
DEFAULT_255_2_778
10
4.2455295
20
12.5432664
11
7.5205295
21
4.3785664
0
LINE
8
DEFAULT_255_2_778
10
9.1080295
20
4.7216664
11
9.2348295
21
9.6122664
0
LINE
8
DEFAULT_255_2_778
10
9.2837295
20
9.6225664
11
11.7716295
21
3.7035664
0
LINE
8
DEFAULT_255_2_778
10
13.3612295
20
1.0180664
11
13.3633295
21
1.0143664
0
ENDSEC
0
EOF