0
SECTION
2
HEADER
9
$MEASUREMENT
70
1
0
ENDSEC
0
SECTION
2
TABLES
0
TABLE
2
LTYPE
0
LTYPE
72
65
70
64
2
CONTINUOUS
3
______
73
0
40
0
0
ENDTAB
0
TABLE
2
LAYER
0
LAYER
2
DEFAULT_255_2_778
70
0
62
255
6
CONTINUOUS
0
ENDTAB
0
ENDSEC
0
SECTION
2
ENTITIES
0
ARC
8
DEFAULT_255_2_778
10
1.4721194
20
15.2337845
40
1.4308541
50
58.9544814
51
83.5352439
0
ARC
8
DEFAULT_255_2_778
10
1.3996863
20
14.7075301
40
1.9619587
50
83.1637591
51
90.1707921
0
ARC
8
DEFAULT_255_2_778
10
1.3809959
20
14.5649302
40
2.1045889
50
89.6503842
51
99.5097599
0
ARC
8
DEFAULT_255_2_778
10
1.2522803
20
15.3074974
40
1.3509676
50
99.3289602
51
114.7818933
0
ARC
8
DEFAULT_255_2_778
10
1.1296633
20
15.5925977
40
1.0407576
50
115.2321664
51
123.5787849
0
ARC
8
DEFAULT_255_2_778
10
0.9730104
20
15.8029467
40
0.7789972
50
122.5364287
51
147.3283784
0
ARC
8
DEFAULT_255_2_778
10
0.833367
20
15.9061186
40
0.6058623
50
148.4126867
51
180.5994483
0
ARC
8
DEFAULT_255_2_778
10
0.765571
20
0.5415877
40
0.5381784
50
181.3317157
51
215.6518312
0
ARC
8
DEFAULT_255_2_778
10
1.1655407
20
0.8089092
40
1.0191182
50
214.7574782
51
230.4874067
0
ARC
8
DEFAULT_255_2_778
10
1.4418723
20
1.1153705
40
1.4314794
50
229.7589123
51
231.6676825
0
ARC
8
DEFAULT_255_2_778
10
1.349359
20
1.0958599
40
1.3601408
50
234.2157709
51
269.9981021
0
ARC
8
DEFAULT_255_2_778
10
1.3493075
20
1.0979987
40
1.3622796
50
270.0002708
51
270.8803406
0
ARC
8
DEFAULT_255_2_778
10
1.3745276
20
1.1295614
40
1.393688
50
269.8236482
51
270.0026235
0
ARC
8
DEFAULT_255_2_778
10
1.374504
20
1.1490199
40
1.4131465
50
270.0035434
51
305.0735991
0
ARC
8
DEFAULT_255_2_778
10
1.5693748
20
0.8919316
40
1.0908269
50
304.4561564
51
318.4333019
0
ARC
8
DEFAULT_255_2_778
10
1.9242429
20
0.5845475
40
0.6213978
50
317.9287456
51
342.8722535
0
ARC
8
DEFAULT_255_2_778
10
2.0763106
20
0.5298553
40
0.4600279
50
343.8041814
51
359.9034359
0
ARC
8
DEFAULT_255_2_778
10
1.957822
20
15.9601903
40
0.5814171
50
354.273847
51
359.9521635
0
ARC
8
DEFAULT_255_2_778
10
2.0104214
20
15.9553798
40
0.5288352
50
0.4685914
51
52.0289716
0
ARC
8
DEFAULT_255_2_778
10
1.735113
20
15.6630415
40
0.9294224
50
49.7371609
51
59.2846
0
ARC
8
DEFAULT_255_2_778
10
4.549747
20
7.9766695
40
0.5794076
50
134.1677804
51
172.5195584
0
ARC
8
DEFAULT_255_2_778
10
4.7094836
20
7.9512656
40
0.741105
50
172.1800069
51
180.1449744
0
ARC
8
DEFAULT_255_2_778
10
4.9055474
20
7.9516339
40
0.937169
50
180.1371634
51
186.7115383
0
ARC
8
DEFAULT_255_2_778
10
5.1059663
20
7.9731145
40
1.1387269
50
186.6063924
51
189.4637979
0
ARC
8
DEFAULT_255_2_778
10
5.1403833
20
7.8796258
40
1.161435
50
184.6296942
51
217.7856779
0
ARC
8
DEFAULT_255_2_778
10
5.3916967
20
8.0591473
40
1.4700943
50
217.3138968
51
225.0581074
0
ARC
8
DEFAULT_255_2_778
10
5.5333168
20
8.0588119
40
1.5731079
50
221.3959693
51
245.5330633
0
ARC
8
DEFAULT_255_2_778
10
5.4212874
20
7.8407869
40
1.3283136
50
246.0364526
51
255.9732652
0
ARC
8
DEFAULT_255_2_778
10
5.3772806
20
7.6552899
40
1.1376836
50
255.8591909
51
263.2097992
0
ARC
8
DEFAULT_255_2_778
10
5.3483544
20
7.42002
40
0.9006443
50
263.2674562
51
269.8903895
0
ARC
8
DEFAULT_255_2_778
10
5.3532257
20
7.1907454
40
0.6714003
50
269.4372501
51
287.5768914
0
ARC
8
DEFAULT_255_2_778
10
5.3965302
20
7.0471765
40
0.5214609
50
287.8046672
51
309.6165527
0
ARC
8
DEFAULT_255_2_778
10
7.5030811
20
0.5444747
40
0.5380883
50
181.3305576
51
215.6548723
0
ARC
8
DEFAULT_255_2_778
10
7.9024027
20
0.8114014
40
1.01827
50
214.7615424
51
230.5018709
0
ARC
8
DEFAULT_255_2_778
10
8.1779118
20
1.1170776
40
1.4294974
50
229.7736177
51
231.6846035
0
ARC
8
DEFAULT_255_2_778
10
8.0091176
20
0.9196163
40
1.1699594
50
232.1749995
51
257.7769057
0
ARC
8
DEFAULT_255_2_778
10
8.1005345
20
1.2942571
40
1.5554942
50
257.4075987
51
270.2690191
0
ARC
8
DEFAULT_255_2_778
10
8.1169803
20
1.2511642
40
1.5124118
50
269.6536518
51
287.6634923
0
ARC
8
DEFAULT_255_2_778
10
8.1464568
20
1.1363711
40
1.394103
50
287.9406782
51
305.0781265
0
ARC
8
DEFAULT_255_2_778
10
8.3351278
20
0.8911879
40
1.0851089
50
304.365414
51
318.4246898
0
ARC
8
DEFAULT_255_2_778
10
8.6869296
20
0.5862538
40
0.619599
50
317.93082
51
342.9366045
0
ARC
8
DEFAULT_255_2_778
10
8.8359895
20
0.5327083
40
0.4614488
50
343.8616502
51
359.9095715
0
ARC
8
DEFAULT_255_2_778
10
8.7489589
20
9.8202668
40
0.5485372
50
359.165733
51
54.6162287
0
ARC
8
DEFAULT_255_2_778
10
8.3851345
20
9.3992191
40
1.103751
50
51.8735369
51
59.3608805
0
ARC
8
DEFAULT_255_2_778
10
8.2243504
20
9.1257701
40
1.4209654
50
59.4020014
51
79.4379416
0
ARC
8
DEFAULT_255_2_778
10
8.1027544
20
8.5075114
40
2.0510469
50
79.2645013
51
89.7515619
0
ARC
8
DEFAULT_255_2_778
10
8.084707
20
7.9811684
40
2.5775116
50
89.4011185
51
90.0015358
0
ARC
8
DEFAULT_255_2_778
10
8.0722054
20
8.5117144
40
2.0470033
50
89.6520105
51
98.5253736
0
ARC
8
DEFAULT_255_2_778
10
7.9580404
20
9.2450676
40
1.3048355
50
98.341571
51
114.2665351
0
ARC
8
DEFAULT_255_2_778
10
7.8880346
20
9.4199562
40
1.1166573
50
114.6798822
51
123.7077491
0
LINE
8
DEFAULT_255_2_778
10
0.2275379
20
15.89978
11
0.2275379
21
0.52908
0
LINE
8
DEFAULT_255_2_778
10
2.5363379
20
0.52908
11
2.5363379
21
15.90218
0
LINE
8
DEFAULT_255_2_778
10
5.7290379
20
6.64548
11
6.9651379
21
7.41278
0
LINE
8
DEFAULT_255_2_778
10
6.9651379
20
7.41278
11
6.9651379
21
0.53198
0
LINE
8
DEFAULT_255_2_778
10
9.2974379
20
0.53198
11
9.2974379
21
9.81228
0
LINE
8
DEFAULT_255_2_778
10
7.2683379
20
10.34888
11
4.1428379
21
8.38958
0
ENDSEC
0
EOF