0
SECTION
2
HEADER
9
$MEASUREMENT
70
1
0
ENDSEC
0
SECTION
2
TABLES
0
TABLE
2
LTYPE
0
LTYPE
72
65
70
64
2
CONTINUOUS
3
______
73
0
40
0
0
ENDTAB
0
TABLE
2
LAYER
0
LAYER
2
DEFAULT_255_2_778
70
0
62
255
6
CONTINUOUS
0
ENDTAB
0
ENDSEC
0
SECTION
2
ENTITIES
0
LINE
8
DEFAULT_255_2_778
10
0.1323142
20
-0.2111055
11
4.1167142
21
6.9860945
0
LINE
8
DEFAULT_255_2_778
10
4.1167142
20
6.9860945
11
0.1323142
21
14.1832945
0
LINE
8
DEFAULT_255_2_778
10
0.1323142
20
14.1832945
11
3.1205142
21
14.1832945
0
LINE
8
DEFAULT_255_2_778
10
3.1205142
20
14.1832945
11
7.1049142
21
6.9860945
0
LINE
8
DEFAULT_255_2_778
10
7.1049142
20
6.9860945
11
3.1205142
21
-0.2111055
0
LINE
8
DEFAULT_255_2_778
10
3.1205142
20
-0.2111055
11
0.1323142
21
-0.2111055
0
LINE
8
DEFAULT_255_2_778
10
0.1323142
20
-0.2111055
11
0.1323142
21
-0.2111055
0
LINE
8
DEFAULT_255_2_778
10
4.1166726
20
-0.2111055
11
8.1010726
21
6.9860945
0
LINE
8
DEFAULT_255_2_778
10
8.1010726
20
6.9860945
11
4.1166726
21
14.1832945
0
LINE
8
DEFAULT_255_2_778
10
4.1166726
20
14.1832945
11
7.1048726
21
14.1832945
0
LINE
8
DEFAULT_255_2_778
10
7.1048726
20
14.1832945
11
15.0733726
21
-0.2111055
0
LINE
8
DEFAULT_255_2_778
10
15.0733726
20
-0.2111055
11
12.0851726
21
-0.2111055
0
LINE
8
DEFAULT_255_2_778
10
12.0851726
20
-0.2111055
11
9.5951726
21
4.2870945
0
LINE
8
DEFAULT_255_2_778
10
9.5951726
20
4.2870945
11
7.1048726
21
-0.2111055
0
LINE
8
DEFAULT_255_2_778
10
7.1048726
20
-0.2111055
11
4.1166726
21
-0.2111055
0
LINE
8
DEFAULT_255_2_778
10
4.1166726
20
-0.2111055
11
4.1166726
21
-0.2111055
0
LINE
8
DEFAULT_255_2_778
10
13.7451117
20
3.9872538
11
12.4171117
21
6.3864538
0
LINE
8
DEFAULT_255_2_778
10
12.4171117
20
6.3864538
11
17.0653117
21
6.3867538
0
LINE
8
DEFAULT_255_2_778
10
17.0653117
20
6.3867538
11
17.0653117
21
3.9875538
0
LINE
8
DEFAULT_255_2_778
10
17.0653117
20
3.9875538
11
13.7451117
21
3.9875538
0
LINE
8
DEFAULT_255_2_778
10
13.7451117
20
3.9875538
11
13.7451117
21
3.9872538
0
LINE
8
DEFAULT_255_2_778
10
11.7530117
20
7.5858538
11
10.4248117
21
9.9850538
0
LINE
8
DEFAULT_255_2_778
10
10.4248117
20
9.9850538
11
17.0656117
21
9.9853538
0
LINE
8
DEFAULT_255_2_778
10
17.0656117
20
9.9853538
11
17.0656117
21
7.5861538
0
LINE
8
DEFAULT_255_2_778
10
17.0656117
20
7.5861538
11
11.7525117
21
7.5861538
0
LINE
8
DEFAULT_255_2_778
10
11.7525117
20
7.5861538
11
11.7530117
21
7.5858538
0
ENDSEC
0
EOF