0
SECTION
2
HEADER
9
$MEASUREMENT
70
1
0
ENDSEC
0
SECTION
2
TABLES
0
TABLE
2
LTYPE
0
LTYPE
72
65
70
64
2
CONTINUOUS
3
______
73
0
40
0
0
ENDTAB
0
TABLE
2
LAYER
0
LAYER
2
DEFAULT_255_2_778
70
0
62
255
6
CONTINUOUS
0
ENDTAB
0
ENDSEC
0
SECTION
2
ENTITIES
0
ARC
8
DEFAULT_255_2_778
10
23.2279673
20
-6.8002231
40
18.059149
50
149.234599
51
158.6905282
0
ARC
8
DEFAULT_255_2_778
10
23.6978258
20
23.485014
40
18.5742534
50
201.4392115
51
210.6321993
0
ARC
8
DEFAULT_255_2_778
10
19.262204
20
19.0177681
40
9.3397144
50
213.1153541
51
224.7301807
0
ARC
8
DEFAULT_255_2_778
10
25.8025526
20
23.4376867
40
17.2329294
50
209.756034
51
213.5437109
0
ARC
8
DEFAULT_255_2_778
10
33.4672661
20
27.9043681
40
26.1039773
50
209.2865943
51
209.9177461
0
ARC
8
DEFAULT_255_2_778
10
33.4200261
20
-11.4359101
40
26.0475353
50
149.9839488
51
150.679643
0
ARC
8
DEFAULT_255_2_778
10
21.8178241
20
-4.5039983
40
12.5352906
50
139.3392685
51
150.8904817
0
ARC
8
DEFAULT_255_2_778
10
17.878742
20
-1.289175
40
7.4535649
50
134.6939727
51
138.3559135
0
LINE
8
DEFAULT_255_2_778
10
3.5301014
20
6.6173664
11
3.5301014
21
3.3579664
0
LINE
8
DEFAULT_255_2_778
10
3.5301014
20
3.3579664
11
8.2593014
21
3.3579664
0
LINE
8
DEFAULT_255_2_778
10
8.2593014
20
3.3579664
11
7.7103014
21
2.4374664
0
LINE
8
DEFAULT_255_2_778
10
6.4035014
20
-0.2374336
11
0.3014014
21
-0.2374336
0
LINE
8
DEFAULT_255_2_778
10
0.3014014
20
-0.2374336
11
0.3014014
21
16.6958664
0
LINE
8
DEFAULT_255_2_778
10
0.3014014
20
16.6958664
11
6.4088014
21
16.6958664
0
LINE
8
DEFAULT_255_2_778
10
7.7155014
20
14.0209664
11
8.2646014
21
13.1009664
0
LINE
8
DEFAULT_255_2_778
10
8.2646014
20
13.1009664
11
3.5349014
21
13.1009664
0
LINE
8
DEFAULT_255_2_778
10
3.5349014
20
13.1009664
11
3.5349014
21
9.8412664
0
LINE
8
DEFAULT_255_2_778
10
3.5349014
20
9.8412664
11
12.8098014
21
9.8412664
0
LINE
8
DEFAULT_255_2_778
10
12.8098014
20
9.8412664
11
12.8098014
21
12.2667664
0
LINE
8
DEFAULT_255_2_778
10
12.8098014
20
12.2667664
11
12.6270014
21
12.4447664
0
LINE
8
DEFAULT_255_2_778
10
10.6998014
20
15.1348664
11
10.3389014
21
15.8110664
0
LINE
8
DEFAULT_255_2_778
10
10.3389014
20
15.8110664
11
9.9113014
21
16.6910664
0
LINE
8
DEFAULT_255_2_778
10
9.9113014
20
16.6910664
11
16.0486014
21
16.6910664
0
LINE
8
DEFAULT_255_2_778
10
16.0486014
20
16.6910664
11
16.0486014
21
-0.2369336
0
LINE
8
DEFAULT_255_2_778
10
16.0486014
20
-0.2369336
11
9.9113014
21
-0.2369336
0
LINE
8
DEFAULT_255_2_778
10
9.9113014
20
-0.2369336
11
10.3484014
21
0.6427664
0
LINE
8
DEFAULT_255_2_778
10
10.3484014
20
0.6427664
11
10.7093014
21
1.3193664
0
LINE
8
DEFAULT_255_2_778
10
12.6365014
20
4.0093664
11
12.8194014
21
4.1874664
0
LINE
8
DEFAULT_255_2_778
10
12.8194014
20
4.1874664
11
12.8194014
21
6.6128664
0
LINE
8
DEFAULT_255_2_778
10
12.8194014
20
6.6128664
11
3.5301014
21
6.6173664
0
ENDSEC
0
EOF